  0
SECTION
  2
HEADER
  9
$ACADVER
  1
AC1009
  9
$INSBASE
 10
4557.2070265034635668
 20
499.7639130536201719
 30
0.0
  9
$EXTMIN
 10
4547.7897589912117837
 20
495.8232049952201805
 30
0.0
  9
$EXTMAX
 10
4566.6242844629969113
 20
503.3780856238366255
 30
0.0
  9
$LIMMIN
 10
0.0
 20
0.0
  9
$LIMMAX
 10
11.6929133858000007
 20
8.2677165353999982
  9
$ORTHOMODE
 70
     0
  9
$REGENMODE
 70
     1
  9
$FILLMODE
 70
     1
  9
$QTEXTMODE
 70
     0
  9
$MIRRTEXT
 70
     0
  9
$DRAGMODE
 70
     2
  9
$LTSCALE
 40
0.6431102362
  9
$OSMODE
 70
   695
  9
$ATTMODE
 70
     1
  9
$TEXTSIZE
 40
0.2
  9
$TRACEWID
 40
0.05
  9
$TEXTSTYLE
  7
STANDARD
  9
$CLAYER
  8
0
  9
$CELTYPE
  6
BYLAYER
  9
$CECOLOR
 62
   256
  9
$DIMSCALE
 40
1.0
  9
$DIMASZ
 40
0.1875
  9
$DIMEXO
 40
0.0625
  9
$DIMDLI
 40
0.4443307087
  9
$DIMRND
 40
0.0
  9
$DIMDLE
 40
0.0
  9
$DIMEXE
 40
0.125
  9
$DIMTP
 40
0.01
  9
$DIMTM
 40
0.01
  9
$DIMTXT
 40
2.0
  9
$DIMCEN
 40
0.1052362205
  9
$DIMTSZ
 40
0.0
  9
$DIMTOL
 70
     1
  9
$DIMLIM
 70
     0
  9
$DIMTIH
 70
     1
  9
$DIMTOH
 70
     1
  9
$DIMSE1
 70
     0
  9
$DIMSE2
 70
     0
  9
$DIMTAD
 70
     0
  9
$DIMZIN
 70
     0
  9
$DIMBLK
  1

  9
$DIMASO
 70
     1
  9
$DIMSHO
 70
     1
  9
$DIMPOST
  1
\X
  9
$DIMAPOST
  1

  9
$DIMALT
 70
     1
  9
$DIMALTD
 70
     2
  9
$DIMALTF
 40
25.3999999999999986
  9
$DIMLFAC
 40
1.0
  9
$DIMTOFL
 70
     0
  9
$DIMTVP
 40
0.0
  9
$DIMTIX
 70
     0
  9
$DIMSOXD
 70
     0
  9
$DIMSAH
 70
     0
  9
$DIMBLK1
  1

  9
$DIMBLK2
  1

  9
$DIMSTYLE
  2
STANDARD
  9
$DIMCLRD
 70
     0
  9
$DIMCLRE
 70
     0
  9
$DIMCLRT
 70
     0
  9
$DIMTFAC
 40
1.0
  9
$DIMGAP
 40
0.09
  9
$LUNITS
 70
     2
  9
$LUPREC
 70
     4
  9
$SKETCHINC
 40
0.1
  9
$FILLETRAD
 40
0.0
  9
$AUNITS
 70
     0
  9
$AUPREC
 70
     0
  9
$MENU
  1
.
  9
$ELEVATION
 40
0.0
  9
$PELEVATION
 40
0.0
  9
$THICKNESS
 40
0.0
  9
$LIMCHECK
 70
     0
  9
$BLIPMODE
 70
     0
  9
$CHAMFERA
 40
0.0
  9
$CHAMFERB
 40
0.0
  9
$SKPOLY
 70
     0
  9
$TDCREATE
 40
2458060.468368056230247
  9
$TDUPDATE
 40
2459297.764398149214685
  9
$TDINDWG
 40
1.5425953703999999
  9
$TDUSRTIMER
 40
1.5425953703999999
  9
$USRTIMER
 70
     1
  9
$ANGBASE
 50
0.0
  9
$ANGDIR
 70
     0
  9
$PDMODE
 70
     0
  9
$PDSIZE
 40
0.3125
  9
$PLINEWID
 40
0.0
  9
$COORDS
 70
     1
  9
$SPLFRAME
 70
     0
  9
$SPLINETYPE
 70
     6
  9
$SPLINESEGS
 70
     8
  9
$ATTDIA
 70
     1
  9
$ATTREQ
 70
     1
  9
$HANDLING
 70
     1
  9
$HANDSEED
  5
19EBF
  9
$SURFTAB1
 70
     6
  9
$SURFTAB2
 70
     6
  9
$SURFTYPE
 70
     6
  9
$SURFU
 70
     6
  9
$SURFV
 70
     6
  9
$UCSNAME
  2

  9
$UCSORG
 10
0.0
 20
0.0
 30
0.0
  9
$UCSXDIR
 10
1.0
 20
0.0
 30
0.0
  9
$UCSYDIR
 10
0.0
 20
1.0
 30
0.0
  9
$PUCSNAME
  2

  9
$PUCSORG
 10
0.0
 20
0.0
 30
0.0
  9
$PUCSXDIR
 10
1.0
 20
0.0
 30
0.0
  9
$PUCSYDIR
 10
0.0
 20
1.0
 30
0.0
  9
$USERI1
 70
     0
  9
$USERI2
 70
     0
  9
$USERI3
 70
     0
  9
$USERI4
 70
     0
  9
$USERI5
 70
     0
  9
$USERR1
 40
0.0
  9
$USERR2
 40
0.0
  9
$USERR3
 40
0.0
  9
$USERR4
 40
0.0
  9
$USERR5
 40
0.0
  9
$WORLDVIEW
 70
     1
  9
$SHADEDGE
 70
     3
  9
$SHADEDIF
 70
    70
  9
$TILEMODE
 70
     1
  9
$MAXACTVP
 70
    64
  9
$PLIMCHECK
 70
     0
  9
$PEXTMIN
 10
1.0000000000000000E+20
 20
1.0000000000000000E+20
 30
1.0000000000000000E+20
  9
$PEXTMAX
 10
-1.0000000000000000E+20
 20
-1.0000000000000000E+20
 30
-1.0000000000000000E+20
  9
$PLIMMIN
 10
0.0
 20
0.0
  9
$PLIMMAX
 10
12.0
 20
9.0
  9
$UNITMODE
 70
     0
  9
$VISRETAIN
 70
     1
  9
$PLINEGEN
 70
     0
  9
$PSLTSCALE
 70
     1
  0
ENDSEC
  0
SECTION
  2
TABLES
  0
TABLE
  2
VPORT
 70
     1
  0
VPORT
  2
*ACTIVE
 70
     0
 10
0.0
 20
0.0
 11
1.0
 21
1.0
 12
646.0290550133172474
 22
367.2232345543994825
 13
0.0
 23
0.0
 14
1.0
 24
1.0
 15
0.0
 25
0.0
 16
0.0
 26
0.0
 36
60.4960186965801583
 17
3911.3653564453120453
 27
132.5796051025390057
 37
0.0
 40
2.250952695047824
 41
1.866962305986696
 42
50.0
 43
0.0
 44
0.0
 50
0.0
 51
0.0
 71
     0
 72
   100
 73
     1
 74
     1
 75
     0
 76
     0
 77
     0
 78
     0
  0
ENDTAB
  0
TABLE
  2
LTYPE
 70
     2
  0
LTYPE
  2
CONTINUOUS
 70
     0
  3
Solid line
 72
    65
 73
     0
 40
0.0
  0
LTYPE
  2
PHANTOM2
 70
     0
  3
___ _ _ ___ _ _ ___ _ _ ___ _ _
 72
    65
 73
     6
 40
1.25
 49
0.625
 49
-0.125
 49
0.125
 49
-0.125
 49
0.125
 49
-0.125
  0
ENDTAB
  0
TABLE
  2
LAYER
 70
     2
  0
LAYER
  2
0
 70
     0
 62
   255
  6
CONTINUOUS
  0
LAYER
  2
DEFPOINTS
 70
     0
 62
     7
  6
CONTINUOUS
  0
ENDTAB
  0
TABLE
  2
STYLE
 70
     1
  0
STYLE
  2
STANDARD
 70
     0
 40
0.0
 41
0.8
 50
0.0
 71
     0
 42
0.2
  3
txt
  4

  0
ENDTAB
  0
TABLE
  2
VIEW
 70
     0
  0
ENDTAB
  0
TABLE
  2
UCS
 70
     0
  0
ENDTAB
  0
TABLE
  2
APPID
 70
    11
  0
APPID
  2
ACAD
 70
     0
  0
APPID
  2
ACAD_MLEADERVER
 70
     0
  0
APPID
  2
ACAD_EXEMPT_FROM_CAD_STANDARDS
 70
     0
  0
APPID
  2
ACAD_NAV_VCDISPLAY
 70
     0
  0
APPID
  2
ACAECLAYERSTANDARD
 70
     0
  0
APPID
  2
ACCMTRANSPARENCY
 70
     0
  0
APPID
  2
ACAD_DSTYLE_DIMJAG
 70
     0
  0
APPID
  2
ACAD_DSTYLE_DIMTALN
 70
     0
  0
APPID
  2
ACDBATTR
 70
     0
  0
APPID
  2
ACADANNOTATIVE
 70
     0
  0
APPID
  2
DCO15
 70
     0
  0
ENDTAB
  0
TABLE
  2
DIMSTYLE
 70
     1
  0
DIMSTYLE
  2
STANDARD
 70
     0
  3

  4

  5

  6

  7

 40
1.0
 41
0.1875
 42
0.0625
 43
0.38
 44
0.125
 45
0.0
 46
0.0
 47
0.01
 48
0.01
140
0.15625
141
0.09
142
0.0
143
25.3999999999999986
144
1.0
145
0.0
146
1.0
147
0.09
 71
     1
 72
     0
 73
     1
 74
     1
 75
     0
 76
     0
 77
     0
 78
     4
170
     0
171
     2
172
     0
173
     0
174
     0
175
     0
176
     0
177
     0
178
     0
  0
ENDTAB
  0
ENDSEC
  0
SECTION
  2
BLOCKS
  0
BLOCK
  8
0
  2
$MODEL_SPACE
 70
     0
 10
0.0
 20
0.0
 30
0.0
  3
$MODEL_SPACE
  1

  0
ENDBLK
  5
21
  8
0
  0
BLOCK
 67
     1
  8
0
  2
$PAPER_SPACE
 70
     0
 10
0.0
 20
0.0
 30
0.0
  3
$PAPER_SPACE
  1

  0
ENDBLK
  5
1D
 67
     1
  8
0
  0
BLOCK
  8
0
  2
_CLOSED
 70
     0
 10
0.0
 20
0.0
 30
0.0
  3
_CLOSED
  1

  0
LINE
  5
19D78
  8
0
  6
BYBLOCK
 62
     0
 10
0.0
 20
0.0
 30
0.0
 11
-1.0
 21
0.1666666667
 31
0.0
  0
LINE
  5
19D79
  8
0
  6
BYBLOCK
 62
     0
 10
-1.0
 20
0.1666666667
 30
0.0
 11
-1.0
 21
-0.1666666667
 31
0.0
  0
LINE
  5
19D7A
  8
0
  6
BYBLOCK
 62
     0
 10
-1.0
 20
-0.1666666667
 30
0.0
 11
0.0
 21
0.0
 31
0.0
  0
LINE
  5
19D7B
  8
0
  6
BYBLOCK
 62
     0
 10
-1.0
 20
0.0
 30
0.0
 11
0.0
 21
0.0
 31
0.0
  0
ENDBLK
  5
19D7C
  8
0
  6
BYBLOCK
 62
     0
  0
ENDSEC
  0
SECTION
  2
ENTITIES
  0
LINE
  5
19DBC
  8
0
 10
4548.3975074186137135
 20
501.0030265815203165
 30
0.0
 11
4548.8448869281837688
 21
499.7639130536201719
 31
0.0
  0
LINE
  5
19DBD
  8
0
 10
4562.306657739012735
 20
496.7705379314202787
 30
0.0
 11
4562.3605134970130166
 21
496.783276633920309
 31
0.0
  0
LINE
  5
19DBE
  8
0
 10
4550.8598477711129817
 20
499.6774363523202851
 30
0.0
 11
4551.1012592354127264
 21
499.4923039618201983
 31
0.0
  0
LINE
  5
19DBF
  8
0
 10
4562.2532905912130445
 20
496.762272959120196
 30
0.0
 11
4562.3066631867131946
 21
496.7705389847203037
 31
0.0
  0
LINE
  5
19DC0
  8
0
 10
4562.2049274423134193
 20
496.7579822167202224
 30
0.0
 11
4562.2532789490142022
 21
496.7622715805202915
 31
0.0
  0
LINE
  5
19DC1
  8
0
 10
4558.1636334495133269
 20
495.8232049952202942
 30
0.0
 11
4560.3619294827130943
 21
495.8232049952202942
 31
0.0
  0
LINE
  5
19DC2
  8
0
 10
4561.0297858333133263
 20
496.3780862819202753
 30
0.0
 11
4560.807281225913357
 21
496.3780862814202806
 31
0.0
  0
LINE
  5
19DC3
  8
0
 10
4557.8623786538128115
 20
497.2048224465203248
 30
0.0
 11
4557.967533353813451
 21
496.0028987466203034
 31
0.0
  0
LINE
  5
19DC4
  8
0
 10
4562.2049306577127936
 20
496.7579823390202023
 30
0.0
 11
4562.2049280798137261
 21
496.7579821830203173
 31
0.0
  0
LINE
  5
19DC5
  8
0
 10
4562.2049280798137261
 20
496.7579821830203173
 30
0.0
 11
4562.1811405503131027
 21
496.75780242302028
 31
0.0
  0
LINE
  5
19DC6
  8
0
 10
4560.571961676412684
 20
496.1621294223202767
 30
0.0
 11
4560.5580307992131566
 21
496.0028987466203034
 31
0.0
  0
LINE
  5
19DC7
  8
0
 10
4565.5014928358132238
 20
499.7639130536201719
 30
0.0
 11
4548.8448869281837688
 21
499.7639130536201719
 31
0.0
  0
LINE
  5
19DC8
  8
0
 10
4562.8223251128119955
 20
499.3805423897201763
 30
0.0
 11
4562.8318352190135556
 21
499.7639130536201719
 31
0.0
  0
LINE
  5
19DC9
  8
0
 10
4562.7973141925131131
 20
498.3895129647203248
 30
0.0
 11
4562.7712966645131019
 21
497.3536288079201881
 31
0.0
  0
LINE
  5
19DCA
  8
0
 10
4562.7973141925131131
 20
498.3895129647203248
 30
0.0
 11
4562.8223251128119955
 21
499.3805423897201763
 31
0.0
  0
LINE
  5
19DCB
  8
0
 10
4562.7679494371122928
 20
497.2954216086203019
 30
0.0
 11
4562.7712970955135461
 21
497.353646453620172
 31
0.0
  0
ARC
  5
19DCC
  8
0
 10
4560.8074523514205794
 20
496.1417122339606749
 30
0.0
 40
0.2363741094035408
 50
90.0414798823166933
 51
175.0448114472152952
  0
ARC
  5
19DCD
  8
0
 10
4566.3875556553557544
 20
503.1416943846521121
 30
0.0
 40
0.2367288076413404
 50
357.0611921895124965
 51
86.9398365398304946
  0
ARC
  5
19DCE
  8
0
 10
4548.0259794636131119
 20
503.1418658095201977
 30
0.0
 40
0.2362204724
 50
90.1352444644022768
 51
193.7685055362989885
  0
ARC
  5
19DCF
  8
0
 10
4557.6270539963361443
 20
497.1842252620538147
 30
0.0
 40
0.2362301223020582
 50
44.7165399783349926
 51
84.9563775692201943
  0
ARC
  5
19DD0
  8
0
 10
4557.6270734269292007
 20
497.1842436457185954
 30
0.0
 40
0.2362033802497436
 50
4.9981298920786674
 51
44.7166874598457511
  0
ARC
  5
19DD1
  8
0
 10
4562.5641853442130014
 20
497.3602521229203148
 30
0.0
 40
0.2072128464
 50
358.1560741697014123
 51
358.4278775398988728
  0
ARC
  5
19DD2
  8
0
 10
4560.3619292241128278
 20
496.0200556689202926
 30
0.0
 40
0.1968506737
 50
270.0000745064978105
 51
354.9999253273023214
  0
ARC
  5
19DD3
  8
0
 10
4558.1636349221225828
 20
496.0200556615251912
 30
0.0
 40
0.196850666310492
 50
185.0000726997917013
 51
269.9995713789490992
  0
ARC
  5
19DD4
  8
0
 10
4574.6195760446289569
 20
509.6976852385939765
 30
0.0
 40
27.6259655431361004
 50
193.8476779525157099
 51
198.344380583308407
  0
ARC
  5
19DD5
  8
0
 10
4559.5421410558237767
 20
503.7176615740704051
 30
0.0
 40
7.1516432377900658
 50
326.437604564316814
 51
332.9599431790255153
  0
ARC
  5
19DD6
  8
0
 10
4560.0207975576286117
 20
503.4762766470759061
 30
0.0
 40
6.6155729110062156
 50
332.9373841941089154
 51
342.1482254031949992
  0
ARC
  5
19DD7
  8
0
 10
4560.1054858990619323
 20
503.4437477048542178
 30
0.0
 40
6.5249920673872026
 50
342.1921397717940749
 51
352.5107831376893159
  0
ARC
  5
19DD8
  8
0
 10
4559.8088622826453502
 20
503.4838691430257995
 30
0.0
 40
6.8243148126826139
 50
352.5014018445398278
 51
357.0239215330427101
  0
ARC
  5
19DD9
  8
0
 10
4562.1749978058605848
 20
497.3341043334941105
 30
0.0
 40
0.5942125196607035
 50
321.7701201776798143
 51
356.2691311885736241
  0
ARC
  5
19DDA
  8
0
 10
4562.2147325042751618
 20
497.3147446026803777
 30
0.0
 40
0.551099245195678
 50
285.3378694455332152
 51
320.7947834446941897
  0
ARC
  5
19DDB
  8
0
 10
4562.2063683014775961
 20
483.9672230569418048
 30
0.0
 40
12.7825689149920798
 50
91.5054017167087039
 51
93.5235207658054577
  0
ARC
  5
19DDC
  8
0
 10
4561.6696328508378429
 20
506.5187585270252271
 30
0.0
 40
9.7754434955336897
 50
271.1777265645969806
 51
273.1390549009449273
  0
ARC
  5
19DDD
  8
0
 10
4561.0297617451769838
 20
496.771451372687693
 30
0.0
 40
0.3933650915050133
 50
270.003508568888094
 51
302.1618203871631181
  0
ARC
  5
19DDE
  8
0
 10
4561.0293528027050343
 20
496.7720875862128196
 30
0.0
 40
0.3941213620086125
 50
302.1629143676613012
 51
332.3515389338481896
  0
ARC
  5
19DDF
  8
0
 10
4561.0288796668055511
 20
496.7723699202459784
 30
0.0
 40
0.3946714881827201
 50
332.3471056075426873
 51
353.1984255688615804
  0
ARC
  5
19DE0
  8
0
 10
4560.8028871903898107
 20
496.3777969923162914
 30
0.0
 40
0.0044035481568491
 50
3.766733029374985
 51
12.7809227457162002
  0
ARC
  5
19DE1
  8
0
 10
4560.8021987331630953
 20
496.3776192282956004
 30
0.0
 40
0.0051143165045739
 50
13.0168192017810505
 51
26.1585214564065112
  0
ARC
  5
19DE2
  8
0
 10
4560.7987937340885765
 20
496.3756622120009183
 30
0.0
 40
0.009036942088749
 50
27.7783942397323891
 51
49.5986772833671381
  0
ARC
  5
19DE3
  8
0
 10
4560.7896766782514533
 20
496.3651618227069093
 30
0.0
 40
0.022942749247108
 50
49.2561529642682316
 51
61.1549221979059965
  0
ARC
  5
19DE4
  8
0
 10
4560.7573986612278532
 20
496.2999501161884837
 30
0.0
 40
0.0956888830450623
 50
63.0639973679846122
 51
75.696604846091148
  0
ARC
  5
19DE5
  8
0
 10
4560.6356954346401835
 20
495.8163378126859016
 30
0.0
 40
0.5943793172781557
 50
75.8459195960230232
 51
82.5988496389288542
  0
ARC
  5
19DE6
  8
0
 10
4560.3873553367002387
 20
494.0139961123447279
 30
0.0
 40
2.4137361930507688
 50
82.2641147588720543
 51
85.1941590874075843
  0
ARC
  5
19DE7
  8
0
 10
4560.6773766349469952
 20
497.7894729529152755
 30
0.0
 40
1.373036652232263
 50
261.3194307885036096
 51
266.3336768342675214
  0
ARC
  5
19DE8
  8
0
 10
4560.6341299676196286
 20
497.5051011158469123
 30
0.0
 40
1.0853952428783711
 50
248.1457035988341886
 51
261.3105780992063956
  0
ARC
  5
19DE9
  8
0
 10
4560.6023926751613544
 20
497.4252197308111931
 30
0.0
 40
0.9994405644285915
 50
230.7107675411259891
 51
248.1296973177097982
  0
ARC
  5
19DEA
  8
0
 10
4560.5731901561930499
 20
497.3889936876493039
 30
0.0
 40
0.9529110742559292
 50
213.5879535147203967
 51
230.6904412631176911
  0
ARC
  5
19DEB
  8
0
 10
4560.6234035831912479
 20
497.4182849981244772
 30
0.0
 40
1.0109508234810971
 50
206.6893780321126997
 51
213.396497175685198
  0
ARC
  5
19DEC
  8
0
 10
4559.0236756130525464
 20
496.5907509125977981
 30
0.0
 40
0.7902981750758621
 50
28.2005025367118307
 51
48.8202048208344266
  0
ARC
  5
19DED
  8
0
 10
4559.0272410972502257
 20
496.5946075038646086
 30
0.0
 40
0.7850479352581199
 50
48.8307348464866919
 51
67.2349073691863595
  0
ARC
  5
19DEE
  8
0
 10
4559.029014317515248
 20
496.5984945731437961
 30
0.0
 40
0.7807775288147663
 50
67.2445182101286036
 51
89.4303430885065609
  0
ARC
  5
19DEF
  8
0
 10
4559.6164247430551768
 20
541.3047585500115702
 30
0.0
 40
43.9293494306183021
 50
267.4315482117888223
 51
269.2439602573214188
  0
ARC
  5
19DF0
  8
0
 10
4558.9814698574900831
 20
513.8514156690107484
 30
0.0
 40
16.4859070488579711
 50
257.1840652689783155
 51
265.3599165430525204
  0
ARC
  5
19DF1
  8
0
 10
4557.3234956010301175
 20
509.1333818442956272
 30
0.0
 40
11.5317405920872602
 50
247.5333722723860035
 51
260.017865403872122
  0
ARC
  5
19DF2
  8
0
 10
4556.1462476708329632
 20
506.3814089010883777
 30
0.0
 40
8.538833361634623
 50
233.7841574938306906
 51
247.7765718181277066
  0
ARC
  5
19DF3
  8
0
 10
4550.5737441822802793
 20
499.3054800614967235
 30
0.0
 40
0.4692619160197362
 50
52.433017853306751
 51
64.2502529068082993
  0
ARC
  5
19DF4
  8
0
 10
4550.6098537453326571
 20
499.3532410813970159
 30
0.0
 40
0.4107248819831527
 50
65.893015174510154
 51
89.0803243640725952
  0
LINE
  5
19DF6
  8
0
 10
4566.4001933135259605
 20
503.3780856238366255
 30
0.0
 11
4548.0254218748714266
 21
503.3780856238366255
 31
0.0
  0
ATTDEF
  5
19DF7
  8
DEFPOINTS
 10
4557.2069118269546379
 20
499.7627207484383121
 30
0.0
 40
0.001
  1
K-99182T-8
  3

  2
MODELNUMBER
 70
     0
1001
ACDBATTR
1070
     0
1070
     1
  0
ATTDEF
  5
19DF8
  8
DEFPOINTS
 10
4557.2067860172992368
 20
499.7610539080590115
 30
0.0
 40
0.001
  1
PARLIAMENT
  3

  2
TRADENAME
 70
     0
1001
ACDBATTR
1070
     0
1070
     1
  0
ATTDEF
  5
19DF9
  8
DEFPOINTS
 10
4557.2069118269546379
 20
499.7593874151049249
 30
0.0
 40
0.001
  1
BATHROOM SINK
  3

  2
PRODUCT
 70
     0
1001
ACDBATTR
1070
     0
1070
     1
  0
ENDSEC
  0
EOF
