  0
SECTION
  2
HEADER
  9
$ACADVER
  1
AC1009
  9
$INSBASE
 10
4677.3683848076825598
 20
473.6036667181813868
 30
0.0
  9
$EXTMIN
 10
4669.8759086410909731
 20
470.4451026709537018
 30
-0.0015258207003583
  9
$EXTMAX
 10
4684.8279361804270593
 20
477.8849297616702074
 30
0.0000000349246037
  9
$LIMMIN
 10
0.0
 20
0.0
  9
$LIMMAX
 10
11.6929133858000007
 20
8.2677165353999982
  9
$ORTHOMODE
 70
     0
  9
$REGENMODE
 70
     1
  9
$FILLMODE
 70
     1
  9
$QTEXTMODE
 70
     0
  9
$MIRRTEXT
 70
     0
  9
$DRAGMODE
 70
     2
  9
$LTSCALE
 40
0.6431102362
  9
$OSMODE
 70
     3
  9
$ATTMODE
 70
     1
  9
$TEXTSIZE
 40
0.2
  9
$TRACEWID
 40
0.05
  9
$TEXTSTYLE
  7
STANDARD
  9
$CLAYER
  8
0
  9
$CELTYPE
  6
BYLAYER
  9
$CECOLOR
 62
   256
  9
$DIMSCALE
 40
1.0
  9
$DIMASZ
 40
0.1875
  9
$DIMEXO
 40
0.0625
  9
$DIMDLI
 40
0.4443307087
  9
$DIMRND
 40
0.0
  9
$DIMDLE
 40
0.0
  9
$DIMEXE
 40
0.125
  9
$DIMTP
 40
0.01
  9
$DIMTM
 40
0.01
  9
$DIMTXT
 40
2.0
  9
$DIMCEN
 40
0.1052362205
  9
$DIMTSZ
 40
0.0
  9
$DIMTOL
 70
     1
  9
$DIMLIM
 70
     0
  9
$DIMTIH
 70
     1
  9
$DIMTOH
 70
     1
  9
$DIMSE1
 70
     0
  9
$DIMSE2
 70
     0
  9
$DIMTAD
 70
     0
  9
$DIMZIN
 70
     0
  9
$DIMBLK
  1

  9
$DIMASO
 70
     1
  9
$DIMSHO
 70
     1
  9
$DIMPOST
  1
\X
  9
$DIMAPOST
  1

  9
$DIMALT
 70
     1
  9
$DIMALTD
 70
     2
  9
$DIMALTF
 40
25.3999999999999986
  9
$DIMLFAC
 40
1.0
  9
$DIMTOFL
 70
     0
  9
$DIMTVP
 40
0.0
  9
$DIMTIX
 70
     0
  9
$DIMSOXD
 70
     0
  9
$DIMSAH
 70
     0
  9
$DIMBLK1
  1

  9
$DIMBLK2
  1

  9
$DIMSTYLE
  2
STANDARD
  9
$DIMCLRD
 70
     0
  9
$DIMCLRE
 70
     0
  9
$DIMCLRT
 70
     0
  9
$DIMTFAC
 40
1.0
  9
$DIMGAP
 40
0.09
  9
$LUNITS
 70
     2
  9
$LUPREC
 70
     4
  9
$SKETCHINC
 40
0.1
  9
$FILLETRAD
 40
0.0
  9
$AUNITS
 70
     0
  9
$AUPREC
 70
     0
  9
$MENU
  1
.
  9
$ELEVATION
 40
0.0
  9
$PELEVATION
 40
0.0
  9
$THICKNESS
 40
0.0
  9
$LIMCHECK
 70
     0
  9
$BLIPMODE
 70
     0
  9
$CHAMFERA
 40
0.0
  9
$CHAMFERB
 40
0.0
  9
$SKPOLY
 70
     0
  9
$TDCREATE
 40
2458060.468368056230247
  9
$TDUPDATE
 40
2459220.4370601861737669
  9
$TDINDWG
 40
1.4600157639
  9
$TDUSRTIMER
 40
1.4600157639
  9
$USRTIMER
 70
     1
  9
$ANGBASE
 50
0.0
  9
$ANGDIR
 70
     0
  9
$PDMODE
 70
     0
  9
$PDSIZE
 40
0.3125
  9
$PLINEWID
 40
0.0
  9
$COORDS
 70
     1
  9
$SPLFRAME
 70
     0
  9
$SPLINETYPE
 70
     6
  9
$SPLINESEGS
 70
     8
  9
$ATTDIA
 70
     1
  9
$ATTREQ
 70
     1
  9
$HANDLING
 70
     1
  9
$HANDSEED
  5
18AD9
  9
$SURFTAB1
 70
     6
  9
$SURFTAB2
 70
     6
  9
$SURFTYPE
 70
     6
  9
$SURFU
 70
     6
  9
$SURFV
 70
     6
  9
$UCSNAME
  2

  9
$UCSORG
 10
0.0
 20
0.0
 30
0.0
  9
$UCSXDIR
 10
1.0
 20
0.0
 30
0.0
  9
$UCSYDIR
 10
0.0
 20
1.0
 30
0.0
  9
$PUCSNAME
  2

  9
$PUCSORG
 10
0.0
 20
0.0
 30
0.0
  9
$PUCSXDIR
 10
1.0
 20
0.0
 30
0.0
  9
$PUCSYDIR
 10
0.0
 20
1.0
 30
0.0
  9
$USERI1
 70
     0
  9
$USERI2
 70
     0
  9
$USERI3
 70
     0
  9
$USERI4
 70
     0
  9
$USERI5
 70
     0
  9
$USERR1
 40
0.0
  9
$USERR2
 40
0.0
  9
$USERR3
 40
0.0
  9
$USERR4
 40
0.0
  9
$USERR5
 40
0.0
  9
$WORLDVIEW
 70
     1
  9
$SHADEDGE
 70
     3
  9
$SHADEDIF
 70
    70
  9
$TILEMODE
 70
     1
  9
$MAXACTVP
 70
    64
  9
$PLIMCHECK
 70
     0
  9
$PEXTMIN
 10
1.0000000000000000E+20
 20
1.0000000000000000E+20
 30
1.0000000000000000E+20
  9
$PEXTMAX
 10
-1.0000000000000000E+20
 20
-1.0000000000000000E+20
 30
-1.0000000000000000E+20
  9
$PLIMMIN
 10
0.0
 20
0.0
  9
$PLIMMAX
 10
12.0
 20
9.0
  9
$UNITMODE
 70
     0
  9
$VISRETAIN
 70
     1
  9
$PLINEGEN
 70
     0
  9
$PSLTSCALE
 70
     1
  0
ENDSEC
  0
SECTION
  2
TABLES
  0
TABLE
  2
VPORT
 70
     1
  0
VPORT
  2
*ACTIVE
 70
     0
 10
0.0
 20
0.0
 11
1.0
 21
1.0
 12
765.9865659654468573
 22
341.5854111137729205
 13
0.0
 23
0.0
 14
1.0
 24
1.0
 15
0.0
 25
0.0
 16
0.0
 26
0.0
 36
60.4960186965801583
 17
3911.3653564453120453
 27
132.5796051025390057
 37
0.0
 40
7.7846457340379107
 41
1.9267068273092369
 42
50.0
 43
0.0
 44
0.0
 50
0.0
 51
0.0
 71
     0
 72
   100
 73
     1
 74
     1
 75
     0
 76
     0
 77
     0
 78
     0
  0
ENDTAB
  0
TABLE
  2
LTYPE
 70
     2
  0
LTYPE
  2
CONTINUOUS
 70
     0
  3
Solid line
 72
    65
 73
     0
 40
0.0
  0
LTYPE
  2
PHANTOM2
 70
     0
  3
___ _ _ ___ _ _ ___ _ _ ___ _ _
 72
    65
 73
     6
 40
1.25
 49
0.625
 49
-0.125
 49
0.125
 49
-0.125
 49
0.125
 49
-0.125
  0
ENDTAB
  0
TABLE
  2
LAYER
 70
     2
  0
LAYER
  2
0
 70
     0
 62
   255
  6
CONTINUOUS
  0
LAYER
  2
DEFPOINTS
 70
     0
 62
     7
  6
CONTINUOUS
  0
ENDTAB
  0
TABLE
  2
STYLE
 70
     1
  0
STYLE
  2
STANDARD
 70
     0
 40
0.0
 41
0.8
 50
0.0
 71
     0
 42
0.2
  3
txt
  4

  0
ENDTAB
  0
TABLE
  2
VIEW
 70
     0
  0
ENDTAB
  0
TABLE
  2
UCS
 70
     0
  0
ENDTAB
  0
TABLE
  2
APPID
 70
    11
  0
APPID
  2
ACAD
 70
     0
  0
APPID
  2
ACAD_MLEADERVER
 70
     0
  0
APPID
  2
ACAD_EXEMPT_FROM_CAD_STANDARDS
 70
     0
  0
APPID
  2
ACAD_NAV_VCDISPLAY
 70
     0
  0
APPID
  2
ACAECLAYERSTANDARD
 70
     0
  0
APPID
  2
ACCMTRANSPARENCY
 70
     0
  0
APPID
  2
ACAD_DSTYLE_DIMJAG
 70
     0
  0
APPID
  2
ACAD_DSTYLE_DIMTALN
 70
     0
  0
APPID
  2
ACDBATTR
 70
     0
  0
APPID
  2
ACADANNOTATIVE
 70
     0
  0
APPID
  2
DCO15
 70
     0
  0
ENDTAB
  0
TABLE
  2
DIMSTYLE
 70
     1
  0
DIMSTYLE
  2
STANDARD
 70
     0
  3

  4

  5

  6

  7

 40
1.0
 41
0.1875
 42
0.0625
 43
0.38
 44
0.125
 45
0.0
 46
0.0
 47
0.01
 48
0.01
140
0.15625
141
0.09
142
0.0
143
25.3999999999999986
144
1.0
145
0.0
146
1.0
147
0.09
 71
     1
 72
     0
 73
     1
 74
     1
 75
     0
 76
     0
 77
     0
 78
     4
170
     0
171
     2
172
     0
173
     0
174
     0
175
     0
176
     0
177
     0
178
     0
  0
ENDTAB
  0
ENDSEC
  0
SECTION
  2
BLOCKS
  0
BLOCK
  8
0
  2
$MODEL_SPACE
 70
     0
 10
0.0
 20
0.0
 30
0.0
  3
$MODEL_SPACE
  1

  0
ENDBLK
  5
21
  8
0
  0
BLOCK
 67
     1
  8
0
  2
$PAPER_SPACE
 70
     0
 10
0.0
 20
0.0
 30
0.0
  3
$PAPER_SPACE
  1

  0
ENDBLK
  5
1D
 67
     1
  8
0
  0
ENDSEC
  0
SECTION
  2
ENTITIES
  0
ATTDEF
  5
159BF
  8
DEFPOINTS
 10
4677.3683846551721217
 20
473.6070005668867111
 30
0.0
 40
0.001
  1
K-99183BR
  3

  2
MODELNUMBER
 70
     0
1001
ACDBATTR
1070
     0
1070
     1
  0
ATTDEF
  5
159C0
  8
DEFPOINTS
 10
4677.3682588455158111
 20
473.6053337265075243
 30
0.0
 40
0.001
  1
VOX
  3

  2
TRADENAME
 70
     0
1001
ACDBATTR
1070
     0
1070
     1
  0
ATTDEF
  5
159C1
  8
DEFPOINTS
 10
4677.3683846551721217
 20
473.6036672335533808
 30
0.0
 40
0.001
  1
BATHROOM SINK
  3

  2
PRODUCT
 70
     0
1001
ACDBATTR
1070
     0
1070
     1
  0
LINE
  5
189FB
  8
0
 10
4670.0507641708827578
 20
473.524926560681422
 30
0.0
 11
4684.6860054444823618
 21
473.524926560681422
 31
0.0
  0
LINE
  5
189FC
  8
0
 10
4678.5628188580631104
 20
470.4735752947814262
 30
0.0
 11
4676.1713444212891773
 21
470.4735752947814262
 31
0.0
  0
LINE
  5
189FD
  8
0
 10
4670.041232407274947
 20
477.8554915793812938
 30
0.0
 11
4684.695537208089263
 21
477.8554915793812938
 31
0.0
  0
LINE
  5
189FE
  8
0
 10
4669.9708739215420792
 20
473.6036667181813868
 30
0.0
 11
4684.7658956938221309
 21
473.6036667181813868
 31
0.0
  0
ARC
  5
189FF
  8
0
 10
4670.050948933606378
 20
477.7368071996825165
 30
0.0
 40
0.1190814547628153
 50
94.6802885005158572
 51
164.8752727928026047
  0
ARC
  5
18A00
  8
0
 10
4670.5324470726764048
 20
477.6048551284604855
 30
0.0
 40
0.6183321116854469
 50
164.7132796744388088
 51
181.0527829193455034
  0
ARC
  5
18A01
  8
0
 10
7176.7210607421966415
 20
511.1942268539876864
 30
0.0
 40
2507.032020006267885
 50
180.7679350702559873
 51
180.8591279006342916
  0
LINE
  5
18A02
  8
0
 10
4670.0507641708827578
 20
473.6036667181813868
 30
0.0
 11
4670.0507641708827578
 21
473.524926560681422
 31
0.0
  0
ARC
  5
18A03
  8
0
 10
4684.6858206817587416
 20
477.7368071996825165
 30
0.0
 40
0.1190814547628153
 50
15.1247272071974397
 51
85.319711499484157
  0
ARC
  5
18A04
  8
0
 10
4684.2043225426878053
 20
477.6048551284604855
 30
0.0
 40
0.6183321116854469
 50
358.947217080654525
 51
15.2867203255611503
  0
ARC
  5
18A05
  8
0
 10
2178.0157088731680233
 20
511.1942268539876864
 30
0.0
 40
2507.032020006267885
 50
359.1408720993657084
 51
359.2320649297440127
  0
LINE
  5
18A06
  8
0
 10
4684.6860054444823618
 20
473.6036667181813868
 30
0.0
 11
4684.6860054444823618
 21
473.524926560681422
 31
0.0
  0
ARC
  5
18A07
  8
0
 10
4677.5580101173327421
 20
478.6966464578979981
 30
0.0
 40
6.7816137713609841
 50
282.3944508088063117
 51
310.3052528076000272
  0
ARC
  5
18A08
  8
0
 10
4679.0639956281647756
 20
471.8423028538310859
 30
0.0
 40
0.2362222082897155
 50
102.3130200031319958
 51
174.9997047761571025
  0
ARC
  5
18A09
  8
0
 10
4678.5628188225518898
 20
470.6310556098595725
 30
0.0
 40
0.1574803150782249
 50
270.0000128906062855
 51
354.9999999819415279
  0
LINE
  5
18A0A
  8
0
 10
4678.7196998774816166
 20
470.6173302959813896
 30
0.0
 11
4678.8286724227828017
 21
471.8628921883814087
 31
0.0
  0
ARC
  5
18A0B
  8
0
 10
4676.1713444212828108
 20
470.631059628965204
 30
0.0
 40
0.1574843341838596
 50
191.9746816387080059
 51
270.0000000023450184
  0
ARC
  5
18A0C
  8
0
 10
4675.7861618388897114
 20
470.5493331618890807
 30
0.0
 40
0.2362729994911183
 50
11.9820978758560095
 51
79.7563496973538122
  0
ARC
  5
18A0D
  8
0
 10
4677.3798173944187511
 20
479.3525892042619034
 30
0.0
 40
8.7100701182041238
 50
222.8690416600412902
 51
259.738386236974975
  0
ARC
  5
18A0E
  8
0
 10
4670.7594844357008697
 20
473.1902808909774194
 30
0.0
 40
0.3346456697041958
 50
45.0000000391089969
 51
89.8665030576845538
  0
ARC
  5
18A0F
  8
0
 10
4677.0552192422883309
 20
478.4381103914282107
 30
0.0
 40
6.3839188817625052
 50
230.3196675325679905
 51
269.7492644770993024
  0
ARC
  5
18A10
  8
0
 10
4694.7968963941648326
 20
-1296.8379539695540643
 30
0.0
 40
1768.9814577273150462
 50
90.5112134332172644
 51
90.575552112711236
  0
ARC
  5
18A11
  8
0
 10
4677.4761226549662751
 20
479.9137292598722979
 30
0.0
 40
9.2793920835818486
 50
259.7704835828766932
 51
261.7924027366564133
  0
ARC
  5
18A12
  8
0
 10
4676.2530882765977367
 20
471.4699491673757166
 30
0.0
 40
0.7475156175349543
 50
262.1811427994114183
 51
312.9076467775328183
  0
ARC
  5
18A13
  8
0
 10
4682.0032801386332721
 20
469.9578803683759816
 30
0.0
 40
5.3292832140078374
 50
159.0835885187260033
 51
169.5725429790986141
  0
ARC
  5
18A14
  8
0
 10
4725.1478137836356836
 20
471.4364817635046165
 30
0.0
 40
48.1244968106699389
 50
179.2644778304787962
 51
179.4952109906255941
  0
ENDSEC
  0
EOF
