  0
SECTION
  2
HEADER
  9
$ACADVER
  1
AC1009
  9
$INSBASE
 10
26.9523701680999999
 20
7.4628010173000003
 30
0.0
  9
$EXTMIN
 10
19.4978137562494993
 20
4.4114497514000002
 30
0.0
  9
$EXTMAX
 10
34.4069423958196765
 20
11.7937549711355203
 30
0.0
  9
$LIMMIN
 10
0.0
 20
0.0
  9
$LIMMAX
 10
11.6929133858000007
 20
8.2677165353999982
  9
$ORTHOMODE
 70
     0
  9
$REGENMODE
 70
     1
  9
$FILLMODE
 70
     1
  9
$QTEXTMODE
 70
     0
  9
$MIRRTEXT
 70
     0
  9
$DRAGMODE
 70
     2
  9
$LTSCALE
 40
0.6431102362
  9
$OSMODE
 70
  4095
  9
$ATTMODE
 70
     1
  9
$TEXTSIZE
 40
0.2
  9
$TRACEWID
 40
0.05
  9
$TEXTSTYLE
  7
STANDARD
  9
$CLAYER
  8
0
  9
$CELTYPE
  6
BYLAYER
  9
$CECOLOR
 62
   256
  9
$DIMSCALE
 40
1.0
  9
$DIMASZ
 40
0.1875
  9
$DIMEXO
 40
0.0625
  9
$DIMDLI
 40
0.4443307087
  9
$DIMRND
 40
0.0
  9
$DIMDLE
 40
0.0
  9
$DIMEXE
 40
0.125
  9
$DIMTP
 40
0.0
  9
$DIMTM
 40
0.0
  9
$DIMTXT
 40
0.15625
  9
$DIMCEN
 40
0.1052362205
  9
$DIMTSZ
 40
0.0
  9
$DIMTOL
 70
     0
  9
$DIMLIM
 70
     0
  9
$DIMTIH
 70
     1
  9
$DIMTOH
 70
     1
  9
$DIMSE1
 70
     0
  9
$DIMSE2
 70
     0
  9
$DIMTAD
 70
     0
  9
$DIMZIN
 70
     0
  9
$DIMBLK
  1

  9
$DIMASO
 70
     1
  9
$DIMSHO
 70
     1
  9
$DIMPOST
  1

  9
$DIMAPOST
  1

  9
$DIMALT
 70
     0
  9
$DIMALTD
 70
     2
  9
$DIMALTF
 40
25.3999999999999986
  9
$DIMLFAC
 40
1.0
  9
$DIMTOFL
 70
     0
  9
$DIMTVP
 40
0.0
  9
$DIMTIX
 70
     0
  9
$DIMSOXD
 70
     0
  9
$DIMSAH
 70
     0
  9
$DIMBLK1
  1

  9
$DIMBLK2
  1

  9
$DIMSTYLE
  2
STANDARD
  9
$DIMCLRD
 70
     0
  9
$DIMCLRE
 70
     0
  9
$DIMCLRT
 70
     0
  9
$DIMTFAC
 40
1.0
  9
$DIMGAP
 40
0.09
  9
$LUNITS
 70
     2
  9
$LUPREC
 70
     4
  9
$SKETCHINC
 40
0.1
  9
$FILLETRAD
 40
0.0
  9
$AUNITS
 70
     0
  9
$AUPREC
 70
     0
  9
$MENU
  1
.
  9
$ELEVATION
 40
0.0
  9
$PELEVATION
 40
0.0
  9
$THICKNESS
 40
0.0
  9
$LIMCHECK
 70
     0
  9
$BLIPMODE
 70
     0
  9
$CHAMFERA
 40
0.0
  9
$CHAMFERB
 40
0.0
  9
$SKPOLY
 70
     0
  9
$TDCREATE
 40
2457445.4383680559694767
  9
$TDUPDATE
 40
2459112.9640856478363276
  9
$TDINDWG
 40
0.0318648727
  9
$TDUSRTIMER
 40
0.0318648727
  9
$USRTIMER
 70
     1
  9
$ANGBASE
 50
0.0
  9
$ANGDIR
 70
     0
  9
$PDMODE
 70
     0
  9
$PDSIZE
 40
0.3125
  9
$PLINEWID
 40
0.0
  9
$COORDS
 70
     1
  9
$SPLFRAME
 70
     0
  9
$SPLINETYPE
 70
     6
  9
$SPLINESEGS
 70
     8
  9
$ATTDIA
 70
     1
  9
$ATTREQ
 70
     1
  9
$HANDLING
 70
     1
  9
$HANDSEED
  5
722
  9
$SURFTAB1
 70
     6
  9
$SURFTAB2
 70
     6
  9
$SURFTYPE
 70
     6
  9
$SURFU
 70
     6
  9
$SURFV
 70
     6
  9
$UCSNAME
  2

  9
$UCSORG
 10
0.0
 20
0.0
 30
0.0
  9
$UCSXDIR
 10
1.0
 20
0.0
 30
0.0
  9
$UCSYDIR
 10
0.0
 20
1.0
 30
0.0
  9
$PUCSNAME
  2

  9
$PUCSORG
 10
0.0
 20
0.0
 30
0.0
  9
$PUCSXDIR
 10
1.0
 20
0.0
 30
0.0
  9
$PUCSYDIR
 10
0.0
 20
1.0
 30
0.0
  9
$USERI1
 70
     0
  9
$USERI2
 70
     0
  9
$USERI3
 70
     0
  9
$USERI4
 70
     0
  9
$USERI5
 70
     0
  9
$USERR1
 40
0.0
  9
$USERR2
 40
0.0
  9
$USERR3
 40
0.0
  9
$USERR4
 40
0.0
  9
$USERR5
 40
0.0
  9
$WORLDVIEW
 70
     1
  9
$SHADEDGE
 70
     3
  9
$SHADEDIF
 70
    70
  9
$TILEMODE
 70
     1
  9
$MAXACTVP
 70
    48
  9
$PLIMCHECK
 70
     0
  9
$PEXTMIN
 10
1.0000000000000000E+20
 20
1.0000000000000000E+20
 30
1.0000000000000000E+20
  9
$PEXTMAX
 10
-1.0000000000000000E+20
 20
-1.0000000000000000E+20
 30
-1.0000000000000000E+20
  9
$PLIMMIN
 10
0.0
 20
0.0
  9
$PLIMMAX
 10
12.0
 20
9.0
  9
$UNITMODE
 70
     0
  9
$VISRETAIN
 70
     1
  9
$PLINEGEN
 70
     0
  9
$PSLTSCALE
 70
     1
  0
ENDSEC
  0
SECTION
  2
TABLES
  0
TABLE
  2
VPORT
 70
     1
  0
VPORT
  2
*ACTIVE
 70
     0
 10
0.0
 20
0.0
 11
1.0
 21
1.0
 12
46.6965849200827066
 22
11.2400524190961892
 13
0.0
 23
0.0
 14
1.0
 24
1.0
 15
0.0
 25
0.0
 16
0.0
 26
0.0
 36
1.0
 17
0.0
 27
0.0
 37
0.0
 40
70.4797914849045668
 41
2.005224660397074
 42
50.0
 43
0.0
 44
0.0
 50
0.0
 51
0.0
 71
     0
 72
   100
 73
     1
 74
     1
 75
     0
 76
     0
 77
     0
 78
     0
  0
ENDTAB
  0
TABLE
  2
LTYPE
 70
     1
  0
LTYPE
  2
CONTINUOUS
 70
     0
  3
Solid line
 72
    65
 73
     0
 40
0.0
  0
ENDTAB
  0
TABLE
  2
LAYER
 70
     2
  0
LAYER
  2
0
 70
     0
 62
     7
  6
CONTINUOUS
  0
LAYER
  2
DEFPOINTS
 70
     0
 62
     7
  6
CONTINUOUS
  0
ENDTAB
  0
TABLE
  2
STYLE
 70
     1
  0
STYLE
  2
STANDARD
 70
     0
 40
0.0
 41
0.8
 50
0.0
 71
     0
 42
0.2
  3
txt
  4

  0
ENDTAB
  0
TABLE
  2
VIEW
 70
     0
  0
ENDTAB
  0
TABLE
  2
UCS
 70
     0
  0
ENDTAB
  0
TABLE
  2
APPID
 70
     5
  0
APPID
  2
ACAD
 70
     0
  0
APPID
  2
ACAD_MLEADERVER
 70
     0
  0
APPID
  2
ACAD_NAV_VCDISPLAY
 70
     0
  0
APPID
  2
ACAD_EXEMPT_FROM_CAD_STANDARDS
 70
     0
  0
APPID
  2
ACDBATTR
 70
     0
  0
ENDTAB
  0
TABLE
  2
DIMSTYLE
 70
     1
  0
DIMSTYLE
  2
STANDARD
 70
     0
  3

  4

  5

  6

  7

 40
1.0
 41
0.1875
 42
0.0625
 43
0.38
 44
0.125
 45
0.0
 46
0.0
 47
1.5
 48
1.5
140
0.15625
141
0.09
142
0.0
143
25.3999999999999986
144
1.0
145
0.0
146
1.0
147
0.09
 71
     0
 72
     0
 73
     1
 74
     1
 75
     0
 76
     0
 77
     0
 78
     4
170
     0
171
     2
172
     0
173
     0
174
     0
175
     0
176
     0
177
     0
178
     0
  0
ENDTAB
  0
ENDSEC
  0
SECTION
  2
BLOCKS
  0
BLOCK
  8
0
  2
$MODEL_SPACE
 70
     0
 10
0.0
 20
0.0
 30
0.0
  3
$MODEL_SPACE
  1

  0
ENDBLK
  5
21
  8
0
  0
BLOCK
 67
     1
  8
0
  2
$PAPER_SPACE
 70
     0
 10
0.0
 20
0.0
 30
0.0
  3
$PAPER_SPACE
  1

  0
ENDBLK
  5
1D
 67
     1
  8
0
  0
ENDSEC
  0
SECTION
  2
ENTITIES
  0
LINE
  5
378
  8
0
 10
19.4978168246999992
 20
11.4469093488000002
 30
0.0
 11
19.5548592819000007
 21
7.541541174799999
 31
0.0
  0
LINE
  5
379
  8
0
 10
19.6347495312999989
 20
7.541541174799999
 30
0.0
 11
19.6347495312999989
 21
7.4628010173000003
 31
0.0
  0
LINE
  5
381
  8
0
 10
20.5801000183000014
 20
7.3647855699999987
 30
0.0
 11
20.7305463048000007
 21
7.2143392835000002
 31
0.0
  0
LINE
  5
393
  8
0
 10
25.7553269643999982
 20
4.4114497514000002
 30
0.0
 11
28.1467013852000001
 21
4.4114497514000002
 31
0.0
  0
LINE
  5
3A6
  8
0
 10
28.3036852378000106
 20
4.555204752499999
 30
0.0
 11
28.4126577848000004
 21
5.8007666642999993
 31
0.0
  0
LINE
  5
3B6
  8
0
 10
19.6347495312999989
 20
7.4628010173000003
 30
0.0
 11
34.2699908048999973
 21
7.4628010173000003
 31
0.0
  0
LINE
  5
3B7
  8
0
 10
19.5548592819000007
 20
7.541541174799999
 30
0.0
 11
34.3498810541999973
 21
7.541541174799999
 31
0.0
  0
LINE
  5
3BD
  8
0
 10
34.2699908048999973
 20
7.541541174799999
 30
0.0
 11
34.2699908048999973
 21
7.4628010173000003
 31
0.0
  0
LINE
  5
3BE
  8
0
 10
34.3498810541999973
 20
7.541541174799999
 30
0.0
 11
34.4069392894000003
 21
11.4469094655999992
 31
0.0
  0
LINE
  5
3BF
  8
0
 10
19.6432061653000005
 20
11.7933660198000005
 30
0.0
 11
34.2616056041999997
 21
11.7933659909999893
 31
0.0
  0
ARC
  5
3CD
  8
0
 10
20.3434697962000008
 20
7.1281553479999991
 30
0.0
 40
0.3346456693
 50
44.999999999099991
 51
90.0
  0
ARC
  5
548
  8
0
 10
19.6561709873583013
 20
11.6441760242300294
 30
0.0
 40
0.1497522667246544
 50
94.966607154200716
 51
154.2940862781848068
  0
ARC
  5
549
  8
0
 10
20.0535118563988703
 20
11.5523528618912295
 30
0.0
 40
0.5548815279803346
 50
163.5878946130281122
 51
180.9566538441025898
  0
ARC
  5
551
  8
0
 10
24.1126923900341694
 20
11.4522584079218408
 30
0.0
 40
4.614878665355457
 50
178.872230166893587
 51
180.0664109738578986
  0
ARC
  5
553
  8
0
 10
34.2519349410832206
 20
11.6425190489045196
 30
0.0
 40
0.1511566130365238
 50
37.3107870801382902
 51
86.3318384601426629
  0
ARC
  5
55F
  8
0
 10
33.8914231132855122
 20
11.5514151491549697
 30
0.0
 40
0.5142912113892028
 50
0.1002559313476503
 51
20.8115961338097186
  0
ARC
  5
560
  8
0
 10
30.3107269028036903
 20
11.4519849031537806
 30
0.0
 40
4.0962155309714152
 50
359.9290073426986964
 51
1.4035074716379901
  0
LINE
  5
573
  8
0
 10
20.7305463048000007
 20
7.2143392835000002
 30
0.0
 11
21.3539908953000008
 21
6.6405739092999987
 31
0.0
  0
ARC
  5
574
  8
0
 10
27.4734959166610295
 20
14.0453336004810403
 30
0.0
 40
9.6061859127648752
 50
230.4286998673202902
 51
246.4499104643830094
  0
ARC
  5
575
  8
0
 10
27.4201537538992497
 20
14.8855043333751205
 30
0.0
 40
10.3622063081614897
 50
248.576914237733007
 51
258.8265316695504907
  0
ARC
  5
576
  8
0
 10
25.3580775599103312
 20
4.4747625532526643
 30
0.0
 40
0.2508514963684537
 50
14.1909131561325399
 51
77.5484747882577921
  0
ARC
  5
577
  8
0
 10
25.7553281107315506
 20
4.5689297869567174
 30
0.0
 40
0.1574800355608887
 50
191.9732866496325983
 51
269.9995828587516939
  0
ARC
  5
578
  8
0
 10
28.1468041830368598
 20
4.568930066305227
 30
0.0
 40
0.1574803149052268
 50
269.999999986590808
 51
355.0000000030944989
  0
ARC
  5
579
  8
0
 10
28.6479793129574496
 20
5.7801787389585577
 30
0.0
 40
0.2362204146220649
 50
102.3123598424014062
 51
175.0000098236606902
  0
ARC
  5
57A
  8
0
 10
26.8672731764268811
 20
13.2695086550758496
 30
0.0
 40
7.4619365698319422
 50
283.4082356586400238
 51
302.2570286721007733
  0
LINE
  5
57B
  8
0
 10
30.8498449806999915
 20
6.9592298025999924
 30
0.0
 11
31.5247403138000095
 21
7.4628010173000003
 31
0.0
  0
ARC
  5
58E
  8
0
 10
26.6256913071976413
 20
12.3766937999344595
 30
0.0
 40
6.5765642303864773
 50
228.346891153650887
 51
248.7309978788834997
  0
ARC
  5
58F
  8
0
 10
26.6390978781291103
 20
12.4208187884448709
 30
0.0
 40
6.6225478873357817
 50
248.7613892541208997
 51
269.7410735436490086
  0
LINE
  5
590
  8
0
 10
26.6091701217000001
 20
5.7983384321000004
 30
0.0
 11
26.6568827000566309
 21
5.7779079121499519
 31
0.0
  0
ARC
  5
591
  8
0
 10
26.92945155116713
 20
-5.1700016429522382
 30
0.0
 40
10.9513020837459099
 50
89.8793370806815233
 51
91.4261918288308806
  0
ARC
  5
592
  8
0
 10
27.3205159345294213
 20
32.9156033092900202
 30
0.0
 40
27.1368225867658595
 50
269.2229733233368734
 51
272.3065347146849149
  0
ATTDEF
  5
5D9
  8
DEFPOINTS
 10
26.9464864247586817
 20
7.457761839504454
 30
0.0
 40
0.001
  1
K-99183T
  3

  2
MODELNUMBER
 70
     0
1001
ACDBATTR
1070
     0
1070
     1
  0
ATTDEF
  5
5DA
  8
DEFPOINTS
 10
26.9464864247586817
 20
7.4560951728377871
 30
0.0
 40
0.001
  1
CHALICE
  3

  2
TRADENAME
 70
     0
1001
ACDBATTR
1070
     0
1070
     1
  0
ATTDEF
  5
5DB
  8
DEFPOINTS
 10
26.9464864247586817
 20
7.4544285061711211
 30
0.0
 40
0.001
  1
BATHROOM SINK
  3

  2
PRODUCT
 70
     0
1001
ACDBATTR
1070
     0
1070
     1
  0
ENDSEC
  0
EOF
