  0
SECTION
  2
HEADER
  9
$ACADVER
  1
AC1009
  9
$INSBASE
 10
4532.5570673549209459
 20
483.6459117860187007
 30
0.0
  9
$EXTMIN
 10
4521.0683556503063301
 20
476.319068278320799
 30
-0.0000000000112498
  9
$EXTMAX
 10
4544.2984785170829127
 20
484.1040706481539928
 30
0.0000000000002956
  9
$LIMMIN
 10
0.0
 20
0.0
  9
$LIMMAX
 10
11.6929133858000007
 20
8.2677165353999982
  9
$ORTHOMODE
 70
     0
  9
$REGENMODE
 70
     1
  9
$FILLMODE
 70
     1
  9
$QTEXTMODE
 70
     0
  9
$MIRRTEXT
 70
     0
  9
$DRAGMODE
 70
     2
  9
$LTSCALE
 40
0.6431102362
  9
$OSMODE
 70
   695
  9
$ATTMODE
 70
     1
  9
$TEXTSIZE
 40
0.2
  9
$TRACEWID
 40
0.05
  9
$TEXTSTYLE
  7
STANDARD
  9
$CLAYER
  8
0
  9
$CELTYPE
  6
BYLAYER
  9
$CECOLOR
 62
   256
  9
$DIMSCALE
 40
1.0
  9
$DIMASZ
 40
0.1875
  9
$DIMEXO
 40
0.0625
  9
$DIMDLI
 40
0.4443307087
  9
$DIMRND
 40
0.0
  9
$DIMDLE
 40
0.0
  9
$DIMEXE
 40
0.125
  9
$DIMTP
 40
0.01
  9
$DIMTM
 40
0.01
  9
$DIMTXT
 40
2.0
  9
$DIMCEN
 40
0.1052362205
  9
$DIMTSZ
 40
0.0
  9
$DIMTOL
 70
     1
  9
$DIMLIM
 70
     0
  9
$DIMTIH
 70
     1
  9
$DIMTOH
 70
     1
  9
$DIMSE1
 70
     0
  9
$DIMSE2
 70
     0
  9
$DIMTAD
 70
     0
  9
$DIMZIN
 70
     0
  9
$DIMBLK
  1

  9
$DIMASO
 70
     1
  9
$DIMSHO
 70
     1
  9
$DIMPOST
  1
\X
  9
$DIMAPOST
  1

  9
$DIMALT
 70
     1
  9
$DIMALTD
 70
     2
  9
$DIMALTF
 40
25.3999999999999986
  9
$DIMLFAC
 40
1.0
  9
$DIMTOFL
 70
     0
  9
$DIMTVP
 40
0.0
  9
$DIMTIX
 70
     0
  9
$DIMSOXD
 70
     0
  9
$DIMSAH
 70
     0
  9
$DIMBLK1
  1

  9
$DIMBLK2
  1

  9
$DIMSTYLE
  2
STANDARD
  9
$DIMCLRD
 70
     0
  9
$DIMCLRE
 70
     0
  9
$DIMCLRT
 70
     0
  9
$DIMTFAC
 40
1.0
  9
$DIMGAP
 40
0.09
  9
$LUNITS
 70
     2
  9
$LUPREC
 70
     4
  9
$SKETCHINC
 40
0.1
  9
$FILLETRAD
 40
0.0
  9
$AUNITS
 70
     0
  9
$AUPREC
 70
     0
  9
$MENU
  1
.
  9
$ELEVATION
 40
0.0
  9
$PELEVATION
 40
0.0
  9
$THICKNESS
 40
0.0
  9
$LIMCHECK
 70
     0
  9
$BLIPMODE
 70
     0
  9
$CHAMFERA
 40
0.0
  9
$CHAMFERB
 40
0.0
  9
$SKPOLY
 70
     0
  9
$TDCREATE
 40
2458060.468368056230247
  9
$TDUPDATE
 40
2459297.6279513891786337
  9
$TDINDWG
 40
1.5374217592999999
  9
$TDUSRTIMER
 40
1.5374217592999999
  9
$USRTIMER
 70
     1
  9
$ANGBASE
 50
0.0
  9
$ANGDIR
 70
     0
  9
$PDMODE
 70
     0
  9
$PDSIZE
 40
0.3125
  9
$PLINEWID
 40
0.0
  9
$COORDS
 70
     1
  9
$SPLFRAME
 70
     0
  9
$SPLINETYPE
 70
     6
  9
$SPLINESEGS
 70
     8
  9
$ATTDIA
 70
     1
  9
$ATTREQ
 70
     1
  9
$HANDLING
 70
     1
  9
$HANDSEED
  5
19AE7
  9
$SURFTAB1
 70
     6
  9
$SURFTAB2
 70
     6
  9
$SURFTYPE
 70
     6
  9
$SURFU
 70
     6
  9
$SURFV
 70
     6
  9
$UCSNAME
  2

  9
$UCSORG
 10
0.0
 20
0.0
 30
0.0
  9
$UCSXDIR
 10
1.0
 20
0.0
 30
0.0
  9
$UCSYDIR
 10
0.0
 20
1.0
 30
0.0
  9
$PUCSNAME
  2

  9
$PUCSORG
 10
0.0
 20
0.0
 30
0.0
  9
$PUCSXDIR
 10
1.0
 20
0.0
 30
0.0
  9
$PUCSYDIR
 10
0.0
 20
1.0
 30
0.0
  9
$USERI1
 70
     0
  9
$USERI2
 70
     0
  9
$USERI3
 70
     0
  9
$USERI4
 70
     0
  9
$USERI5
 70
     0
  9
$USERR1
 40
0.0
  9
$USERR2
 40
0.0
  9
$USERR3
 40
0.0
  9
$USERR4
 40
0.0
  9
$USERR5
 40
0.0
  9
$WORLDVIEW
 70
     1
  9
$SHADEDGE
 70
     3
  9
$SHADEDIF
 70
    70
  9
$TILEMODE
 70
     1
  9
$MAXACTVP
 70
    64
  9
$PLIMCHECK
 70
     0
  9
$PEXTMIN
 10
1.0000000000000000E+20
 20
1.0000000000000000E+20
 30
1.0000000000000000E+20
  9
$PEXTMAX
 10
-1.0000000000000000E+20
 20
-1.0000000000000000E+20
 30
-1.0000000000000000E+20
  9
$PLIMMIN
 10
0.0
 20
0.0
  9
$PLIMMAX
 10
12.0
 20
9.0
  9
$UNITMODE
 70
     0
  9
$VISRETAIN
 70
     1
  9
$PLINEGEN
 70
     0
  9
$PSLTSCALE
 70
     1
  0
ENDSEC
  0
SECTION
  2
TABLES
  0
TABLE
  2
VPORT
 70
     1
  0
VPORT
  2
*ACTIVE
 70
     0
 10
0.0
 20
0.0
 11
1.0
 21
1.0
 12
621.3180605029202752
 22
347.6319643679869955
 13
0.0
 23
0.0
 14
1.0
 24
1.0
 15
0.0
 25
0.0
 16
0.0
 26
0.0
 36
60.4960186965801583
 17
3911.3653564453120453
 27
132.5796051025390057
 37
0.0
 40
17.6067005813659101
 41
1.866962305986696
 42
50.0
 43
0.0
 44
0.0
 50
0.0
 51
0.0
 71
     0
 72
   100
 73
     1
 74
     1
 75
     0
 76
     0
 77
     0
 78
     0
  0
ENDTAB
  0
TABLE
  2
LTYPE
 70
     2
  0
LTYPE
  2
CONTINUOUS
 70
     0
  3
Solid line
 72
    65
 73
     0
 40
0.0
  0
LTYPE
  2
PHANTOM2
 70
     0
  3
___ _ _ ___ _ _ ___ _ _ ___ _ _
 72
    65
 73
     6
 40
1.25
 49
0.625
 49
-0.125
 49
0.125
 49
-0.125
 49
0.125
 49
-0.125
  0
ENDTAB
  0
TABLE
  2
LAYER
 70
     2
  0
LAYER
  2
0
 70
     0
 62
   255
  6
CONTINUOUS
  0
LAYER
  2
DEFPOINTS
 70
     0
 62
     7
  6
CONTINUOUS
  0
ENDTAB
  0
TABLE
  2
STYLE
 70
     1
  0
STYLE
  2
STANDARD
 70
     0
 40
0.0
 41
0.8
 50
0.0
 71
     0
 42
0.2
  3
txt
  4

  0
ENDTAB
  0
TABLE
  2
VIEW
 70
     0
  0
ENDTAB
  0
TABLE
  2
UCS
 70
     0
  0
ENDTAB
  0
TABLE
  2
APPID
 70
    11
  0
APPID
  2
ACAD
 70
     0
  0
APPID
  2
ACAD_MLEADERVER
 70
     0
  0
APPID
  2
ACAD_EXEMPT_FROM_CAD_STANDARDS
 70
     0
  0
APPID
  2
ACAD_NAV_VCDISPLAY
 70
     0
  0
APPID
  2
ACAECLAYERSTANDARD
 70
     0
  0
APPID
  2
ACCMTRANSPARENCY
 70
     0
  0
APPID
  2
ACAD_DSTYLE_DIMJAG
 70
     0
  0
APPID
  2
ACAD_DSTYLE_DIMTALN
 70
     0
  0
APPID
  2
ACDBATTR
 70
     0
  0
APPID
  2
ACADANNOTATIVE
 70
     0
  0
APPID
  2
DCO15
 70
     0
  0
ENDTAB
  0
TABLE
  2
DIMSTYLE
 70
     1
  0
DIMSTYLE
  2
STANDARD
 70
     0
  3

  4

  5

  6

  7

 40
1.0
 41
0.1875
 42
0.0625
 43
0.38
 44
0.125
 45
0.0
 46
0.0
 47
0.01
 48
0.01
140
0.15625
141
0.09
142
0.0
143
25.3999999999999986
144
1.0
145
0.0
146
1.0
147
0.09
 71
     1
 72
     0
 73
     1
 74
     1
 75
     0
 76
     0
 77
     0
 78
     4
170
     0
171
     2
172
     0
173
     0
174
     0
175
     0
176
     0
177
     0
178
     0
  0
ENDTAB
  0
ENDSEC
  0
SECTION
  2
BLOCKS
  0
BLOCK
  8
0
  2
$MODEL_SPACE
 70
     0
 10
0.0
 20
0.0
 30
0.0
  3
$MODEL_SPACE
  1

  0
ENDBLK
  5
21
  8
0
  0
BLOCK
 67
     1
  8
0
  2
$PAPER_SPACE
 70
     0
 10
0.0
 20
0.0
 30
0.0
  3
$PAPER_SPACE
  1

  0
ENDBLK
  5
1D
 67
     1
  8
0
  0
ENDSEC
  0
SECTION
  2
ENTITIES
  0
LINE
  5
19A4B
  8
0
 10
4521.1201030624306441
 20
484.0868566679188234
 30
0.0
 11
4521.1355776133214022
 21
483.6459117860187007
 31
0.0
  0
LINE
  5
19A4C
  8
0
 10
4522.2372834947200317
 20
483.0408860157187974
 30
0.0
 11
4521.9811299413213419
 21
483.5209001465187271
 31
0.0
  0
LINE
  5
19A4D
  8
0
 10
4531.1898020219223326
 20
476.5155165150188168
 30
0.0
 11
4530.99092007552008
 21
477.6434320818187871
 31
0.0
  0
LINE
  5
19A4E
  8
0
 10
4531.3836618158211422
 20
476.3528488334188182
 30
0.0
 11
4533.7304722983208194
 21
476.3528488334188182
 31
0.0
  0
LINE
  5
19A4F
  8
0
 10
4533.9243327852209404
 20
476.5155165150188168
 30
0.0
 11
4534.1232147312211964
 21
477.6434320798188082
 31
0.0
  0
LINE
  5
19A50
  8
0
 10
4521.1355776133214022
 20
483.6459117860187007
 30
0.0
 11
4543.9785570965823354
 21
483.6459117860187007
 31
0.0
  0
LINE
  5
19A51
  8
0
 10
4543.9940316474121573
 20
484.0868566679188234
 30
0.0
 11
4521.1201030624306441
 21
484.0868566679188234
 31
0.0
  0
LINE
  5
19A52
  8
0
 10
4543.9940316474121573
 20
484.0868566679188234
 30
0.0
 11
4543.9785570965823354
 21
483.6459117860187007
 31
0.0
  0
ARC
  5
19A53
  8
0
 10
4521.7677521784398778
 20
483.405647315284682
 30
0.0
 40
0.2425145043072222
 50
28.3750415155517288
 51
82.1891261699181825
  0
ARC
  5
19A54
  8
0
 10
4543.3420362519882474
 20
483.4091046165506782
 30
0.0
 40
0.2370489940476847
 50
92.588247003737564
 51
151.8607640359282982
  0
ARC
  5
19A55
  8
0
 10
4530.7582883597724503
 20
477.6024127548271281
 30
0.0
 40
0.2362204486476575
 50
10.0000188553728702
 51
85.8755151069795346
  0
ARC
  5
19A56
  8
0
 10
4534.3558504781849479
 20
477.6024105312582151
 30
0.0
 40
0.2362248043952504
 50
94.1252103654520198
 51
169.9996202812683066
  0
ARC
  5
19A57
  8
0
 10
4533.7304729913175834
 20
476.5496992271200725
 30
0.0
 40
0.1968503937026037
 50
269.9997982943605734
 51
349.9999999997240252
  0
ARC
  5
19A58
  8
0
 10
4531.3836618158211422
 20
476.5496992271188219
 30
0.0
 40
0.1968503937
 50
189.9999999999974989
 51
270.0
  0
ARC
  5
19A59
  8
0
 10
4531.8170772755565849
 20
487.986821803562691
 30
0.0
 40
10.7812211600000598
 50
207.3067791780005109
 51
225.2372696152494882
  0
ARC
  5
19A5A
  8
0
 10
4529.7967115534092954
 20
486.1302114223042281
 30
0.0
 40
8.0412933110080331
 50
226.1432341492277089
 51
250.3705494851787989
  0
ARC
  5
19A5B
  8
0
 10
4531.052112869465418
 20
489.6480183289764909
 30
0.0
 40
11.7763967333023807
 50
250.3672097316606937
 51
261.8926868088460083
  0
ARC
  5
19A5C
  8
0
 10
4532.0517068599301638
 20
495.9192964680472073
 30
0.0
 40
18.1262731218809989
 50
261.5602175546073909
 51
265.9619634843556923
  0
ARC
  5
19A5D
  8
0
 10
4532.5570737675616328
 20
466.6244211422883836
 30
0.0
 40
11.3542779043416004
 50
80.9714739355110851
 51
99.0285873464286652
  0
ARC
  5
19A5E
  8
0
 10
4533.4625466851448437
 20
492.3617666466046217
 30
0.0
 40
14.5501560218004098
 50
273.4528361782066099
 51
286.1529770193143918
  0
ARC
  5
19A5F
  8
0
 10
4535.1349605412324308
 20
486.4555779144246799
 30
0.0
 40
8.4119396548755532
 50
286.4031407888178933
 51
306.1371285188660067
  0
ARC
  5
19A60
  8
0
 10
4533.905346031389854
 20
487.6592823242979193
 30
0.0
 40
10.1131548706313605
 50
307.7417884426207024
 51
335.8449215591141979
  0
ATTDEF
  5
19A62
  8
DEFPOINTS
 10
4532.5571955530240302
 20
483.6446881013407051
 30
0.0
 40
0.001
  1
K-99184T
  3

  2
MODELNUMBER
 70
     0
1001
ACDBATTR
1070
     0
1070
     1
  0
ATTDEF
  5
19A63
  8
DEFPOINTS
 10
4532.5570697433677196
 20
483.6430212609615751
 30
0.0
 40
0.001
  1
CHALICE
  3

  2
TRADENAME
 70
     0
1001
ACDBATTR
1070
     0
1070
     1
  0
ATTDEF
  5
19A64
  8
DEFPOINTS
 10
4532.5571955530240302
 20
483.6413547680073748
 30
0.0
 40
0.001
  1
BATHROOM SINK
  3

  2
PRODUCT
 70
     0
1001
ACDBATTR
1070
     0
1070
     1
  0
ENDSEC
  0
EOF
