  0
SECTION
  2
HEADER
  9
$ACADVER
  1
AC1009
  9
$INSBASE
 10
7797.4908187982837262
 20
1761.6135694007668917
 30
0.0
  9
$EXTMIN
 10
7764.0262518691315563
 20
1761.608018232745053
 30
0.0
  9
$EXTMAX
 10
7830.9553857274322581
 20
1784.7631756999669506
 30
0.0
  9
$LIMMIN
 10
0.0
 20
0.0
  9
$LIMMAX
 10
11.6929133858000007
 20
8.2677165353999982
  9
$ORTHOMODE
 70
     0
  9
$REGENMODE
 70
     1
  9
$FILLMODE
 70
     1
  9
$QTEXTMODE
 70
     0
  9
$MIRRTEXT
 70
     0
  9
$DRAGMODE
 70
     2
  9
$LTSCALE
 40
0.6431102362
  9
$OSMODE
 70
  4095
  9
$ATTMODE
 70
     1
  9
$TEXTSIZE
 40
0.2
  9
$TRACEWID
 40
0.05
  9
$TEXTSTYLE
  7
STANDARD
  9
$CLAYER
  8
0
  9
$CELTYPE
  6
BYLAYER
  9
$CECOLOR
 62
   256
  9
$DIMSCALE
 40
1.0
  9
$DIMASZ
 40
0.1875
  9
$DIMEXO
 40
0.0625
  9
$DIMDLI
 40
0.4443307087
  9
$DIMRND
 40
0.0
  9
$DIMDLE
 40
0.0
  9
$DIMEXE
 40
0.125
  9
$DIMTP
 40
0.01
  9
$DIMTM
 40
0.01
  9
$DIMTXT
 40
2.0
  9
$DIMCEN
 40
0.1052362205
  9
$DIMTSZ
 40
0.0
  9
$DIMTOL
 70
     1
  9
$DIMLIM
 70
     0
  9
$DIMTIH
 70
     1
  9
$DIMTOH
 70
     1
  9
$DIMSE1
 70
     0
  9
$DIMSE2
 70
     0
  9
$DIMTAD
 70
     0
  9
$DIMZIN
 70
     0
  9
$DIMBLK
  1

  9
$DIMASO
 70
     1
  9
$DIMSHO
 70
     1
  9
$DIMPOST
  1
\X
  9
$DIMAPOST
  1

  9
$DIMALT
 70
     1
  9
$DIMALTD
 70
     2
  9
$DIMALTF
 40
25.3999999999999986
  9
$DIMLFAC
 40
1.0
  9
$DIMTOFL
 70
     0
  9
$DIMTVP
 40
0.0
  9
$DIMTIX
 70
     0
  9
$DIMSOXD
 70
     0
  9
$DIMSAH
 70
     0
  9
$DIMBLK1
  1

  9
$DIMBLK2
  1

  9
$DIMSTYLE
  2
STANDARD
  9
$DIMCLRD
 70
     0
  9
$DIMCLRE
 70
     0
  9
$DIMCLRT
 70
     0
  9
$DIMTFAC
 40
1.0
  9
$DIMGAP
 40
0.09
  9
$LUNITS
 70
     2
  9
$LUPREC
 70
     4
  9
$SKETCHINC
 40
0.1
  9
$FILLETRAD
 40
0.0
  9
$AUNITS
 70
     0
  9
$AUPREC
 70
     0
  9
$MENU
  1
.
  9
$ELEVATION
 40
0.0
  9
$PELEVATION
 40
0.0
  9
$THICKNESS
 40
0.0
  9
$LIMCHECK
 70
     0
  9
$BLIPMODE
 70
     0
  9
$CHAMFERA
 40
0.0
  9
$CHAMFERB
 40
0.0
  9
$SKPOLY
 70
     0
  9
$TDCREATE
 40
2458060.468368056230247
  9
$TDUPDATE
 40
2459381.851851852145046
  9
$TDINDWG
 40
0.415759375
  9
$TDUSRTIMER
 40
0.415759375
  9
$USRTIMER
 70
     1
  9
$ANGBASE
 50
0.0
  9
$ANGDIR
 70
     0
  9
$PDMODE
 70
     0
  9
$PDSIZE
 40
0.3125
  9
$PLINEWID
 40
0.0
  9
$COORDS
 70
     1
  9
$SPLFRAME
 70
     0
  9
$SPLINETYPE
 70
     6
  9
$SPLINESEGS
 70
     8
  9
$ATTDIA
 70
     1
  9
$ATTREQ
 70
     1
  9
$HANDLING
 70
     1
  9
$HANDSEED
  5
E2FC
  9
$SURFTAB1
 70
     6
  9
$SURFTAB2
 70
     6
  9
$SURFTYPE
 70
     6
  9
$SURFU
 70
     6
  9
$SURFV
 70
     6
  9
$UCSNAME
  2

  9
$UCSORG
 10
0.0
 20
0.0
 30
0.0
  9
$UCSXDIR
 10
1.0
 20
0.0
 30
0.0
  9
$UCSYDIR
 10
0.0
 20
1.0
 30
0.0
  9
$PUCSNAME
  2

  9
$PUCSORG
 10
0.0
 20
0.0
 30
0.0
  9
$PUCSXDIR
 10
1.0
 20
0.0
 30
0.0
  9
$PUCSYDIR
 10
0.0
 20
1.0
 30
0.0
  9
$USERI1
 70
     0
  9
$USERI2
 70
     0
  9
$USERI3
 70
     0
  9
$USERI4
 70
     0
  9
$USERI5
 70
     0
  9
$USERR1
 40
0.0
  9
$USERR2
 40
0.0
  9
$USERR3
 40
0.0
  9
$USERR4
 40
0.0
  9
$USERR5
 40
0.0
  9
$WORLDVIEW
 70
     1
  9
$SHADEDGE
 70
     3
  9
$SHADEDIF
 70
    70
  9
$TILEMODE
 70
     1
  9
$MAXACTVP
 70
    64
  9
$PLIMCHECK
 70
     0
  9
$PEXTMIN
 10
1.0000000000000000E+20
 20
1.0000000000000000E+20
 30
1.0000000000000000E+20
  9
$PEXTMAX
 10
-1.0000000000000000E+20
 20
-1.0000000000000000E+20
 30
-1.0000000000000000E+20
  9
$PLIMMIN
 10
0.0
 20
0.0
  9
$PLIMMAX
 10
12.0
 20
9.0
  9
$UNITMODE
 70
     0
  9
$VISRETAIN
 70
     1
  9
$PLINEGEN
 70
     0
  9
$PSLTSCALE
 70
     1
  0
ENDSEC
  0
SECTION
  2
TABLES
  0
TABLE
  2
VPORT
 70
     1
  0
VPORT
  2
*ACTIVE
 70
     0
 10
0.0
 20
0.0
 11
1.0
 21
1.0
 12
2982.0829048264058656
 22
1526.1317024258260062
 13
0.0
 23
0.0
 14
1.0
 24
1.0
 15
0.0
 25
0.0
 16
0.0
 26
0.0
 36
9.5192988075487186
 17
4815.2983398437490905
 27
247.8086242675780966
 37
0.0
 40
31.6756329090576116
 41
2.1302631578947362
 42
50.0
 43
0.0
 44
0.0
 50
0.0
 51
0.0
 71
     0
 72
   100
 73
     1
 74
     1
 75
     0
 76
     0
 77
     0
 78
     0
  0
ENDTAB
  0
TABLE
  2
LTYPE
 70
     2
  0
LTYPE
  2
CONTINUOUS
 70
     0
  3
Solid line
 72
    65
 73
     0
 40
0.0
  0
LTYPE
  2
PHANTOM2
 70
     0
  3
___ _ _ ___ _ _ ___ _ _ ___ _ _
 72
    65
 73
     6
 40
1.25
 49
0.625
 49
-0.125
 49
0.125
 49
-0.125
 49
0.125
 49
-0.125
  0
ENDTAB
  0
TABLE
  2
LAYER
 70
     2
  0
LAYER
  2
0
 70
     0
 62
   255
  6
CONTINUOUS
  0
LAYER
  2
DEFPOINTS
 70
     0
 62
     7
  6
CONTINUOUS
  0
ENDTAB
  0
TABLE
  2
STYLE
 70
     1
  0
STYLE
  2
STANDARD
 70
     0
 40
0.0
 41
0.8
 50
0.0
 71
     0
 42
0.2
  3
txt
  4

  0
ENDTAB
  0
TABLE
  2
VIEW
 70
     0
  0
ENDTAB
  0
TABLE
  2
UCS
 70
     0
  0
ENDTAB
  0
TABLE
  2
APPID
 70
    10
  0
APPID
  2
ACAD
 70
     0
  0
APPID
  2
ACAD_MLEADERVER
 70
     0
  0
APPID
  2
ACAD_EXEMPT_FROM_CAD_STANDARDS
 70
     0
  0
APPID
  2
ACAD_NAV_VCDISPLAY
 70
     0
  0
APPID
  2
ACAECLAYERSTANDARD
 70
     0
  0
APPID
  2
ACCMTRANSPARENCY
 70
     0
  0
APPID
  2
ACAD_DSTYLE_DIMJAG
 70
     0
  0
APPID
  2
ACAD_DSTYLE_DIMTALN
 70
     0
  0
APPID
  2
ACDBATTR
 70
     0
  0
APPID
  2
ACADANNOTATIVE
 70
     0
  0
ENDTAB
  0
TABLE
  2
DIMSTYLE
 70
     2
  0
DIMSTYLE
  2
STANDARD
 70
     0
  3

  4

  5

  6

  7

 40
1.0
 41
0.1875
 42
0.0625
 43
0.38
 44
0.125
 45
0.0
 46
0.0
 47
0.01
 48
0.01
140
0.15625
141
0.09
142
0.0
143
25.3999999999999986
144
1.0
145
0.0
146
1.0
147
0.09
 71
     1
 72
     0
 73
     1
 74
     1
 75
     0
 76
     0
 77
     0
 78
     4
170
     0
171
     2
172
     0
173
     0
174
     0
175
     0
176
     0
177
     0
178
     0
  0
DIMSTYLE
  2
ANNOTATIVE
 70
     0
  3

  4

  5

  6

  7

 40
0.0
 41
0.18
 42
0.0625
 43
0.38
 44
0.18
 45
0.0
 46
0.0
 47
0.0
 48
0.0
140
0.18
141
0.09
142
0.0
143
25.3999999999999986
144
1.0
145
0.0
146
1.0
147
0.09
 71
     0
 72
     0
 73
     1
 74
     1
 75
     0
 76
     0
 77
     0
 78
     0
170
     0
171
     2
172
     0
173
     0
174
     0
175
     0
176
     0
177
     0
178
     0
  0
ENDTAB
  0
ENDSEC
  0
SECTION
  2
BLOCKS
  0
BLOCK
  8
0
  2
$MODEL_SPACE
 70
     0
 10
0.0
 20
0.0
 30
0.0
  3
$MODEL_SPACE
  1

  0
ENDBLK
  5
21
  8
0
  0
BLOCK
 67
     1
  8
0
  2
$PAPER_SPACE
 70
     0
 10
0.0
 20
0.0
 30
0.0
  3
$PAPER_SPACE
  1

  0
ENDBLK
  5
1D
 67
     1
  8
0
  0
BLOCK
  8
0
  2
_FILLED
 70
     0
 10
0.0
 20
0.0
 30
0.0
  3
_FILLED
  1

  0
SOLID
  5
D8EA
  8
0
  6
BYBLOCK
 62
     0
 10
0.0
 20
0.0
 30
0.0
 11
-1.0
 21
0.1666666667
 31
0.0
 12
-1.0
 22
-0.1666666667
 32
0.0
 13
-1.0
 23
-0.1666666667
 33
0.0
  0
ENDBLK
  5
D8EB
  8
0
  6
BYBLOCK
 62
     0
  0
ENDSEC
  0
SECTION
  2
ENTITIES
  0
ATTDEF
  5
3930
  8
DEFPOINTS
 10
7797.4797241523783669
 20
1761.6113515660790654
 30
0.0
 40
0.001
  1
K-99204T
  3

  2
MODELNUMBER
 70
     0
1001
ACDBATTR
1070
     0
1070
     1
  0
ATTDEF
  5
3931
  8
DEFPOINTS
 10
7797.4797241523783669
 20
1761.6096848994129687
 30
0.0
 40
0.001
  1
BIOVE
  3

  2
TRADENAME
 70
     0
1001
ACDBATTR
1070
     0
1070
     1
  0
ATTDEF
  5
3932
  8
DEFPOINTS
 10
7797.4797241523783669
 20
1761.6080182327459625
 30
0.0
 40
0.001
  1
BATH
  3

  2
PRODUCT
 70
     0
1001
ACDBATTR
1070
     0
1070
     1
  0
LINE
  5
E27E
  8
0
 10
7764.7349132864319472
 20
1784.7631756999669506
 30
0.0
 11
7830.2467243101318672
 21
1784.7631756999669506
 31
0.0
  0
LINE
  5
E27F
  8
0
 10
7764.0262518691315563
 20
1784.0545142625669541
 30
0.0
 11
7830.9553857274322581
 21
1784.0545142625669541
 31
0.0
  0
LINE
  5
E280
  8
0
 10
7830.7565668297329466
 20
1783.4639631015670602
 30
0.0
 11
7764.181763680131553
 21
1783.4639631015670602
 31
0.0
  0
ARC
  5
E281
  8
0
 10
7764.7737033960402186
 20
1784.0157241741599137
 30
0.0
 40
0.7484573842464198
 50
92.9707846649839666
 51
177.0292169601455896
  0
LINE
  5
E282
  8
0
 10
7764.4573542313319194
 20
1783.5427032590669114
 30
0.0
 11
7764.4573542313319194
 21
1784.0545142625669541
 31
0.0
  0
ARC
  5
E283
  8
0
 10
7764.3786140738329777
 20
1783.5427032590669114
 30
0.0
 40
0.0787401574999969
 50
270.0
 51
359.9999999393045869
  0
ARC
  5
E284
  8
0
 10
7764.181763680131553
 20
1783.3852229440669817
 30
0.0
 40
0.0787401575000004
 50
90.0
 51
180.0
  0
LINE
  5
E285
  8
0
 10
7764.1030235227326557
 20
1783.3852229440669817
 30
0.0
 11
7764.1030235227326557
 21
1761.8104197944669522
 31
0.0
  0
LINE
  5
E286
  8
0
 10
7768.4377535091316531
 20
1761.6135694007668917
 30
0.0
 11
7768.4377535091316531
 21
1761.8104197944669522
 31
0.0
  0
LINE
  5
E287
  8
0
 10
7768.7900735552320839
 20
1761.6135694007668917
 30
0.0
 11
7768.7900735552320839
 21
1761.8104197944669522
 31
0.0
  0
LINE
  5
E288
  8
0
 10
7769.4947136476330343
 20
1761.6135694007668917
 30
0.0
 11
7769.4947136476330343
 21
1761.8104197944669522
 31
0.0
  0
LINE
  5
E289
  8
0
 10
7769.8470336937325555
 20
1761.6135694007668917
 30
0.0
 11
7769.8470336937325555
 21
1761.8104197944669522
 31
0.0
  0
LINE
  5
E28A
  8
0
 10
7781.5303286394328097
 20
1761.6135694007668917
 30
0.0
 11
7781.5303286394328097
 21
1761.8104197944669522
 31
0.0
  0
LINE
  5
E28B
  8
0
 10
7781.7428571834334434
 20
1761.6135694007668917
 30
0.0
 11
7781.7428571834334434
 21
1761.8104197944669522
 31
0.0
  0
LINE
  5
E28C
  8
0
 10
7782.1679142714319823
 20
1761.6135694007668917
 30
0.0
 11
7782.1679142714319823
 21
1761.8104197944669522
 31
0.0
  0
LINE
  5
E28D
  8
0
 10
7782.3804428153316621
 20
1761.6135694007668917
 30
0.0
 11
7782.3804428153316621
 21
1761.8104197944669522
 31
0.0
  0
LINE
  5
E28E
  8
0
 10
7830.7565668297329466
 20
1761.8891599519670308
 30
0.0
 11
7830.7565668297329466
 21
1783.8009111944720644
 31
0.0
  0
ARC
  5
E28F
  8
0
 10
7830.6778266723486013
 20
1783.8009111944720644
 30
0.0
 40
0.0787401574829154
 50
359.9999999959874799
 51
71.5650511875790443
  0
LINE
  5
E290
  8
0
 10
7830.7027264964326605
 20
1783.8756106667669883
 30
0.0
 11
7830.1660157090318535
 21
1784.0545142625669541
 31
0.0
  0
ARC
  5
E291
  8
0
 10
7830.201134996464134
 20
1784.008924970290991
 30
0.0
 40
0.7556272551569513
 50
3.4589294038013469
 51
86.5410689711142282
  0
LINE
  5
E292
  8
0
 10
7826.5438840874321613
 20
1761.6135694007668917
 30
0.0
 11
7826.5438840874321613
 21
1761.8104197944669522
 31
0.0
  0
LINE
  5
E293
  8
0
 10
7826.1915640413335495
 20
1761.6135694007668917
 30
0.0
 11
7826.1915640413335495
 21
1761.8104197944669522
 31
0.0
  0
LINE
  5
E294
  8
0
 10
7825.4869239489325992
 20
1761.6135694007668917
 30
0.0
 11
7825.4869239489325992
 21
1761.8104197944669522
 31
0.0
  0
LINE
  5
E295
  8
0
 10
7825.1346039028312589
 20
1761.6135694007668917
 30
0.0
 11
7825.1346039028312589
 21
1761.8104197944669522
 31
0.0
  0
LINE
  5
E296
  8
0
 10
7815.5854467497320002
 20
1761.6135694007668917
 30
0.0
 11
7815.5854467497320002
 21
1761.8104197944669522
 31
0.0
  0
LINE
  5
E297
  8
0
 10
7815.7979752937317244
 20
1761.6135694007668917
 30
0.0
 11
7815.7979752937317244
 21
1761.8104197944669522
 31
0.0
  0
LINE
  5
E298
  8
0
 10
7816.2230323817320823
 20
1761.6135694007668917
 30
0.0
 11
7816.2230323817320823
 21
1761.8104197944669522
 31
0.0
  0
LINE
  5
E299
  8
0
 10
7816.4355609256326716
 20
1761.6135694007668917
 30
0.0
 11
7816.4355609256326716
 21
1761.8104197944669522
 31
0.0
  0
LINE
  5
E29A
  8
0
 10
7796.7861787059828202
 20
1761.6135694007668917
 30
0.0
 11
7796.7861787059819108
 21
1761.8104197944669522
 31
0.0
  0
LINE
  5
E29B
  8
0
 10
7797.1384987520823415
 20
1761.6135694007668917
 30
0.0
 11
7797.1384987520823415
 21
1761.8104197944669522
 31
0.0
  0
LINE
  5
E29C
  8
0
 10
7797.8431388444832919
 20
1761.6135694007668917
 30
0.0
 11
7797.8431388444832919
 21
1761.8104197944669522
 31
0.0
  0
LINE
  5
E29D
  8
0
 10
7798.1954588905828132
 20
1761.6135694007668917
 30
0.0
 11
7798.1954588905828132
 21
1761.8104197944669522
 31
0.0
  0
ARC
  5
E29E
  8
0
 10
7830.6782676298753358
 20
1761.8887189943259273
 30
0.0
 40
0.0783004415193631
 50
270.3226691845625282
 51
0.322669257387592
  0
LINE
  5
E29F
  8
0
 62
     7
 10
7768.4377535091316531
 20
1761.6135694007668917
 30
0.0
 11
7769.8470336937325555
 21
1761.6135694007668917
 31
0.0
  0
LINE
  5
E2A0
  8
0
 62
     7
 10
7781.5303286394328097
 20
1761.6135694007668917
 30
0.0
 11
7782.3804428153316621
 21
1761.6135694007668917
 31
0.0
  0
LINE
  5
E2A1
  8
0
 62
     7
 10
7796.7861787059828202
 20
1761.6135694007668917
 30
0.0
 11
7798.1954588905828132
 21
1761.6135694007668917
 31
0.0
  0
LINE
  5
E2A2
  8
0
 62
     7
 10
7815.5854467497320002
 20
1761.6135694007668917
 30
0.0
 11
7816.4355609256326716
 21
1761.6135694007668917
 31
0.0
  0
LINE
  5
E2A3
  8
0
 62
     7
 10
7825.1346039028312589
 20
1761.6135694007668917
 30
0.0
 11
7826.5438840874321613
 21
1761.6135694007668917
 31
0.0
  0
LINE
  5
E2A4
  8
0
 10
7764.1030235227326557
 20
1761.8104197944669522
 30
0.0
 11
7830.6787085874157128
 21
1761.8104197944669522
 31
0.0
  0
ENDSEC
  0
EOF
