  0
SECTION
  2
HEADER
  9
$ACADVER
  1
AC1009
  9
$INSBASE
 10
171.7104142154379929
 20
-86.3242866521775483
 30
0.0
  9
$EXTMIN
 10
156.9447968613559965
 20
-86.3271729580130796
 30
-0.0015258207003583
  9
$EXTMAX
 10
186.4797142793237867
 20
-63.0890863678560834
 30
0.0000000349246037
  9
$LIMMIN
 10
0.0
 20
0.0
  9
$LIMMAX
 10
11.6929133858000007
 20
8.2677165353999982
  9
$ORTHOMODE
 70
     0
  9
$REGENMODE
 70
     1
  9
$FILLMODE
 70
     1
  9
$QTEXTMODE
 70
     0
  9
$MIRRTEXT
 70
     0
  9
$DRAGMODE
 70
     2
  9
$LTSCALE
 40
0.6431102362
  9
$OSMODE
 70
  2047
  9
$ATTMODE
 70
     1
  9
$TEXTSIZE
 40
0.2
  9
$TRACEWID
 40
0.05
  9
$TEXTSTYLE
  7
STANDARD
  9
$CLAYER
  8
0
  9
$CELTYPE
  6
BYLAYER
  9
$CECOLOR
 62
   256
  9
$DIMSCALE
 40
1.0
  9
$DIMASZ
 40
0.1875
  9
$DIMEXO
 40
0.0625
  9
$DIMDLI
 40
0.4443307087
  9
$DIMRND
 40
0.0
  9
$DIMDLE
 40
0.0
  9
$DIMEXE
 40
0.125
  9
$DIMTP
 40
0.01
  9
$DIMTM
 40
0.01
  9
$DIMTXT
 40
1.0
  9
$DIMCEN
 40
0.1052362205
  9
$DIMTSZ
 40
0.0
  9
$DIMTOL
 70
     1
  9
$DIMLIM
 70
     0
  9
$DIMTIH
 70
     1
  9
$DIMTOH
 70
     1
  9
$DIMSE1
 70
     0
  9
$DIMSE2
 70
     0
  9
$DIMTAD
 70
     0
  9
$DIMZIN
 70
     0
  9
$DIMBLK
  1

  9
$DIMASO
 70
     1
  9
$DIMSHO
 70
     1
  9
$DIMPOST
  1
\X
  9
$DIMAPOST
  1

  9
$DIMALT
 70
     1
  9
$DIMALTD
 70
     2
  9
$DIMALTF
 40
25.3999999999999986
  9
$DIMLFAC
 40
1.0
  9
$DIMTOFL
 70
     0
  9
$DIMTVP
 40
0.0
  9
$DIMTIX
 70
     0
  9
$DIMSOXD
 70
     0
  9
$DIMSAH
 70
     0
  9
$DIMBLK1
  1

  9
$DIMBLK2
  1

  9
$DIMSTYLE
  2
STANDARD
  9
$DIMCLRD
 70
     0
  9
$DIMCLRE
 70
     0
  9
$DIMCLRT
 70
     0
  9
$DIMTFAC
 40
1.0
  9
$DIMGAP
 40
0.09
  9
$LUNITS
 70
     2
  9
$LUPREC
 70
     4
  9
$SKETCHINC
 40
0.1
  9
$FILLETRAD
 40
0.0
  9
$AUNITS
 70
     0
  9
$AUPREC
 70
     0
  9
$MENU
  1
.
  9
$ELEVATION
 40
0.0
  9
$PELEVATION
 40
0.0
  9
$THICKNESS
 40
0.0
  9
$LIMCHECK
 70
     0
  9
$BLIPMODE
 70
     0
  9
$CHAMFERA
 40
0.0
  9
$CHAMFERB
 40
0.0
  9
$SKPOLY
 70
     0
  9
$TDCREATE
 40
2458172.4620254631154239
  9
$TDUPDATE
 40
2459019.8089699079282582
  9
$TDINDWG
 40
0.1446934375
  9
$TDUSRTIMER
 40
0.1446934375
  9
$USRTIMER
 70
     1
  9
$ANGBASE
 50
0.0
  9
$ANGDIR
 70
     0
  9
$PDMODE
 70
     0
  9
$PDSIZE
 40
0.3125
  9
$PLINEWID
 40
0.0
  9
$COORDS
 70
     1
  9
$SPLFRAME
 70
     0
  9
$SPLINETYPE
 70
     6
  9
$SPLINESEGS
 70
     8
  9
$ATTDIA
 70
     1
  9
$ATTREQ
 70
     1
  9
$HANDLING
 70
     1
  9
$HANDSEED
  5
785B
  9
$SURFTAB1
 70
     6
  9
$SURFTAB2
 70
     6
  9
$SURFTYPE
 70
     6
  9
$SURFU
 70
     6
  9
$SURFV
 70
     6
  9
$UCSNAME
  2

  9
$UCSORG
 10
0.0
 20
0.0
 30
0.0
  9
$UCSXDIR
 10
1.0
 20
0.0
 30
0.0
  9
$UCSYDIR
 10
0.0
 20
1.0
 30
0.0
  9
$PUCSNAME
  2

  9
$PUCSORG
 10
0.0
 20
0.0
 30
0.0
  9
$PUCSXDIR
 10
1.0
 20
0.0
 30
0.0
  9
$PUCSYDIR
 10
0.0
 20
1.0
 30
0.0
  9
$USERI1
 70
     0
  9
$USERI2
 70
     0
  9
$USERI3
 70
     0
  9
$USERI4
 70
     0
  9
$USERI5
 70
     0
  9
$USERR1
 40
0.0
  9
$USERR2
 40
0.0
  9
$USERR3
 40
0.0
  9
$USERR4
 40
0.0
  9
$USERR5
 40
0.0
  9
$WORLDVIEW
 70
     1
  9
$SHADEDGE
 70
     3
  9
$SHADEDIF
 70
    70
  9
$TILEMODE
 70
     1
  9
$MAXACTVP
 70
    64
  9
$PLIMCHECK
 70
     0
  9
$PEXTMIN
 10
1.0000000000000000E+20
 20
1.0000000000000000E+20
 30
1.0000000000000000E+20
  9
$PEXTMAX
 10
-1.0000000000000000E+20
 20
-1.0000000000000000E+20
 30
-1.0000000000000000E+20
  9
$PLIMMIN
 10
0.0
 20
0.0
  9
$PLIMMAX
 10
12.0
 20
9.0
  9
$UNITMODE
 70
     0
  9
$VISRETAIN
 70
     1
  9
$PLINEGEN
 70
     0
  9
$PSLTSCALE
 70
     1
  0
ENDSEC
  0
SECTION
  2
TABLES
  0
TABLE
  2
VPORT
 70
     1
  0
VPORT
  2
*ACTIVE
 70
     0
 10
0.0
 20
0.0
 11
1.0
 21
1.0
 12
47.1010969702672568
 22
-80.0204038333123862
 13
0.0
 23
0.0
 14
1.0
 24
1.0
 15
0.0
 25
0.0
 16
0.0
 26
0.0
 36
30.6214257250603907
 17
124.6111586000725993
 27
5.3122741703778242
 37
0.0
 40
23.4464999228041506
 41
2.8398203592814371
 42
50.0
 43
0.0
 44
0.0
 50
0.0
 51
0.0
 71
     0
 72
   100
 73
     1
 74
     1
 75
     0
 76
     0
 77
     0
 78
     0
  0
ENDTAB
  0
TABLE
  2
LTYPE
 70
     2
  0
LTYPE
  2
CONTINUOUS
 70
     0
  3
Solid line
 72
    65
 73
     0
 40
0.0
  0
LTYPE
  2
PHANTOM2
 70
     0
  3
___ _ _ ___ _ _ ___ _ _ ___ _ _
 72
    65
 73
     6
 40
1.25
 49
0.625
 49
-0.125
 49
0.125
 49
-0.125
 49
0.125
 49
-0.125
  0
ENDTAB
  0
TABLE
  2
LAYER
 70
     2
  0
LAYER
  2
0
 70
     0
 62
   255
  6
CONTINUOUS
  0
LAYER
  2
DEFPOINTS
 70
     0
 62
     7
  6
CONTINUOUS
  0
ENDTAB
  0
TABLE
  2
STYLE
 70
     1
  0
STYLE
  2
STANDARD
 70
     0
 40
0.0
 41
0.8
 50
0.0
 71
     0
 42
0.2
  3
txt
  4

  0
ENDTAB
  0
TABLE
  2
VIEW
 70
     0
  0
ENDTAB
  0
TABLE
  2
UCS
 70
     0
  0
ENDTAB
  0
TABLE
  2
APPID
 70
     9
  0
APPID
  2
ACAD
 70
     0
  0
APPID
  2
ACAD_MLEADERVER
 70
     0
  0
APPID
  2
ACAD_EXEMPT_FROM_CAD_STANDARDS
 70
     0
  0
APPID
  2
ACAD_DSTYLE_DIMJAG
 70
     0
  0
APPID
  2
ACAD_DSTYLE_DIMTALN
 70
     0
  0
APPID
  2
ACAD_NAV_VCDISPLAY
 70
     0
  0
APPID
  2
ACAECLAYERSTANDARD
 70
     0
  0
APPID
  2
ACCMTRANSPARENCY
 70
     0
  0
APPID
  2
ACDBATTR
 70
     0
  0
ENDTAB
  0
TABLE
  2
DIMSTYLE
 70
     1
  0
DIMSTYLE
  2
STANDARD
 70
     0
  3

  4

  5

  6

  7

 40
1.0
 41
0.1875
 42
0.0625
 43
0.38
 44
0.125
 45
0.0
 46
0.0
 47
0.01
 48
0.01
140
0.15625
141
0.09
142
0.0
143
25.3999999999999986
144
1.0
145
0.0
146
1.0
147
0.09
 71
     1
 72
     0
 73
     1
 74
     1
 75
     0
 76
     0
 77
     0
 78
     4
170
     0
171
     2
172
     0
173
     0
174
     0
175
     0
176
     0
177
     0
178
     0
  0
ENDTAB
  0
ENDSEC
  0
SECTION
  2
BLOCKS
  0
BLOCK
  8
0
  2
$MODEL_SPACE
 70
     0
 10
0.0
 20
0.0
 30
0.0
  3
$MODEL_SPACE
  1

  0
ENDBLK
  5
21
  8
0
  0
BLOCK
 67
     1
  8
0
  2
$PAPER_SPACE
 70
     0
 10
0.0
 20
0.0
 30
0.0
  3
$PAPER_SPACE
  1

  0
ENDBLK
  5
1D
 67
     1
  8
0
  0
BLOCK
  8
0
  2
_FILLED
 70
     0
 10
0.0
 20
0.0
 30
0.0
  3
_FILLED
  1

  0
SOLID
  5
75BB
  8
0
  6
BYBLOCK
 62
     0
 10
0.0
 20
0.0
 30
0.0
 11
-1.0
 21
0.1666666667
 31
0.0
 12
-1.0
 22
-0.1666666667
 32
0.0
 13
-1.0
 23
-0.1666666667
 33
0.0
  0
ENDBLK
  5
75BC
  8
0
  6
BYBLOCK
 62
     0
  0
ENDSEC
  0
SECTION
  2
ENTITIES
  0
ATTDEF
  5
74A9
  8
DEFPOINTS
 10
171.7105099024005028
 20
-86.3207202648616061
 30
0.0
 40
0.001
  1
K-99205T
  3

  2
MODELNUMBER
 70
     0
1001
ACDBATTR
1070
     0
1070
     1
  0
ATTDEF
  5
74AA
  8
DEFPOINTS
 10
171.7105099024005028
 20
-86.322386931528257
 30
0.0
 40
0.001
  1
BIOVE
  3

  2
TRADENAME
 70
     0
1001
ACDBATTR
1070
     0
1070
     1
  0
ATTDEF
  5
74AB
  8
DEFPOINTS
 10
171.7105099024005028
 20
-86.3240535981949364
 30
0.0
 40
0.001
  1
BATH
  3

  2
PRODUCT
 70
     0
1001
ACDBATTR
1070
     0
1070
     1
  0
LINE
  5
76F2
  8
0
 10
185.7655356851172996
 20
-63.0959404169775482
 30
0.0
 11
157.6547679677678957
 21
-63.0959404169775482
 31
0.0
  0
LINE
  5
76F3
  8
0
 10
156.946634958712707
 20
-63.8046016331488133
 30
0.0
 11
186.474193471763698
 21
-63.8046016331488204
 31
0.0
  0
LINE
  5
76F4
  8
0
 10
157.1041150028380002
 20
-64.3951527938775428
 30
0.0
 11
186.3167134280380139
 21
-64.3951527938775428
 31
0.0
  0
LINE
  5
76F5
  8
0
 10
157.1041150028380002
 20
-86.0486961026970363
 30
0.0
 11
186.3167134280380139
 21
-86.0486961026970221
 31
0.0
  0
ARC
  5
76F6
  8
0
 10
185.7155119918612058
 20
-63.8546216548015693
 30
0.0
 40
0.7603286069280544
 50
3.7720630623607261
 51
86.2276596573659901
  0
ARC
  5
76F7
  8
0
 10
157.7054241865513973
 20
-63.8546920845845918
 30
0.0
 40
0.7604407574544521
 50
93.8195459031689154
 51
176.2231759500689066
  0
LINE
  5
76F8
  8
0
 10
157.3797055540379972
 20
-63.804601633262763
 30
0.0
 11
157.3797055540379972
 21
-64.3164126364775512
 31
0.0
  0
ARC
  5
76F9
  8
0
 10
157.3009653966379915
 20
-64.3164126364775512
 30
0.0
 40
0.0787401574000057
 50
269.9999999272329774
 51
0.0000000000040711
  0
ARC
  5
76FA
  8
0
 10
157.1041150028380002
 20
-64.4738929513775503
 30
0.0
 40
0.0787401575000049
 50
89.9999999990994723
 51
179.9999999999959073
  0
LINE
  5
76FB
  8
0
 10
157.0253748453380069
 20
-64.4738929513775503
 30
0.0
 11
157.0253748453366995
 21
-85.9699559434775864
 31
0.0
  0
ARC
  5
76FC
  8
0
 10
157.1041150057720017
 20
-85.9699559422617057
 30
0.0
 40
0.0787401604353164
 50
180.0000008847198103
 51
269.9999978650643015
  0
ARC
  5
76FD
  8
0
 10
186.3167134280380139
 20
-64.4738929513775219
 30
0.0
 40
0.0787401574999769
 50
359.9999999999828901
 51
90.0000000008988934
  0
LINE
  5
76FE
  8
0
 10
186.0411228768379885
 20
-63.8046016333788586
 30
0.0
 11
186.0411228768379885
 21
-64.3164126364775512
 31
0.0
  0
ARC
  5
76FF
  8
0
 10
186.1198630343380103
 20
-64.3164126364775512
 30
0.0
 40
0.0787401575000075
 50
179.9999999999951115
 51
269.9999999999885745
  0
LINE
  5
7700
  8
0
 10
186.3954535855380072
 20
-64.4738929513775503
 30
0.0
 11
186.3954535855380072
 21
-85.969955943477558
 31
0.0
  0
ARC
  5
7701
  8
0
 10
186.3167134251027051
 20
-85.9699559422617057
 30
0.0
 40
0.0787401604353271
 50
270.0000021358964091
 51
359.9999991152745906
  0
LINE
  5
7702
  8
0
 10
185.3915165776379865
 20
-86.0486961026970221
 30
0.0
 11
185.3915165776379865
 21
-86.2455464946775407
 31
0.0
  0
LINE
  5
7703
  8
0
 10
185.3915165776379865
 20
-86.2455464946775407
 30
0.0
 11
184.1710441366379882
 21
-86.2455464946775407
 31
0.0
  0
LINE
  5
7704
  8
0
 10
184.1710441366379882
 20
-86.2455464946775407
 30
0.0
 11
184.1710441366379882
 21
-86.0486961026970221
 31
0.0
  0
LINE
  5
7705
  8
0
 10
182.7871858689379962
 20
-86.0486961026970221
 30
0.0
 11
182.7871858689379962
 21
-86.3242866521775483
 31
0.0
  0
LINE
  5
7706
  8
0
 10
182.7871858689379962
 20
-86.3242866521775483
 30
0.0
 11
182.0509653965380039
 21
-86.3242866521775483
 31
0.0
  0
LINE
  5
7707
  8
0
 10
182.0509653965380039
 20
-86.3242866521775483
 30
0.0
 11
182.0509653965380039
 21
-86.0486961026970221
 31
0.0
  0
LINE
  5
7708
  8
0
 10
158.0293118532379992
 20
-86.0486961026970363
 30
0.0
 11
158.0293118532379992
 21
-86.2455464946775407
 31
0.0
  0
LINE
  5
7709
  8
0
 10
158.0293118532379992
 20
-86.2455464946775407
 30
0.0
 11
159.24978429413801
 21
-86.2455464946775407
 31
0.0
  0
LINE
  5
770A
  8
0
 10
159.24978429413801
 20
-86.2455464946775407
 30
0.0
 11
159.24978429413801
 21
-86.0486961026970363
 31
0.0
  0
LINE
  5
770B
  8
0
 10
160.6336425618380019
 20
-86.0486961026970221
 30
0.0
 11
160.6336425618380019
 21
-86.3242866521775483
 31
0.0
  0
LINE
  5
770C
  8
0
 10
160.6336425618380019
 20
-86.3242866521775483
 30
0.0
 11
161.3698630343380103
 21
-86.3242866521775483
 31
0.0
  0
LINE
  5
770D
  8
0
 10
161.3698630343380103
 20
-86.3242866521775483
 30
0.0
 11
161.3698630343380103
 21
-86.0486961026970221
 31
0.0
  0
LINE
  5
770E
  8
0
 10
158.6395480736879904
 20
-86.2455464946775407
 30
0.0
 11
158.6395480736879904
 21
-86.0486961026970363
 31
0.0
  0
LINE
  5
770F
  8
0
 10
182.4190756327379859
 20
-86.3242866521775483
 30
0.0
 11
182.4190756327379859
 21
-86.0486961026970221
 31
0.0
  0
LINE
  5
7710
  8
0
 10
184.7812803571380016
 20
-86.2455464946775407
 30
0.0
 11
184.7812803571380016
 21
-86.0486961026970221
 31
0.0
  0
LINE
  5
7711
  8
0
 10
161.0017527980880061
 20
-86.3242866521775483
 30
0.0
 11
161.0017527980880061
 21
-86.0486961026970221
 31
0.0
  0
ENDSEC
  0
EOF
