  0
SECTION
  2
HEADER
  9
$ACADVER
  1
AC1009
  9
$INSBASE
 10
159.3752150588015013
 20
-143.8746732618974136
 30
0.0
  9
$EXTMIN
 10
141.3683449551847104
 20
-157.2165221754632114
 30
-0.0015258207003583
  9
$EXTMAX
 10
174.1442884026490105
 20
-122.1268898154245051
 30
0.0000000349246037
  9
$LIMMIN
 10
0.0
 20
0.0
  9
$LIMMAX
 10
11.6929133858000007
 20
8.2677165353999982
  9
$ORTHOMODE
 70
     0
  9
$REGENMODE
 70
     1
  9
$FILLMODE
 70
     1
  9
$QTEXTMODE
 70
     0
  9
$MIRRTEXT
 70
     0
  9
$DRAGMODE
 70
     2
  9
$LTSCALE
 40
0.6431102362
  9
$OSMODE
 70
  2047
  9
$ATTMODE
 70
     1
  9
$TEXTSIZE
 40
0.2
  9
$TRACEWID
 40
0.05
  9
$TEXTSTYLE
  7
STANDARD
  9
$CLAYER
  8
0
  9
$CELTYPE
  6
BYLAYER
  9
$CECOLOR
 62
   256
  9
$DIMSCALE
 40
1.0
  9
$DIMASZ
 40
0.1875
  9
$DIMEXO
 40
0.0625
  9
$DIMDLI
 40
0.4443307087
  9
$DIMRND
 40
0.0
  9
$DIMDLE
 40
0.0
  9
$DIMEXE
 40
0.125
  9
$DIMTP
 40
0.01
  9
$DIMTM
 40
0.01
  9
$DIMTXT
 40
1.0
  9
$DIMCEN
 40
0.1052362205
  9
$DIMTSZ
 40
0.0
  9
$DIMTOL
 70
     1
  9
$DIMLIM
 70
     0
  9
$DIMTIH
 70
     1
  9
$DIMTOH
 70
     1
  9
$DIMSE1
 70
     0
  9
$DIMSE2
 70
     0
  9
$DIMTAD
 70
     0
  9
$DIMZIN
 70
     0
  9
$DIMBLK
  1

  9
$DIMASO
 70
     1
  9
$DIMSHO
 70
     1
  9
$DIMPOST
  1
\X
  9
$DIMAPOST
  1

  9
$DIMALT
 70
     1
  9
$DIMALTD
 70
     2
  9
$DIMALTF
 40
25.3999999999999986
  9
$DIMLFAC
 40
1.0
  9
$DIMTOFL
 70
     0
  9
$DIMTVP
 40
0.0
  9
$DIMTIX
 70
     0
  9
$DIMSOXD
 70
     0
  9
$DIMSAH
 70
     0
  9
$DIMBLK1
  1

  9
$DIMBLK2
  1

  9
$DIMSTYLE
  2
STANDARD
  9
$DIMCLRD
 70
     0
  9
$DIMCLRE
 70
     0
  9
$DIMCLRT
 70
     0
  9
$DIMTFAC
 40
1.0
  9
$DIMGAP
 40
0.09
  9
$LUNITS
 70
     2
  9
$LUPREC
 70
     4
  9
$SKETCHINC
 40
0.1
  9
$FILLETRAD
 40
0.0
  9
$AUNITS
 70
     0
  9
$AUPREC
 70
     0
  9
$MENU
  1
.
  9
$ELEVATION
 40
0.0
  9
$PELEVATION
 40
0.0
  9
$THICKNESS
 40
0.0
  9
$LIMCHECK
 70
     0
  9
$BLIPMODE
 70
     0
  9
$CHAMFERA
 40
0.0
  9
$CHAMFERB
 40
0.0
  9
$SKPOLY
 70
     0
  9
$TDCREATE
 40
2458172.4620254631154239
  9
$TDUPDATE
 40
2459019.8473379630595446
  9
$TDINDWG
 40
0.1481540856
  9
$TDUSRTIMER
 40
0.1481540856
  9
$USRTIMER
 70
     1
  9
$ANGBASE
 50
0.0
  9
$ANGDIR
 70
     0
  9
$PDMODE
 70
     0
  9
$PDSIZE
 40
0.3125
  9
$PLINEWID
 40
0.0
  9
$COORDS
 70
     1
  9
$SPLFRAME
 70
     0
  9
$SPLINETYPE
 70
     6
  9
$SPLINESEGS
 70
     8
  9
$ATTDIA
 70
     1
  9
$ATTREQ
 70
     1
  9
$HANDLING
 70
     1
  9
$HANDSEED
  5
7F19
  9
$SURFTAB1
 70
     6
  9
$SURFTAB2
 70
     6
  9
$SURFTYPE
 70
     6
  9
$SURFU
 70
     6
  9
$SURFV
 70
     6
  9
$UCSNAME
  2

  9
$UCSORG
 10
0.0
 20
0.0
 30
0.0
  9
$UCSXDIR
 10
1.0
 20
0.0
 30
0.0
  9
$UCSYDIR
 10
0.0
 20
1.0
 30
0.0
  9
$PUCSNAME
  2

  9
$PUCSORG
 10
0.0
 20
0.0
 30
0.0
  9
$PUCSXDIR
 10
1.0
 20
0.0
 30
0.0
  9
$PUCSYDIR
 10
0.0
 20
1.0
 30
0.0
  9
$USERI1
 70
     0
  9
$USERI2
 70
     0
  9
$USERI3
 70
     0
  9
$USERI4
 70
     0
  9
$USERI5
 70
     0
  9
$USERR1
 40
0.0
  9
$USERR2
 40
0.0
  9
$USERR3
 40
0.0
  9
$USERR4
 40
0.0
  9
$USERR5
 40
0.0
  9
$WORLDVIEW
 70
     1
  9
$SHADEDGE
 70
     3
  9
$SHADEDIF
 70
    70
  9
$TILEMODE
 70
     1
  9
$MAXACTVP
 70
    64
  9
$PLIMCHECK
 70
     0
  9
$PEXTMIN
 10
1.0000000000000000E+20
 20
1.0000000000000000E+20
 30
1.0000000000000000E+20
  9
$PEXTMAX
 10
-1.0000000000000000E+20
 20
-1.0000000000000000E+20
 30
-1.0000000000000000E+20
  9
$PLIMMIN
 10
0.0
 20
0.0
  9
$PLIMMAX
 10
12.0
 20
9.0
  9
$UNITMODE
 70
     0
  9
$VISRETAIN
 70
     1
  9
$PLINEGEN
 70
     0
  9
$PSLTSCALE
 70
     1
  0
ENDSEC
  0
SECTION
  2
TABLES
  0
TABLE
  2
VPORT
 70
     1
  0
VPORT
  2
*ACTIVE
 70
     0
 10
0.0
 20
0.0
 11
1.0
 21
1.0
 12
33.1451580788442612
 22
-144.9839801658216913
 13
0.0
 23
0.0
 14
1.0
 24
1.0
 15
0.0
 25
0.0
 16
0.0
 26
0.0
 36
30.6214257250603907
 17
124.6111586000725993
 27
5.3122741703778242
 37
0.0
 40
35.4043375829986715
 41
2.8398203592814371
 42
50.0
 43
0.0
 44
0.0
 50
0.0
 51
0.0
 71
     0
 72
   100
 73
     1
 74
     1
 75
     0
 76
     0
 77
     0
 78
     0
  0
ENDTAB
  0
TABLE
  2
LTYPE
 70
     2
  0
LTYPE
  2
CONTINUOUS
 70
     0
  3
Solid line
 72
    65
 73
     0
 40
0.0
  0
LTYPE
  2
PHANTOM2
 70
     0
  3
___ _ _ ___ _ _ ___ _ _ ___ _ _
 72
    65
 73
     6
 40
1.25
 49
0.625
 49
-0.125
 49
0.125
 49
-0.125
 49
0.125
 49
-0.125
  0
ENDTAB
  0
TABLE
  2
LAYER
 70
     2
  0
LAYER
  2
0
 70
     0
 62
   255
  6
CONTINUOUS
  0
LAYER
  2
DEFPOINTS
 70
     0
 62
     7
  6
CONTINUOUS
  0
ENDTAB
  0
TABLE
  2
STYLE
 70
     1
  0
STYLE
  2
STANDARD
 70
     0
 40
0.0
 41
0.8
 50
0.0
 71
     0
 42
0.2
  3
txt
  4

  0
ENDTAB
  0
TABLE
  2
VIEW
 70
     0
  0
ENDTAB
  0
TABLE
  2
UCS
 70
     0
  0
ENDTAB
  0
TABLE
  2
APPID
 70
     9
  0
APPID
  2
ACAD
 70
     0
  0
APPID
  2
ACAD_MLEADERVER
 70
     0
  0
APPID
  2
ACAD_EXEMPT_FROM_CAD_STANDARDS
 70
     0
  0
APPID
  2
ACAD_DSTYLE_DIMJAG
 70
     0
  0
APPID
  2
ACAD_DSTYLE_DIMTALN
 70
     0
  0
APPID
  2
ACAD_NAV_VCDISPLAY
 70
     0
  0
APPID
  2
ACAECLAYERSTANDARD
 70
     0
  0
APPID
  2
ACCMTRANSPARENCY
 70
     0
  0
APPID
  2
ACDBATTR
 70
     0
  0
ENDTAB
  0
TABLE
  2
DIMSTYLE
 70
     1
  0
DIMSTYLE
  2
STANDARD
 70
     0
  3

  4

  5

  6

  7

 40
1.0
 41
0.1875
 42
0.0625
 43
0.38
 44
0.125
 45
0.0
 46
0.0
 47
0.01
 48
0.01
140
0.15625
141
0.09
142
0.0
143
25.3999999999999986
144
1.0
145
0.0
146
1.0
147
0.09
 71
     1
 72
     0
 73
     1
 74
     1
 75
     0
 76
     0
 77
     0
 78
     4
170
     0
171
     2
172
     0
173
     0
174
     0
175
     0
176
     0
177
     0
178
     0
  0
ENDTAB
  0
ENDSEC
  0
SECTION
  2
BLOCKS
  0
BLOCK
  8
0
  2
$MODEL_SPACE
 70
     0
 10
0.0
 20
0.0
 30
0.0
  3
$MODEL_SPACE
  1

  0
ENDBLK
  5
21
  8
0
  0
BLOCK
 67
     1
  8
0
  2
$PAPER_SPACE
 70
     0
 10
0.0
 20
0.0
 30
0.0
  3
$PAPER_SPACE
  1

  0
ENDBLK
  5
1D
 67
     1
  8
0
  0
BLOCK
  8
0
  2
_FILLED
 70
     0
 10
0.0
 20
0.0
 30
0.0
  3
_FILLED
  1

  0
SOLID
  5
75BB
  8
0
  6
BYBLOCK
 62
     0
 10
0.0
 20
0.0
 30
0.0
 11
-1.0
 21
0.1666666667
 31
0.0
 12
-1.0
 22
-0.1666666667
 32
0.0
 13
-1.0
 23
-0.1666666667
 33
0.0
  0
ENDBLK
  5
75BC
  8
0
  6
BYBLOCK
 62
     0
  0
ENDSEC
  0
SECTION
  2
ENTITIES
  0
ATTDEF
  5
7994
  8
DEFPOINTS
 10
159.3753033849579879
 20
-143.8710923077121038
 30
0.0
 40
0.001
  1
K-99206T
  3

  2
MODELNUMBER
 70
     0
1001
ACDBATTR
1070
     0
1070
     1
  0
ATTDEF
  5
7995
  8
DEFPOINTS
 10
159.3753033849579879
 20
-143.8727589743787121
 30
0.0
 40
0.001
  1
LOVEE
  3

  2
TRADENAME
 70
     0
1001
ACDBATTR
1070
     0
1070
     1
  0
ATTDEF
  5
7996
  8
DEFPOINTS
 10
159.3753033849579879
 20
-143.8744256410454057
 30
0.0
 40
0.001
  1
BATH
  3

  2
PRODUCT
 70
     0
1001
ACDBATTR
1070
     0
1070
     1
  0
LINE
  5
7D3F
  8
0
 10
144.9837391583014892
 20
-122.1274208353289055
 30
0.0
 11
173.7666909592016964
 21
-122.1274208353289055
 31
0.0
  0
LINE
  5
7D40
  8
0
 10
144.6114354353260012
 20
-123.4964154553530022
 30
0.0
 11
174.1389946822770014
 21
-123.4964154553625946
 31
0.0
  0
LINE
  5
7D41
  8
0
 10
144.7689158462015087
 20
-124.0869655404289063
 30
0.0
 11
173.9815142714014939
 21
-124.0869655404289063
 31
0.0
  0
LINE
  5
7D42
  8
0
 10
144.7689052778069936
 20
-143.5751545188300042
 30
0.0
 11
173.9815142668755925
 21
-143.5751545184668032
 31
0.0
  0
ARC
  5
7D43
  8
0
 10
173.7666909592014974
 20
-122.4030113865290019
 30
0.0
 40
0.2755905512000094
 50
5.0000000033262788
 51
90.0
  0
LINE
  5
7D44
  8
0
 10
174.04123280514969
 20
-122.3789920873288963
 30
0.0
 11
174.1389946822770014
 21
-123.4964154553625946
 31
0.0
  0
LINE
  5
7D45
  8
0
 10
173.705923720201497
 20
-123.4964143593289947
 30
0.0
 11
173.705923720201497
 21
-124.0082253829288987
 31
0.0
  0
ARC
  5
7D46
  8
0
 10
173.7846638777014903
 20
-124.0082253829288987
 30
0.0
 40
0.0787401575000075
 50
179.9999999999984084
 51
269.9999999999885745
  0
ARC
  5
7D47
  8
0
 10
173.9815142714014087
 20
-124.165705697928999
 30
0.0
 40
0.0787401575000182
 50
0.000000000014656
 51
89.9999999999788258
  0
LINE
  5
7D48
  8
0
 10
174.0602544289014872
 20
-124.1657056979288996
 30
0.0
 11
174.0602544289062905
 21
-143.4964143593290089
 31
0.0
  0
ARC
  5
7D49
  8
0
 10
173.9815142686103115
 20
-143.4964143581707958
 30
0.0
 40
0.0787401602960127
 50
269.9999987377506727
 51
359.9999991572769886
  0
ARC
  5
7D4A
  8
0
 10
144.9837391584015052
 20
-122.4030113865290019
 30
0.0
 40
0.2755905512000094
 50
90.0
 51
174.9999999966736937
  0
LINE
  5
7D4B
  8
0
 10
144.7091973124531989
 20
-122.3789920873288963
 30
0.0
 11
144.6114354353260012
 21
-123.4964154553530022
 31
0.0
  0
LINE
  5
7D4C
  8
0
 10
145.0445063974015056
 20
-123.4964143593289947
 30
0.0
 11
145.0445063974015056
 21
-124.0082253829288987
 31
0.0
  0
ARC
  5
7D4D
  8
0
 10
144.9657662399015123
 20
-124.0082253829288987
 30
0.0
 40
0.0787401575000075
 50
270.0000000000097771
 51
0.0000000000016284
  0
ARC
  5
7D4E
  8
0
 10
144.7689158462015087
 20
-124.165705697928999
 30
0.0
 40
0.0787401575000182
 50
90.0000000000211458
 51
179.999999999985306
  0
LINE
  5
7D4F
  8
0
 10
144.6901756887014869
 20
-124.1657056979288996
 30
0.0
 11
144.6901756886967121
 21
-143.4964143593290089
 31
0.0
  0
ARC
  5
7D50
  8
0
 10
144.7689158508244986
 20
-143.496414357411993
 30
0.0
 40
0.0787401621278576
 50
180.0000013948551043
 51
269.9923064765886807
  0
LINE
  5
7D51
  8
0
 10
145.772852854101501
 20
-143.7720049105288922
 30
0.0
 11
145.772852854101501
 21
-143.5751545188543901
 31
0.0
  0
LINE
  5
7D52
  8
0
 10
145.772852854101501
 20
-143.7720049105288922
 30
0.0
 11
146.9933252950015117
 21
-143.7720049105288922
 31
0.0
  0
LINE
  5
7D53
  8
0
 10
146.9933252950015117
 20
-143.7720049105288922
 30
0.0
 11
146.9933252950015117
 21
-143.5751545188840907
 31
0.0
  0
LINE
  5
7D54
  8
0
 10
171.7571048226014909
 20
-143.5751545194858068
 30
0.0
 11
171.7571048226014909
 21
-143.7720049105288922
 31
0.0
  0
LINE
  5
7D55
  8
0
 10
171.7571048226014909
 20
-143.7720049105288922
 30
0.0
 11
172.9775772635015016
 21
-143.7720049105288922
 31
0.0
  0
LINE
  5
7D56
  8
0
 10
172.9775772635015016
 20
-143.7720049105288922
 30
0.0
 11
172.9775772635015016
 21
-143.5751545195155074
 31
0.0
  0
LINE
  5
7D57
  8
0
 10
172.3673410430515105
 20
-143.7720049105288922
 30
0.0
 11
172.3673410430515105
 21
-143.5751545195006997
 31
0.0
  0
LINE
  5
7D58
  8
0
 10
146.3830890745014983
 20
-143.7720049105288922
 30
0.0
 11
146.3830890745014983
 21
-143.5751545188693115
 31
0.0
  0
LINE
  5
7D5A
  8
0
 10
150.095687499701512
 20
-143.7448845704545874
 30
0.0
 11
150.0956874997924899
 21
-143.8470432795591023
 31
0.0
  0
LINE
  5
7D5B
  8
0
 10
150.0956874997924899
 20
-143.8470432795591023
 30
0.0
 11
150.2025535557538092
 21
-143.8826798460546001
 31
0.0
  0
LINE
  5
7D5C
  8
0
 10
150.2025535557538092
 20
-143.8826798460546001
 30
0.0
 11
150.9899551305537955
 21
-143.8826798460546001
 31
0.0
  0
LINE
  5
7D5D
  8
0
 10
150.9899551305537955
 20
-143.8826798460546001
 30
0.0
 11
151.095687499701512
 21
-143.8470432795326133
 31
0.0
  0
LINE
  5
7D5E
  8
0
 10
151.095687499701512
 20
-143.8470432795326133
 30
0.0
 11
151.095687499701512
 21
-143.744528476928906
 31
0.0
  0
LINE
  5
7D5F
  8
0
 10
151.095687499701512
 20
-143.744528476928906
 30
0.0
 11
150.095687499701512
 21
-143.7448845704545874
 31
0.0
  0
LINE
  5
7D60
  8
0
 10
150.4092464691537998
 20
-143.7448845704545874
 30
0.0
 11
150.4092464691537998
 21
-143.6905891355557969
 31
0.0
  0
LINE
  5
7D61
  8
0
 10
150.4092464691537998
 20
-143.6905891355557969
 30
0.0
 11
150.4099582985537893
 21
-143.6897700765545949
 31
0.0
  0
LINE
  5
7D62
  8
0
 10
150.4099582985537893
 20
-143.6897700765545949
 30
0.0
 11
150.595687499701512
 21
-143.6758538195763037
 31
0.0
  0
LINE
  5
7D63
  8
0
 10
150.7832622171538048
 20
-143.6610615764548129
 30
0.0
 11
150.7832622171538048
 21
-143.683905993654605
 31
0.0
  0
LINE
  5
7D64
  8
0
 10
150.7832622171538048
 20
-143.683905993654605
 30
0.0
 11
150.7814968454536881
 21
-143.6859454777545864
 31
0.0
  0
LINE
  5
7D65
  8
0
 10
150.7814968454536881
 20
-143.6859454777545864
 30
0.0
 11
150.7653061194536974
 21
-143.6953860011545885
 31
0.0
  0
LINE
  5
7D66
  8
0
 10
150.7653061194536974
 20
-143.6953860011545885
 30
0.0
 11
150.6591904126537997
 21
-143.705514491704605
 31
0.0
  0
LINE
  5
7D67
  8
0
 10
150.6591904126537997
 20
-143.7089207120673962
 30
0.0
 11
150.6591904126537997
 21
-143.7021049428545894
 31
0.0
  0
LINE
  5
7D68
  8
0
 10
150.6591904126537997
 20
-143.7089207120673962
 30
0.0
 11
150.7832622171538048
 21
-143.7040476467552992
 31
0.0
  0
LINE
  5
7D69
  8
0
 10
150.7832622171538048
 20
-143.6905891355546885
 30
0.0
 11
150.7832622171538048
 21
-143.7448845704545874
 31
0.0
  0
LINE
  5
7D6A
  8
0
 10
150.4536038300537939
 20
-143.6053968029546013
 30
0.0
 11
150.4020919357934076
 21
-143.5755106108397001
 31
0.0
  0
LINE
  5
7D6B
  8
0
 10
150.4281605880973984
 20
-143.5906351323141905
 30
0.0
 11
150.4099428369538032
 21
-143.6011970540546088
 31
0.0
  0
LINE
  5
7D6C
  8
0
 10
150.4092464691537998
 20
-143.6020064583545945
 30
0.0
 11
150.4092464691537998
 21
-143.6087818277545978
 31
0.0
  0
LINE
  5
7D6D
  8
0
 10
150.4092464691537998
 20
-143.6087818277545978
 30
0.0
 11
150.4099611942538104
 21
-143.6096037172546005
 31
0.0
  0
LINE
  5
7D6E
  8
0
 10
150.4099611942538104
 20
-143.6096037172546005
 30
0.0
 11
150.4281731481538031
 21
-143.6201598847545995
 31
0.0
  0
LINE
  5
7D6F
  8
0
 10
150.4554490270537883
 20
-143.6043245251545954
 30
0.0
 11
150.4101214498566037
 21
-143.6306262702113088
 31
0.0
  0
LINE
  5
7D70
  8
0
 10
150.4092464691537998
 20
-143.6315340174546122
 30
0.0
 11
150.4092464691537998
 21
-143.638309589154602
 31
0.0
  0
LINE
  5
7D71
  8
0
 10
150.4099524404537931
 20
-143.6391266630546113
 30
0.0
 11
150.4536032579538016
 21
-143.6644464997546038
 31
0.0
  0
LINE
  5
7D72
  8
0
 10
150.4536032579538016
 20
-143.6644464997546038
 30
0.0
 11
150.4099582985537893
 21
-143.6897700765545949
 31
0.0
  0
ARC
  5
7D73
  8
0
 10
150.4635232214405107
 20
-143.6793776145086099
 30
0.0
 40
0.0179260665896776
 50
99.3978902467742245
 51
123.599346593759293
  0
ARC
  5
7D74
  8
0
 10
151.0094913574303916
 20
-149.1021048462561964
 30
0.0
 40
5.468032218944523
 50
93.6187365225480335
 51
95.7612025553376469
  0
ARC
  5
7D75
  8
0
 10
150.618400313554389
 20
-142.8849945746395065
 30
0.0
 40
0.7613693419062729
 50
273.4612027376027754
 51
278.3582410846424864
  0
ARC
  5
7D76
  8
0
 10
150.7249228992772885
 20
-143.6100202096120029
 30
0.0
 40
0.0285602039745344
 50
278.3582410846390189
 51
299.3141953313850081
  0
ARC
  5
7D77
  8
0
 10
150.9876077210417122
 20
-151.8843053379949026
 30
0.0
 40
8.2700230980149119
 50
92.7162908838993616
 51
93.5668828479707457
  0
ARC
  5
7D78
  8
0
 10
150.5438079500152071
 20
-144.7646444135206991
 30
0.0
 40
1.1365435882491941
 50
93.5668828479707457
 51
95.5382960404684241
  0
ARC
  5
7D79
  8
0
 10
150.4592987286384016
 20
-143.8930889949220955
 30
0.0
 40
0.2609005923961758
 50
95.5382960404684241
 51
99.8113263390904564
  0
ARC
  5
7D7A
  8
0
 10
150.4184923684325952
 20
-143.657123485486494
 30
0.0
 40
0.0214326808163508
 50
99.8113263390888648
 51
112.6145982487919071
  0
ARC
  5
7D7B
  8
0
 10
150.4109864815544881
 20
-143.6391046918849099
 30
0.0
 40
0.0019130686100114
 50
112.6145982487991972
 51
155.4418585039479979
  0
ARC
  5
7D7C
  8
0
 10
150.4103018240896859
 20
-143.638111262321587
 30
0.0
 40
0.0010738284655894
 50
190.643138181906096
 51
251.0124547439862965
  0
ARC
  5
7D7D
  8
0
 10
150.4105191233227004
 20
-143.6318851611210903
 30
0.0
 40
0.0013202085093095
 50
107.530905684301004
 51
164.5750501051496997
  0
ARC
  5
7D7E
  8
0
 10
150.4302360104531999
 20
-143.6943017216231055
 30
0.0
 40
0.0667769320984331
 50
96.6639766774215587
 51
107.530905684301004
  0
ARC
  5
7D7F
  8
0
 10
150.5482498294138054
 20
-144.7043857375153948
 30
0.0
 40
1.083731690495737
 50
92.1610066668469017
 51
96.6639766774215587
  0
ARC
  5
7D80
  8
0
 10
150.3933839778418076
 20
-140.6003022452883897
 30
0.0
 40
3.0232726609936988
 50
272.1610066668453101
 51
273.8368374205049918
  0
ARC
  5
7D81
  8
0
 10
150.9528737329355863
 20
-149.1982008313453036
 30
0.0
 40
5.6188988207364563
 50
93.6388608419977828
 51
94.5190722399292014
  0
ARC
  5
7D82
  8
0
 10
150.5618468716056952
 20
-144.2507889992295134
 30
0.0
 40
0.6560583192856309
 50
94.5190722399292014
 51
98.8241208309997745
  0
ARC
  5
7D83
  8
0
 10
150.4642377063343872
 20
-143.6220231190957861
 30
0.0
 40
0.0197611550885318
 50
98.8241208310013803
 51
116.3838690668611946
  0
ARC
  5
7D84
  8
0
 10
150.4103994647246907
 20
-143.6022908635912927
 30
0.0
 40
0.0011875542619961
 50
112.5483937466464965
 51
166.1436643060660003
  0
ARC
  5
7D85
  8
0
 10
150.4635530629759899
 20
-143.8937500920013974
 30
0.0
 40
0.2981267857449023
 50
94.8123933025946144
 51
98.8562662243063528
  0
ARC
  5
7D86
  8
0
 10
150.4237086406211859
 20
-143.6380320666501973
 30
0.0
 40
0.0393232183770524
 50
98.8562662243063528
 51
110.4914794192647065
  0
ARC
  5
7D87
  8
0
 10
150.4108666984132867
 20
-143.6093922423359004
 30
0.0
 40
0.0017314008243805
 50
103.6328669834814065
 51
159.3563098796120983
  0
ARC
  5
7D88
  8
0
 10
150.44618718456951
 20
-143.7550240601291875
 30
0.0
 40
0.1515852065688528
 50
95.6612566322154834
 51
103.6328669834814065
  0
ARC
  5
7D89
  8
0
 10
150.5616441485124994
 20
-144.919722154540608
 30
0.0
 40
1.3219919570826779
 50
94.9020376257312677
 51
95.6612566322154834
  0
LINE
  5
7D8A
  8
0
 10
150.4281651688843908
 20
-143.6496910312872046
 30
0.0
 11
150.409951400996988
 21
-143.6602466378579948
 31
0.0
  0
ARC
  5
7D8B
  8
0
 10
150.4107792468425089
 20
-143.6616750912563987
 30
0.0
 40
0.0016510020760786
 50
120.0940064214725993
 51
158.1855818387356862
  0
LINE
  5
7D8C
  8
0
 10
150.4092464691537998
 20
-143.6610615764546139
 30
0.0
 11
150.4092464691537998
 21
-143.683905993652786
 31
0.0
  0
ARC
  5
7D8D
  8
0
 10
150.4113053072314869
 20
-143.6841501574706967
 30
0.0
 40
0.0020732655882636
 50
120.0367742038483954
 51
173.2367096718541859
  0
ARC
  5
7D8E
  8
0
 10
150.4422301263296049
 20
-143.7573102974153869
 30
0.0
 40
0.0814853135373559
 50
96.4260921311786348
 51
113.0945658494728008
  0
LINE
  5
7D8F
  8
0
 10
150.4137783768480006
 20
-143.6875535996144038
 30
0.0
 11
150.4110118408538028
 21
-143.6859454777545864
 31
0.0
  0
ARC
  5
7D90
  8
0
 10
150.4132837096925073
 20
-143.6816598074686908
 30
0.0
 40
0.004850603861341
 50
219.7581418699479912
 51
242.0715718974279014
  0
ARC
  5
7D91
  8
0
 10
150.4105798248941142
 20
-143.6839092547980954
 30
0.0
 40
0.0013333597284691
 50
179.8598653159166929
 51
219.7581418699271012
  0
ARC
  5
7D92
  8
0
 10
150.3684254054518874
 20
-139.8607708898373971
 30
0.0
 40
3.7368111622172209
 50
273.4954602849999787
 51
275.1898193800039962
  0
ARC
  5
7D93
  8
0
 10
150.6933176889930905
 20
-143.4377776755003993
 30
0.0
 40
0.1450800279890438
 50
275.1898193800039962
 51
288.3122465884966914
  0
LINE
  5
7D94
  8
0
 10
150.7389011638250906
 20
-143.5755106103545984
 30
0.0
 11
150.7825801188124046
 21
-143.6012031705238883
 31
0.0
  0
ARC
  5
7D95
  8
0
 10
150.7817677832273944
 20
-143.6025841916919035
 30
0.0
 40
0.0016022198879917
 50
21.1360538462637706
 51
59.5353738487702628
  0
ARC
  5
7D96
  8
0
 10
150.7827072228336931
 20
-143.6019895174410124
 30
0.0
 40
0.0005552523128336
 50
326.8583191176554124
 51
358.2517419987358949
  0
ARC
  5
7D97
  8
0
 10
150.7766972632821023
 20
-143.5928308424466024
 30
0.0
 40
0.0114655163769198
 50
277.5675146478133115
 51
304.3833202904223185
  0
ARC
  5
7D98
  8
0
 10
150.4960727505458067
 20
-140.846030341308591
 30
0.0
 40
2.7725584577641702
 50
272.0590128049407213
 51
275.8405054457500114
  0
ARC
  5
7D99
  8
0
 10
150.4223630286504942
 20
-139.6195513722499868
 30
0.0
 40
4.0077723711337718
 50
272.4786484776710722
 51
275.008750344052828
  0
ARC
  5
7D9A
  8
0
 10
150.7690067808950971
 20
-143.5747503600981929
 30
0.0
 40
0.0374120695433665
 50
275.008750344052828
 51
290.9999334347418767
  0
LINE
  5
7D9B
  8
0
 10
150.783262216687092
 20
-143.6020064571472972
 30
0.0
 11
150.7832622171538048
 21
-143.6087818277545978
 31
0.0
  0
ARC
  5
7D9C
  8
0
 10
150.7819509583598006
 20
-143.6083896052402906
 30
0.0
 40
0.0013686628969048
 50
289.7755583547634046
 51
343.3470728806033776
  0
LINE
  5
7D9D
  8
0
 10
150.782414027233898
 20
-143.6096775514128012
 30
0.0
 11
150.7389059322026128
 21
-143.63492322230681
 31
0.0
  0
LINE
  5
7D9E
  8
0
 10
150.7643422197311054
 20
-143.6201637587346056
 30
0.0
 11
150.7825613975537919
 21
-143.6307224998546133
 31
0.0
  0
ARC
  5
7D9F
  8
0
 10
150.7817395421851927
 20
-143.632140616743186
 30
0.0
 40
0.0016390551414346
 50
21.7212195146263589
 51
59.90599528431175
  0
LINE
  5
7DA0
  8
0
 10
150.7832622171538048
 20
-143.6315340174548112
 30
0.0
 11
150.7832622171538048
 21
-143.638309589154602
 31
0.0
  0
ARC
  5
7DA1
  8
0
 10
150.782664896438007
 20
-143.638309589154602
 30
0.0
 40
0.0005973207158112
 50
305.388320678923094
 51
0.0000000000081422
  0
LINE
  5
7DA2
  8
0
 10
150.783010813825797
 20
-143.638796552395803
 30
0.0
 11
150.7643419466355112
 21
-143.6496793915148089
 31
0.0
  0
ARC
  5
7DA3
  8
0
 10
150.7425898552961883
 20
-143.5295749106988126
 30
0.0
 40
0.1166064944963368
 50
277.0054882902186932
 51
289.9089274124327744
  0
LINE
  5
7DA4
  8
0
 10
150.7389059322026981
 20
-143.63492322230681
 30
0.0
 11
150.7825589166164946
 21
-143.6602475838000998
 31
0.0
  0
ARC
  5
7DA5
  8
0
 10
150.7812935814125126
 20
-143.6624287111683884
 30
0.0
 40
0.0025215847745785
 50
44.4429727185547208
 51
59.8807372014824821
  0
ARC
  5
7DA6
  8
0
 10
150.7826732499501929
 20
-143.6610756113329046
 30
0.0
 40
0.0005891344029208
 50
1.3650796321370109
 51
44.4429727185662387
  0
ARC
  5
7DA7
  8
0
 10
150.7828132100954974
 20
-143.661072276132586
 30
0.0
 40
0.0004491345249881
 50
326.6674209585451081
 51
358.6349203691839875
  0
ARC
  5
7DA8
  8
0
 10
150.6822790530191014
 20
-143.1204689461179953
 30
0.0
 40
0.5501832148466647
 50
271.6078041079751983
 51
280.5684781657574831
  0
ARC
  5
7DA9
  8
0
 10
150.0358221225666
 20
-132.1699925020683963
 30
0.0
 40
11.5194745495720099
 50
272.7857664130698936
 51
273.2939543316645086
  0
ARC
  5
7DAA
  8
0
 10
150.5329978953323007
 20
-142.0289262653570006
 30
0.0
 40
1.677930701268771
 50
274.3131292400015013
 51
277.7059289715886052
  0
ARC
  5
7DAB
  8
0
 10
150.7400262043840087
 20
-143.5589482290457966
 30
0.0
 40
0.1339656983886312
 50
277.7059289715886052
 51
287.3727603077103936
  0
LINE
  5
7DAC
  8
0
 10
150.7787326138725916
 20
-143.68755725186071
 30
0.0
 11
150.7818866324880105
 21
-143.6893853599686111
 31
0.0
  0
ARC
  5
7DAD
  8
0
 10
150.7758403745623923
 20
-143.6998169148465934
 30
0.0
 40
0.0120571378061314
 50
53.0612417788041881
 51
59.9028899095088789
  0
ARC
  5
7DAE
  8
0
 10
150.7828168534217923
 20
-143.6905381964427022
 30
0.0
 40
0.0004482673831933
 50
353.4750679104486153
 51
53.0612417787100625
  0
ARC
  5
7DAF
  8
0
 10
150.779586028733803
 20
-143.6875799219384078
 30
0.0
 40
0.0047507607692997
 50
277.756062805166323
 51
320.6973097427887751
  0
LINE
  5
7DB0
  8
0
 10
150.7802271713536868
 20
-143.6922872209545972
 30
0.0
 11
150.7691926140045098
 21
-143.6931198555382139
 31
0.0
  0
ARC
  5
7DB1
  8
0
 10
150.2206875019315078
 20
-143.5067618600608057
 30
0.0
 40
0.3625140602483232
 50
249.8295527789962023
 51
290.1704546132183964
  0
ARC
  5
7DB2
  8
0
 10
150.595687499701512
 20
-142.452587382952089
 30
0.0
 40
1.4166888322768849
 50
259.8359120982980812
 51
280.1640879017003272
  0
ARC
  5
7DB3
  8
0
 10
150.9706874996961119
 20
-143.5067618540049921
 30
0.0
 40
0.3625140666998829
 50
249.8295453867800973
 51
290.1704545961400754
  0
LINE
  5
7DB4
  8
0
 10
150.345687499701512
 20
-143.744528476928906
 30
0.0
 11
150.345687499701512
 21
-143.84704327952889
 31
0.0
  0
LINE
  5
7DB5
  8
0
 10
150.845687499708788
 20
-143.8470432795313911
 30
0.0
 11
150.845687499701512
 21
-143.7446175003103974
 31
0.0
  0
LINE
  5
7DB6
  8
0
 10
167.654742617801503
 20
-143.744528476928906
 30
0.0
 11
167.6547426178925093
 21
-143.8466871860335061
 31
0.0
  0
LINE
  5
7DB7
  8
0
 10
167.6547426178925093
 20
-143.8466871860335061
 30
0.0
 11
167.7616086738538002
 21
-143.882323752529004
 31
0.0
  0
LINE
  5
7DB8
  8
0
 10
167.7616086738538002
 20
-143.882323752529004
 30
0.0
 11
168.5490102486537864
 21
-143.882323752529004
 31
0.0
  0
LINE
  5
7DB9
  8
0
 10
168.5490102486537864
 20
-143.882323752529004
 30
0.0
 11
168.654742617801503
 21
-143.8466871860069887
 31
0.0
  0
LINE
  5
7DBA
  8
0
 10
168.654742617801503
 20
-143.8466871860069887
 30
0.0
 11
168.654742617801503
 21
-143.7441723834033098
 31
0.0
  0
LINE
  5
7DBB
  8
0
 10
168.654742617801503
 20
-143.7441723834033098
 30
0.0
 11
167.654742617801503
 21
-143.744528476928906
 31
0.0
  0
LINE
  5
7DBC
  8
0
 10
167.9683015872537908
 20
-143.744528476928906
 30
0.0
 11
167.9683015872537908
 21
-143.6902330420302007
 31
0.0
  0
LINE
  5
7DBD
  8
0
 10
167.9683015872537908
 20
-143.6902330420302007
 30
0.0
 11
167.9690134166538087
 21
-143.6894139830289134
 31
0.0
  0
LINE
  5
7DBE
  8
0
 10
167.9690134166538087
 20
-143.6894139830289134
 30
0.0
 11
168.154742617801503
 21
-143.6754977260505939
 31
0.0
  0
LINE
  5
7DBF
  8
0
 10
168.3423173352537106
 20
-143.6607054829291883
 30
0.0
 11
168.3423173352537106
 21
-143.6835499001290088
 31
0.0
  0
LINE
  5
7DC0
  8
0
 10
168.3423173352537106
 20
-143.6835499001290088
 30
0.0
 11
168.3405519635537075
 21
-143.6855893842289049
 31
0.0
  0
LINE
  5
7DC1
  8
0
 10
168.3405519635537075
 20
-143.6855893842289049
 30
0.0
 11
168.3243612375538021
 21
-143.695029907628907
 31
0.0
  0
LINE
  5
7DC2
  8
0
 10
168.3243612375538021
 20
-143.695029907628907
 30
0.0
 11
168.2182455307537907
 21
-143.7051583981790088
 31
0.0
  0
LINE
  5
7DC3
  8
0
 10
168.2182455307537907
 20
-143.7085646185418
 30
0.0
 11
168.2182455307537907
 21
-143.7017488493289079
 31
0.0
  0
LINE
  5
7DC4
  8
0
 10
168.2182455307537907
 20
-143.7085646185418
 30
0.0
 11
168.3423173352537106
 21
-143.703691553229703
 31
0.0
  0
LINE
  5
7DC5
  8
0
 10
168.3423173352537106
 20
-143.690233042029007
 30
0.0
 11
168.3423173352537106
 21
-143.744528476928906
 31
0.0
  0
LINE
  5
7DC6
  8
0
 10
168.0126589481536996
 20
-143.6050407094290051
 30
0.0
 11
167.9611470538933986
 21
-143.5751545173141039
 31
0.0
  0
LINE
  5
7DC7
  8
0
 10
167.9872157061973041
 20
-143.5902790387885091
 30
0.0
 11
167.9689979550537942
 21
-143.6008409605290126
 31
0.0
  0
LINE
  5
7DC8
  8
0
 10
167.9683015872537908
 20
-143.6016503648289131
 30
0.0
 11
167.9683015872537908
 21
-143.6084257342290016
 31
0.0
  0
LINE
  5
7DC9
  8
0
 10
167.9683015872537908
 20
-143.6084257342290016
 30
0.0
 11
167.9690163123538014
 21
-143.6092476237288906
 31
0.0
  0
LINE
  5
7DCA
  8
0
 10
167.9690163123538014
 20
-143.6092476237288906
 30
0.0
 11
167.9872282662537941
 21
-143.6198037912290033
 31
0.0
  0
LINE
  5
7DCB
  8
0
 10
168.0145041451538077
 20
-143.603968431628914
 30
0.0
 11
167.9691765679565947
 21
-143.6302701766857126
 31
0.0
  0
LINE
  5
7DCC
  8
0
 10
167.9683015872537908
 20
-143.6311779239289024
 30
0.0
 11
167.9683015872537908
 21
-143.6379534956290058
 31
0.0
  0
LINE
  5
7DCD
  8
0
 10
167.9690075585538125
 20
-143.6387705695289014
 30
0.0
 11
168.0126583760537073
 21
-143.6640904062290076
 31
0.0
  0
LINE
  5
7DCE
  8
0
 10
168.0126583760537073
 20
-143.6640904062290076
 30
0.0
 11
167.9690134166538087
 21
-143.6894139830289134
 31
0.0
  0
ARC
  5
7DCF
  8
0
 10
168.0225783395405017
 20
-143.6790215209830137
 30
0.0
 40
0.0179260665896776
 50
99.3978902467742245
 51
123.599346593759293
  0
ARC
  5
7DD0
  8
0
 10
168.568546475530411
 20
-149.1017487527306002
 30
0.0
 40
5.468032218944523
 50
93.6187365225480335
 51
95.7612025553376469
  0
ARC
  5
7DD1
  8
0
 10
168.1774554316544084
 20
-142.8846384811139103
 30
0.0
 40
0.7613693419062729
 50
273.4612027376027754
 51
278.3582410846424864
  0
ARC
  5
7DD2
  8
0
 10
168.2839780173773931
 20
-143.609664116086293
 30
0.0
 40
0.0285602039745344
 50
278.3582410846390189
 51
299.3141953313850081
  0
ARC
  5
7DD3
  8
0
 10
168.5466628391417032
 20
-151.8839492444693064
 30
0.0
 40
8.2700230980149119
 50
92.7162908838993616
 51
93.5668828479707457
  0
ARC
  5
7DD4
  8
0
 10
168.1028630681151981
 20
-144.7642883199951029
 30
0.0
 40
1.1365435882491941
 50
93.5668828479707457
 51
95.5382960404684241
  0
ARC
  5
7DD5
  8
0
 10
168.0183538467385063
 20
-143.892732901396414
 30
0.0
 40
0.2609005923961758
 50
95.5382960404684241
 51
99.8113263390904564
  0
ARC
  5
7DD6
  8
0
 10
167.9775474865326998
 20
-143.6567673919608978
 30
0.0
 40
0.0214326808163508
 50
99.8113263390888648
 51
112.6145982487919071
  0
ARC
  5
7DD7
  8
0
 10
167.9700415996545075
 20
-143.6387485983592001
 30
0.0
 40
0.0019130686100114
 50
112.6145982487991972
 51
155.4418585039479979
  0
ARC
  5
7DD8
  8
0
 10
167.9693569421897053
 20
-143.6377551687959908
 30
0.0
 40
0.0010738284655894
 50
190.643138181906096
 51
251.0124547439862965
  0
ARC
  5
7DD9
  8
0
 10
167.9695742414226061
 20
-143.6315290675954088
 30
0.0
 40
0.0013202085093095
 50
107.530905684301004
 51
164.5750501051496997
  0
ARC
  5
7DDA
  8
0
 10
167.9892911285531909
 20
-143.6939456280973957
 30
0.0
 40
0.0667769320984331
 50
96.6639766774215587
 51
107.530905684301004
  0
ARC
  5
7DDB
  8
0
 10
168.1073049475137964
 20
-144.7040296439897986
 30
0.0
 40
1.083731690495737
 50
92.1610066668469017
 51
96.6639766774215587
  0
ARC
  5
7DDC
  8
0
 10
167.9524390959417133
 20
-140.5999461517627935
 30
0.0
 40
3.0232726609936988
 50
272.1610066668453101
 51
273.8368374205049918
  0
ARC
  5
7DDD
  8
0
 10
168.5119288510356057
 20
-149.1978447378197075
 30
0.0
 40
5.6188988207364563
 50
93.6388608419977828
 51
94.5190722399292014
  0
ARC
  5
7DDE
  8
0
 10
168.1209019897056862
 20
-144.2504329057038888
 30
0.0
 40
0.6560583192856309
 50
94.5190722399292014
 51
98.8241208309997745
  0
ARC
  5
7DDF
  8
0
 10
168.0232928244344066
 20
-143.6216670255701899
 30
0.0
 40
0.0197611550885318
 50
98.8241208310013803
 51
116.3838690668611946
  0
ARC
  5
7DE0
  8
0
 10
167.9694545828247101
 20
-143.6019347700656112
 30
0.0
 40
0.0011875542619961
 50
112.5483937466464965
 51
166.1436643060660003
  0
ARC
  5
7DE1
  8
0
 10
168.0226081810760093
 20
-143.8933939984758013
 30
0.0
 40
0.2981267857449023
 50
94.8123933025946144
 51
98.8562662243063528
  0
ARC
  5
7DE2
  8
0
 10
167.9827637587212052
 20
-143.6376759731246011
 30
0.0
 40
0.0393232183770524
 50
98.8562662243063528
 51
110.4914794192647065
  0
ARC
  5
7DE3
  8
0
 10
167.9699218165133061
 20
-143.6090361488103042
 30
0.0
 40
0.0017314008243805
 50
103.6328669834814065
 51
159.3563098796120983
  0
ARC
  5
7DE4
  8
0
 10
168.005242302669501
 20
-143.7546679666035914
 30
0.0
 40
0.1515852065688528
 50
95.6612566322154834
 51
103.6328669834814065
  0
ARC
  5
7DE5
  8
0
 10
168.1206992666124904
 20
-144.9193660610148982
 30
0.0
 40
1.3219919570826779
 50
94.9020376257312677
 51
95.6612566322154834
  0
LINE
  5
7DE6
  8
0
 10
167.9872202869844102
 20
-143.6493349377616084
 30
0.0
 11
167.9690065190970074
 21
-143.6598905443323986
 31
0.0
  0
ARC
  5
7DE7
  8
0
 10
167.9698343649424999
 20
-143.6613189977308025
 30
0.0
 40
0.0016510020760786
 50
120.0940064214725993
 51
158.1855818387356862
  0
LINE
  5
7DE8
  8
0
 10
167.9683015872537908
 20
-143.6607054829289041
 30
0.0
 11
167.9683015872537908
 21
-143.6835499001271046
 31
0.0
  0
ARC
  5
7DE9
  8
0
 10
167.9703604253315063
 20
-143.6837940639449869
 30
0.0
 40
0.0020732655882636
 50
120.0367742038483954
 51
173.2367096718541859
  0
ARC
  5
7DEA
  8
0
 10
168.0012852444295959
 20
-143.7569542038897907
 30
0.0
 40
0.0814853135373559
 50
96.4260921311786348
 51
113.0945658494728008
  0
LINE
  5
7DEB
  8
0
 10
167.9728334949479915
 20
-143.6871975060886939
 30
0.0
 11
167.9700669589537938
 21
-143.6855893842289049
 31
0.0
  0
ARC
  5
7DEC
  8
0
 10
167.9723388277924983
 20
-143.6813037139430946
 30
0.0
 40
0.004850603861341
 50
219.7581418699479912
 51
242.0715718974279014
  0
ARC
  5
7DED
  8
0
 10
167.9696349429941051
 20
-143.6835531612724139
 30
0.0
 40
0.0013333597284691
 50
179.8598653159166929
 51
219.7581418699271012
  0
ARC
  5
7DEE
  8
0
 10
167.9274805235519068
 20
-139.8604147963116873
 30
0.0
 40
3.7368111622172209
 50
273.4954602849999787
 51
275.1898193800039962
  0
ARC
  5
7DEF
  8
0
 10
168.2523728070931099
 20
-143.4374215819748031
 30
0.0
 40
0.1450800279890438
 50
275.1898193800039962
 51
288.3122465884966914
  0
LINE
  5
7DF0
  8
0
 10
168.29795628192511
 20
-143.5751545168290022
 30
0.0
 11
168.3416352369123956
 21
-143.6008470769982068
 31
0.0
  0
ARC
  5
7DF1
  8
0
 10
168.3408229013274138
 20
-143.6022280981663073
 30
0.0
 40
0.0016022198879917
 50
21.1360538462637706
 51
59.5353738487702628
  0
ARC
  5
7DF2
  8
0
 10
168.3417623409337125
 20
-143.6016334239153878
 30
0.0
 40
0.0005552523128336
 50
326.8583191176554124
 51
358.2517419987358949
  0
ARC
  5
7DF3
  8
0
 10
168.3357523813820933
 20
-143.5924747489210063
 30
0.0
 40
0.0114655163769198
 50
277.5675146478133115
 51
304.3833202904223185
  0
ARC
  5
7DF4
  8
0
 10
168.0551278686457977
 20
-140.8456742477829948
 30
0.0
 40
2.7725584577641702
 50
272.0590128049407213
 51
275.8405054457500114
  0
ARC
  5
7DF5
  8
0
 10
167.9814181467505136
 20
-139.6191952787243906
 30
0.0
 40
4.0077723711337718
 50
272.4786484776710722
 51
275.008750344052828
  0
ARC
  5
7DF6
  8
0
 10
168.3280618989950881
 20
-143.5743942665725115
 30
0.0
 40
0.0374120695433665
 50
275.008750344052828
 51
290.9999334347418767
  0
LINE
  5
7DF7
  8
0
 10
168.3423173347871113
 20
-143.601650363621701
 30
0.0
 11
168.3423173352537106
 21
-143.6084257342290016
 31
0.0
  0
ARC
  5
7DF8
  8
0
 10
168.3410060764597915
 20
-143.6080335117146092
 30
0.0
 40
0.0013686628969048
 50
289.7755583547634046
 51
343.3470728806033776
  0
LINE
  5
7DF9
  8
0
 10
168.3414691453338889
 20
-143.609321457887205
 30
0.0
 11
168.2979610503026038
 21
-143.6345671287812138
 31
0.0
  0
LINE
  5
7DFA
  8
0
 10
168.3233973378312101
 20
-143.6198076652088957
 30
0.0
 11
168.3416165156538113
 21
-143.6303664063289034
 31
0.0
  0
ARC
  5
7DFB
  8
0
 10
168.3407946602852121
 20
-143.6317845232175898
 30
0.0
 40
0.0016390551414346
 50
21.7212195146263589
 51
59.9059952843131427
  0
LINE
  5
7DFC
  8
0
 10
168.3423173352537106
 20
-143.6311779239291866
 30
0.0
 11
168.3423173352537106
 21
-143.6379534956290058
 31
0.0
  0
ARC
  5
7DFD
  8
0
 10
168.3417200145379979
 20
-143.6379534956290058
 30
0.0
 40
0.0005973207158112
 50
305.388320678923094
 51
0.0000000000081422
  0
LINE
  5
7DFE
  8
0
 10
168.3420659319257879
 20
-143.6384404588702068
 30
0.0
 11
168.3233970647355022
 21
-143.6493232979892127
 31
0.0
  0
ARC
  5
7DFF
  8
0
 10
168.3016449733962077
 20
-143.529218817173188
 30
0.0
 40
0.1166064944963368
 50
277.0054882902186932
 51
289.9089274124327744
  0
LINE
  5
7E00
  8
0
 10
168.297961050302689
 20
-143.6345671287811001
 30
0.0
 11
168.341614034716514
 21
-143.6598914902745037
 31
0.0
  0
ARC
  5
7E01
  8
0
 10
168.3403486995125036
 20
-143.6620726176427922
 30
0.0
 40
0.0025215847745785
 50
44.4429727185547208
 51
59.8807372014824821
  0
ARC
  5
7E02
  8
0
 10
168.3417283680502123
 20
-143.6607195178073084
 30
0.0
 40
0.0005891344029208
 50
1.3650796321370109
 51
44.4429727185662387
  0
ARC
  5
7E03
  8
0
 10
168.3418683281954031
 20
-143.6607161826069046
 30
0.0
 40
0.0004491345249881
 50
326.6674209585451081
 51
358.6349203691839875
  0
ARC
  5
7E04
  8
0
 10
168.2413341711190924
 20
-143.1201128525923991
 30
0.0
 40
0.5501832148466647
 50
271.6078041079751983
 51
280.5684781657574831
  0
ARC
  5
7E05
  8
0
 10
167.594877240666591
 20
-132.1696364085428002
 30
0.0
 40
11.5194745495720099
 50
272.7857664130698936
 51
273.2939543316645086
  0
ARC
  5
7E06
  8
0
 10
168.0920530134322917
 20
-142.0285701718314044
 30
0.0
 40
1.677930701268771
 50
274.3131292400015013
 51
277.7059289715886052
  0
ARC
  5
7E07
  8
0
 10
168.299081322483886
 20
-143.5585921355200867
 30
0.0
 40
0.1339656983886312
 50
277.7059289715886052
 51
287.3727603077103936
  0
LINE
  5
7E08
  8
0
 10
168.337787731972611
 20
-143.6872011583350002
 30
0.0
 11
168.3409417505880015
 21
-143.6890292664429012
 31
0.0
  0
ARC
  5
7E09
  8
0
 10
168.3348954926624117
 20
-143.6994608213209972
 30
0.0
 40
0.0120571378061314
 50
53.0612417788041881
 51
59.9028899095088789
  0
ARC
  5
7E0A
  8
0
 10
168.3418719715218117
 20
-143.6901821029169923
 30
0.0
 40
0.0004482673831933
 50
353.4750679104486153
 51
53.0612417787100625
  0
ARC
  5
7E0B
  8
0
 10
168.338641146833794
 20
-143.6872238284126979
 30
0.0
 40
0.0047507607692997
 50
277.756062805166323
 51
320.6973097427887751
  0
LINE
  5
7E0C
  8
0
 10
168.3392822894537062
 20
-143.6919311274288873
 30
0.0
 11
168.3282477321045008
 21
-143.6927637620125893
 31
0.0
  0
ARC
  5
7E0D
  8
0
 10
167.7797426200314987
 20
-143.5064057665352095
 30
0.0
 40
0.3625140602483232
 50
249.8295527789962023
 51
290.1704546132183964
  0
ARC
  5
7E0E
  8
0
 10
168.154742617801503
 20
-142.4522312894264076
 30
0.0
 40
1.4166888322768849
 50
259.8359120982980812
 51
280.1640879017003272
  0
ARC
  5
7E0F
  8
0
 10
168.5297426177961029
 20
-143.5064057604793106
 30
0.0
 40
0.3625140666998829
 50
249.8295453867800973
 51
290.1704545961400754
  0
LINE
  5
7E10
  8
0
 10
167.904742617801503
 20
-143.7441723834033098
 30
0.0
 11
167.904742617801503
 21
-143.8466871860032938
 31
0.0
  0
LINE
  5
7E11
  8
0
 10
168.4047426178088074
 20
-143.8466871860057097
 30
0.0
 11
168.404742617801503
 21
-143.7442614067846876
 31
0.0
  0
ENDSEC
  0
EOF
