  0
SECTION
  2
HEADER
  9
$ACADVER
  1
AC1009
  9
$INSBASE
 10
4922.1822786807406374
 20
347.2396642186732834
 30
0.0
  9
$EXTMIN
 10
4914.7856247643630923
 20
325.0024831014869164
 30
-0.0000000000000058
  9
$EXTMAX
 10
4929.7656111659398448
 20
347.2498500453430097
 30
0.0000000000000104
  9
$LIMMIN
 10
0.0
 20
0.0
  9
$LIMMAX
 10
11.6929133858000007
 20
8.2677165353999982
  9
$ORTHOMODE
 70
     0
  9
$REGENMODE
 70
     1
  9
$FILLMODE
 70
     1
  9
$QTEXTMODE
 70
     0
  9
$MIRRTEXT
 70
     0
  9
$DRAGMODE
 70
     2
  9
$LTSCALE
 40
0.6431102362
  9
$OSMODE
 70
  4095
  9
$ATTMODE
 70
     1
  9
$TEXTSIZE
 40
0.2
  9
$TRACEWID
 40
0.05
  9
$TEXTSTYLE
  7
STANDARD
  9
$CLAYER
  8
0
  9
$CELTYPE
  6
BYLAYER
  9
$CECOLOR
 62
   256
  9
$DIMSCALE
 40
1.0
  9
$DIMASZ
 40
0.1875
  9
$DIMEXO
 40
0.0625
  9
$DIMDLI
 40
0.4443307087
  9
$DIMRND
 40
0.0
  9
$DIMDLE
 40
0.0
  9
$DIMEXE
 40
0.125
  9
$DIMTP
 40
0.01
  9
$DIMTM
 40
0.01
  9
$DIMTXT
 40
2.0
  9
$DIMCEN
 40
0.1052362205
  9
$DIMTSZ
 40
0.0
  9
$DIMTOL
 70
     1
  9
$DIMLIM
 70
     0
  9
$DIMTIH
 70
     1
  9
$DIMTOH
 70
     1
  9
$DIMSE1
 70
     0
  9
$DIMSE2
 70
     0
  9
$DIMTAD
 70
     0
  9
$DIMZIN
 70
     0
  9
$DIMBLK
  1

  9
$DIMASO
 70
     1
  9
$DIMSHO
 70
     1
  9
$DIMPOST
  1
\X
  9
$DIMAPOST
  1

  9
$DIMALT
 70
     1
  9
$DIMALTD
 70
     2
  9
$DIMALTF
 40
25.3999999999999986
  9
$DIMLFAC
 40
1.0
  9
$DIMTOFL
 70
     0
  9
$DIMTVP
 40
0.0
  9
$DIMTIX
 70
     0
  9
$DIMSOXD
 70
     0
  9
$DIMSAH
 70
     0
  9
$DIMBLK1
  1

  9
$DIMBLK2
  1

  9
$DIMSTYLE
  2
STANDARD
  9
$DIMCLRD
 70
     0
  9
$DIMCLRE
 70
     0
  9
$DIMCLRT
 70
     0
  9
$DIMTFAC
 40
1.0
  9
$DIMGAP
 40
0.09
  9
$LUNITS
 70
     2
  9
$LUPREC
 70
     4
  9
$SKETCHINC
 40
0.1
  9
$FILLETRAD
 40
0.0
  9
$AUNITS
 70
     0
  9
$AUPREC
 70
     0
  9
$MENU
  1
.
  9
$ELEVATION
 40
0.0
  9
$PELEVATION
 40
0.0
  9
$THICKNESS
 40
0.0
  9
$LIMCHECK
 70
     0
  9
$BLIPMODE
 70
     0
  9
$CHAMFERA
 40
0.0
  9
$CHAMFERB
 40
0.0
  9
$SKPOLY
 70
     0
  9
$TDCREATE
 40
2458060.468368056230247
  9
$TDUPDATE
 40
2459430.5901041668839753
  9
$TDINDWG
 40
0.5848565972000001
  9
$TDUSRTIMER
 40
0.5848565972000001
  9
$USRTIMER
 70
     1
  9
$ANGBASE
 50
0.0
  9
$ANGDIR
 70
     0
  9
$PDMODE
 70
     0
  9
$PDSIZE
 40
0.3125
  9
$PLINEWID
 40
0.0
  9
$COORDS
 70
     1
  9
$SPLFRAME
 70
     0
  9
$SPLINETYPE
 70
     6
  9
$SPLINESEGS
 70
     8
  9
$ATTDIA
 70
     1
  9
$ATTREQ
 70
     1
  9
$HANDLING
 70
     1
  9
$HANDSEED
  5
21F0B
  9
$SURFTAB1
 70
     6
  9
$SURFTAB2
 70
     6
  9
$SURFTYPE
 70
     6
  9
$SURFU
 70
     6
  9
$SURFV
 70
     6
  9
$UCSNAME
  2

  9
$UCSORG
 10
0.0
 20
0.0
 30
0.0
  9
$UCSXDIR
 10
1.0
 20
0.0
 30
0.0
  9
$UCSYDIR
 10
0.0
 20
1.0
 30
0.0
  9
$PUCSNAME
  2

  9
$PUCSORG
 10
0.0
 20
0.0
 30
0.0
  9
$PUCSXDIR
 10
1.0
 20
0.0
 30
0.0
  9
$PUCSYDIR
 10
0.0
 20
1.0
 30
0.0
  9
$USERI1
 70
     0
  9
$USERI2
 70
     0
  9
$USERI3
 70
     0
  9
$USERI4
 70
     0
  9
$USERI5
 70
     0
  9
$USERR1
 40
0.0
  9
$USERR2
 40
0.0
  9
$USERR3
 40
0.0
  9
$USERR4
 40
0.0
  9
$USERR5
 40
0.0
  9
$WORLDVIEW
 70
     1
  9
$SHADEDGE
 70
     3
  9
$SHADEDIF
 70
    70
  9
$TILEMODE
 70
     1
  9
$MAXACTVP
 70
    64
  9
$PLIMCHECK
 70
     0
  9
$PEXTMIN
 10
1.0000000000000000E+20
 20
1.0000000000000000E+20
 30
1.0000000000000000E+20
  9
$PEXTMAX
 10
-1.0000000000000000E+20
 20
-1.0000000000000000E+20
 30
-1.0000000000000000E+20
  9
$PLIMMIN
 10
0.0
 20
0.0
  9
$PLIMMAX
 10
12.0
 20
9.0
  9
$UNITMODE
 70
     0
  9
$VISRETAIN
 70
     1
  9
$PLINEGEN
 70
     0
  9
$PSLTSCALE
 70
     1
  0
ENDSEC
  0
SECTION
  2
TABLES
  0
TABLE
  2
VPORT
 70
     1
  0
VPORT
  2
*ACTIVE
 70
     0
 10
0.0
 20
0.0
 11
1.0
 21
1.0
 12
1010.9102615198389685
 22
203.5465614708759006
 13
0.0
 23
0.0
 14
1.0
 24
1.0
 15
0.0
 25
0.0
 16
0.0
 26
0.0
 36
60.4960186965801583
 17
3911.3653564453120453
 27
132.5796051025390057
 37
0.0
 40
22.4237001032526599
 41
2.0410052910052912
 42
50.0
 43
0.0
 44
0.0
 50
0.0
 51
0.0
 71
     0
 72
   100
 73
     1
 74
     1
 75
     0
 76
     0
 77
     0
 78
     0
  0
ENDTAB
  0
TABLE
  2
LTYPE
 70
     2
  0
LTYPE
  2
CONTINUOUS
 70
     0
  3
Solid line
 72
    65
 73
     0
 40
0.0
  0
LTYPE
  2
PHANTOM2
 70
     0
  3
___ _ _ ___ _ _ ___ _ _ ___ _ _
 72
    65
 73
     6
 40
1.25
 49
0.625
 49
-0.125
 49
0.125
 49
-0.125
 49
0.125
 49
-0.125
  0
ENDTAB
  0
TABLE
  2
LAYER
 70
     2
  0
LAYER
  2
0
 70
     0
 62
   255
  6
CONTINUOUS
  0
LAYER
  2
DEFPOINTS
 70
     0
 62
     7
  6
CONTINUOUS
  0
ENDTAB
  0
TABLE
  2
STYLE
 70
     1
  0
STYLE
  2
STANDARD
 70
     0
 40
0.0
 41
0.8
 50
0.0
 71
     0
 42
0.2
  3
txt
  4

  0
ENDTAB
  0
TABLE
  2
VIEW
 70
     0
  0
ENDTAB
  0
TABLE
  2
UCS
 70
     0
  0
ENDTAB
  0
TABLE
  2
APPID
 70
    11
  0
APPID
  2
ACAD
 70
     0
  0
APPID
  2
ACAD_MLEADERVER
 70
     0
  0
APPID
  2
ACAD_EXEMPT_FROM_CAD_STANDARDS
 70
     0
  0
APPID
  2
ACAD_NAV_VCDISPLAY
 70
     0
  0
APPID
  2
ACAECLAYERSTANDARD
 70
     0
  0
APPID
  2
ACCMTRANSPARENCY
 70
     0
  0
APPID
  2
ACAD_DSTYLE_DIMJAG
 70
     0
  0
APPID
  2
ACAD_DSTYLE_DIMTALN
 70
     0
  0
APPID
  2
ACDBATTR
 70
     0
  0
APPID
  2
ACADANNOTATIVE
 70
     0
  0
APPID
  2
DCO15
 70
     0
  0
ENDTAB
  0
TABLE
  2
DIMSTYLE
 70
     1
  0
DIMSTYLE
  2
STANDARD
 70
     0
  3

  4

  5

  6

  7

 40
1.0
 41
0.1875
 42
0.0625
 43
0.38
 44
0.125
 45
0.0
 46
0.0
 47
0.01
 48
0.01
140
0.15625
141
0.09
142
0.0
143
25.3999999999999986
144
1.0
145
0.0
146
1.0
147
0.09
 71
     1
 72
     0
 73
     1
 74
     1
 75
     0
 76
     0
 77
     0
 78
     4
170
     0
171
     2
172
     0
173
     0
174
     0
175
     0
176
     0
177
     0
178
     0
  0
ENDTAB
  0
ENDSEC
  0
SECTION
  2
BLOCKS
  0
BLOCK
  8
0
  2
$MODEL_SPACE
 70
     0
 10
0.0
 20
0.0
 30
0.0
  3
$MODEL_SPACE
  1

  0
ENDBLK
  5
21
  8
0
  0
BLOCK
 67
     1
  8
0
  2
$PAPER_SPACE
 70
     0
 10
0.0
 20
0.0
 30
0.0
  3
$PAPER_SPACE
  1

  0
ENDBLK
  5
1D
 67
     1
  8
0
  0
ENDSEC
  0
SECTION
  2
ENTITIES
  0
ATTDEF
  5
20106
  8
DEFPOINTS
 10
4922.1781716833311293
 20
347.2447520509089145
 30
0.0
 40
0.001
  1
K-99214K-C
  3

  2
MODELNUMBER
 70
     0
1001
ACDBATTR
1070
     0
1070
     1
  0
ATTDEF
  5
20107
  8
DEFPOINTS
 10
4922.1780458736739092
 20
347.2430852105297845
 30
0.0
 40
0.001
  1
OVE
  3

  2
TRADENAME
 70
     0
1001
ACDBATTR
1070
     0
1070
     1
  0
ATTDEF
  5
20108
  8
DEFPOINTS
 10
4922.1781716833311293
 20
347.2414187175755274
 30
0.0
 40
0.001
  1
TOILET
  3

  2
PRODUCT
 70
     0
1001
ACDBATTR
1070
     0
1070
     1
  0
LINE
  5
21E5D
  8
0
 10
4916.6801502275584426
 20
347.2396642186732834
 30
0.0
 11
4927.6844071339246511
 21
347.2396642186732834
 31
0.0
  0
ARC
  5
21E5E
  8
0
 10
4936.6696087487243858
 20
344.7291396909722039
 30
0.0
 40
20.2155664460721205
 50
173.068811493041494
 51
187.0008983108299105
  0
ARC
  5
21E5F
  8
0
 10
4916.6801865181460016
 20
347.1608695713109114
 30
0.0
 40
0.0787946557196878
 50
90.0263887927040258
 51
174.298080301447186
  0
ARC
  5
21E60
  8
0
 10
4922.190167267814104
 20
260.0401060173331871
 30
0.0
 40
82.5815213213384567
 50
90.0054731704749145
 51
93.0863462971398548
  0
ARC
  5
21E61
  8
0
 10
4919.5247983654899144
 20
341.9501488911733986
 30
0.0
 40
0.8877952755999968
 50
46.6775457885567704
 51
137.0499708024244114
  0
LINE
  5
21E62
  8
0
 10
4917.743907296989164
 20
342.5018452423734061
 30
0.0
 11
4917.7356189031888789
 21
342.541437928173309
 31
0.0
  0
LINE
  5
21E63
  8
0
 10
4916.9860650421778701
 20
342.5094470677253184
 30
0.0
 11
4917.721131206989412
 21
342.5526633006733164
 31
0.0
  0
ARC
  5
21E64
  8
0
 10
4917.7219279733917574
 20
342.5387298784306722
 30
0.0
 40
0.0139561847256013
 50
11.1886136180858902
 51
93.2728276640083749
  0
ARC
  5
21E65
  8
0
 10
4917.0230499585468351
 20
342.0319878010977277
 30
0.0
 40
0.4788895857371091
 50
94.4293964922970019
 51
176.5862826775523047
  0
ARC
  5
21E66
  8
0
 10
4925.9164750810887199
 20
334.1123558323805014
 30
0.0
 40
11.0836471856943799
 50
152.7977006253489947
 51
179.9733853052312043
  0
ARC
  5
21E67
  8
0
 10
4925.7831612467180094
 20
334.3625371284113044
 30
0.0
 40
10.9530733304921402
 50
181.2818791019047069
 51
224.9771596496919983
  0
ARC
  5
21E68
  8
0
 10
4922.1855522814230426
 20
331.220928725916508
 30
0.0
 40
6.1958959466250914
 50
227.9426504341811892
 51
269.9697277822161254
  0
ARC
  5
21E69
  8
0
 10
4912.5106351846907273
 20
341.0049241710556203
 30
0.0
 40
3.9903055966013912
 50
332.7693196373593878
 51
359.9399482683339784
  0
ARC
  5
21E6A
  8
0
 10
4929.5947021004685666
 20
340.9870183464626052
 30
0.0
 40
13.0937707027269408
 50
175.2973609777602064
 51
179.9399482683307099
  0
ARC
  5
21E6B
  8
0
 10
4887.5667834042933464
 20
345.418107775970725
 30
0.0
 40
29.2150676166971017
 50
357.4417291795472238
 51
3.5121455787828109
  0
ARC
  5
21E6C
  8
0
 10
4935.3604764894398613
 20
344.0774972948839263
 30
0.0
 40
18.607778826202761
 50
179.8873535301212883
 51
184.9655245443647971
  0
ARC
  5
21E6D
  8
0
 10
4916.7569239558179106
 20
347.2096642186733106
 30
0.0
 40
0.03
 50
90.0
 51
183.5121455787698039
  0
ARC
  5
21E6E
  8
0
 10
4907.6949486127541604
 20
344.7291396909722039
 30
0.0
 40
20.2155664460721205
 50
352.9991016891701179
 51
6.931188506958514
  0
ARC
  5
21E6F
  8
0
 10
4927.6843708433316351
 20
347.1608695713109114
 30
0.0
 40
0.0787946557196878
 50
5.70191969855279
 51
89.9736112072959742
  0
ARC
  5
21E70
  8
0
 10
4922.1743900936644422
 20
260.0401060173331871
 30
0.0
 40
82.5815213213384567
 50
86.9136537028601452
 51
89.9945268295250997
  0
ARC
  5
21E71
  8
0
 10
4924.8397589959904508
 20
341.9501488911733986
 30
0.0
 40
0.8877952755999968
 50
42.9500291975755388
 51
133.322454211443187
  0
LINE
  5
21E72
  8
0
 10
4926.6206500644902917
 20
342.5018452423734061
 30
0.0
 11
4926.6289384582887578
 21
342.541437928173309
 31
0.0
  0
LINE
  5
21E73
  8
0
 10
4927.3784923192997667
 20
342.5094470677253184
 30
0.0
 11
4926.6434261544891342
 21
342.5526633006733164
 31
0.0
  0
ARC
  5
21E74
  8
0
 10
4926.6426293880858793
 20
342.5387298784306722
 30
0.0
 40
0.0139561847256013
 50
86.7271723359916109
 51
168.8113863819141045
  0
ARC
  5
21E75
  8
0
 10
4927.3415074029308016
 20
342.0319878010977277
 30
0.0
 40
0.4788895857371091
 50
3.413717322447638
 51
85.5706035077030265
  0
ARC
  5
21E76
  8
0
 10
4918.4480822803889168
 20
334.1123558323805014
 30
0.0
 40
11.0836471856943799
 50
0.0266146947687694
 51
27.2022993746510302
  0
ARC
  5
21E77
  8
0
 10
4918.5813961147614464
 20
334.3625371284113044
 30
0.0
 40
10.9530733304921402
 50
315.0228403503080017
 51
358.7181208980952078
  0
ARC
  5
21E78
  8
0
 10
4922.1790050800545941
 20
331.220928725916508
 30
0.0
 40
6.1958959466251162
 50
270.0302722178358863
 51
312.0573495658188108
  0
ARC
  5
21E79
  8
0
 10
4931.8539221767869094
 20
341.0049241710556203
 30
0.0
 40
3.9903055966013912
 50
180.0600517316659932
 51
207.2306803626406122
  0
ARC
  5
21E7A
  8
0
 10
4914.7698552610099796
 20
340.9870183464626052
 30
0.0
 40
13.0937707027269408
 50
0.0600517316692607
 51
4.7026390222398389
  0
ARC
  5
21E7B
  8
0
 10
4956.7977739571861093
 20
345.418107775970725
 30
0.0
 40
29.2150676166971017
 50
176.4878544212172073
 51
182.5582708204528046
  0
ARC
  5
21E7C
  8
0
 10
4909.0040808720386849
 20
344.0774972948839263
 30
0.0
 40
18.607778826202761
 50
355.0344754556351745
 51
0.1126464698786716
  0
ARC
  5
21E7D
  8
0
 10
4927.6076334056597261
 20
347.2096642186733106
 30
0.0
 40
0.03
 50
356.4878544212302245
 51
90.0
  0
ARC
  5
21E7F
  8
0
 10
4922.1722316589966795
 20
398.0242350620184197
 30
0.0
 40
55.0375702850517285
 50
264.6371818033184127
 51
270.0104592543195281
  0
ARC
  5
21E80
  8
0
 10
4929.1517818265710957
 20
151.3986490394021871
 30
0.0
 40
192.2116417924503935
 50
93.6162527063062981
 51
93.692547107061074
  0
ARC
  5
21E81
  8
0
 10
4922.2121405875450364
 20
398.0275211857585873
 30
0.0
 40
55.0408635924079874
 50
269.9689147080890166
 51
275.3627376497923933
  0
ARC
  5
21E82
  8
0
 10
4915.1493264203318176
 20
150.087495827579005
 30
0.0
 40
193.5254506547524898
 50
86.3137138214371902
 51
86.3835609713673449
  0
ARC
  5
21E83
  8
0
 10
4922.164083740967726
 20
398.966289196805576
 30
0.0
 40
55.2941625592058799
 50
264.64125703429022
 51
270.018853542188026
  0
ARC
  5
21E84
  8
0
 10
4917.0238146129886445
 20
344.1870341337847208
 30
0.0
 40
0.2742713309668849
 50
190.1381105121124904
 51
265.0363702809847837
  0
ARC
  5
21E85
  8
0
 10
4922.2004735350110423
 20
398.966289196808475
 30
0.0
 40
55.2941625592087007
 50
269.981146457811974
 51
275.35874296570978
  0
ARC
  5
21E86
  8
0
 10
4927.3407426629883048
 20
344.1870341337847208
 30
0.0
 40
0.2742713309668849
 50
274.9636297190152163
 51
349.8619709825314885
  0
ENDSEC
  0
EOF
