  0
SECTION
  2
HEADER
  9
$ACADVER
  1
AC1009
  9
$INSBASE
 10
4436.458312855497752
 20
176.1136756752871975
 30
0.0
  9
$EXTMIN
 10
4402.7159957802632562
 20
176.1063070015914036
 30
-0.0000000000000058
  9
$EXTMAX
 10
4469.9989547327431865
 20
200.3382983761669038
 30
0.0000000000000104
  9
$LIMMIN
 10
0.0
 20
0.0
  9
$LIMMAX
 10
11.6929133858000007
 20
8.2677165353999982
  9
$ORTHOMODE
 70
     0
  9
$REGENMODE
 70
     1
  9
$FILLMODE
 70
     1
  9
$QTEXTMODE
 70
     0
  9
$MIRRTEXT
 70
     0
  9
$DRAGMODE
 70
     2
  9
$LTSCALE
 40
0.6431102362
  9
$OSMODE
 70
  4095
  9
$ATTMODE
 70
     1
  9
$TEXTSIZE
 40
0.2
  9
$TRACEWID
 40
0.05
  9
$TEXTSTYLE
  7
STANDARD
  9
$CLAYER
  8
0
  9
$CELTYPE
  6
BYLAYER
  9
$CECOLOR
 62
   256
  9
$DIMSCALE
 40
1.0
  9
$DIMASZ
 40
0.1875
  9
$DIMEXO
 40
0.0625
  9
$DIMDLI
 40
0.4443307087
  9
$DIMRND
 40
0.0
  9
$DIMDLE
 40
0.0
  9
$DIMEXE
 40
0.125
  9
$DIMTP
 40
0.01
  9
$DIMTM
 40
0.01
  9
$DIMTXT
 40
2.0
  9
$DIMCEN
 40
0.1052362205
  9
$DIMTSZ
 40
0.0
  9
$DIMTOL
 70
     1
  9
$DIMLIM
 70
     0
  9
$DIMTIH
 70
     1
  9
$DIMTOH
 70
     1
  9
$DIMSE1
 70
     0
  9
$DIMSE2
 70
     0
  9
$DIMTAD
 70
     0
  9
$DIMZIN
 70
     0
  9
$DIMBLK
  1

  9
$DIMASO
 70
     1
  9
$DIMSHO
 70
     1
  9
$DIMPOST
  1
\X
  9
$DIMAPOST
  1

  9
$DIMALT
 70
     1
  9
$DIMALTD
 70
     2
  9
$DIMALTF
 40
25.3999999999999986
  9
$DIMLFAC
 40
1.0
  9
$DIMTOFL
 70
     0
  9
$DIMTVP
 40
0.0
  9
$DIMTIX
 70
     0
  9
$DIMSOXD
 70
     0
  9
$DIMSAH
 70
     0
  9
$DIMBLK1
  1

  9
$DIMBLK2
  1

  9
$DIMSTYLE
  2
STANDARD
  9
$DIMCLRD
 70
     0
  9
$DIMCLRE
 70
     0
  9
$DIMCLRT
 70
     0
  9
$DIMTFAC
 40
1.0
  9
$DIMGAP
 40
0.09
  9
$LUNITS
 70
     2
  9
$LUPREC
 70
     4
  9
$SKETCHINC
 40
0.1
  9
$FILLETRAD
 40
0.0
  9
$AUNITS
 70
     0
  9
$AUPREC
 70
     0
  9
$MENU
  1
.
  9
$ELEVATION
 40
0.0
  9
$PELEVATION
 40
0.0
  9
$THICKNESS
 40
0.0
  9
$LIMCHECK
 70
     0
  9
$BLIPMODE
 70
     0
  9
$CHAMFERA
 40
0.0
  9
$CHAMFERB
 40
0.0
  9
$SKPOLY
 70
     0
  9
$TDCREATE
 40
2458060.468368056230247
  9
$TDUPDATE
 40
2460755.6950462958775461
  9
$TDINDWG
 40
0.4274954861
  9
$TDUSRTIMER
 40
0.4274954861
  9
$USRTIMER
 70
     1
  9
$ANGBASE
 50
0.0
  9
$ANGDIR
 70
     0
  9
$PDMODE
 70
     0
  9
$PDSIZE
 40
0.3125
  9
$PLINEWID
 40
0.0
  9
$COORDS
 70
     1
  9
$SPLFRAME
 70
     0
  9
$SPLINETYPE
 70
     6
  9
$SPLINESEGS
 70
     8
  9
$ATTDIA
 70
     1
  9
$ATTREQ
 70
     1
  9
$HANDLING
 70
     1
  9
$HANDSEED
  5
135BE
  9
$SURFTAB1
 70
     6
  9
$SURFTAB2
 70
     6
  9
$SURFTYPE
 70
     6
  9
$SURFU
 70
     6
  9
$SURFV
 70
     6
  9
$UCSNAME
  2

  9
$UCSORG
 10
0.0
 20
0.0
 30
0.0
  9
$UCSXDIR
 10
1.0
 20
0.0
 30
0.0
  9
$UCSYDIR
 10
0.0
 20
1.0
 30
0.0
  9
$PUCSNAME
  2

  9
$PUCSORG
 10
0.0
 20
0.0
 30
0.0
  9
$PUCSXDIR
 10
1.0
 20
0.0
 30
0.0
  9
$PUCSYDIR
 10
0.0
 20
1.0
 30
0.0
  9
$USERI1
 70
     0
  9
$USERI2
 70
     0
  9
$USERI3
 70
     0
  9
$USERI4
 70
     0
  9
$USERI5
 70
     0
  9
$USERR1
 40
0.0
  9
$USERR2
 40
0.0
  9
$USERR3
 40
0.0
  9
$USERR4
 40
0.0
  9
$USERR5
 40
0.0
  9
$WORLDVIEW
 70
     1
  9
$SHADEDGE
 70
     3
  9
$SHADEDIF
 70
    70
  9
$TILEMODE
 70
     1
  9
$MAXACTVP
 70
    64
  9
$PLIMCHECK
 70
     0
  9
$PEXTMIN
 10
1.0000000000000000E+20
 20
1.0000000000000000E+20
 30
1.0000000000000000E+20
  9
$PEXTMAX
 10
-1.0000000000000000E+20
 20
-1.0000000000000000E+20
 30
-1.0000000000000000E+20
  9
$PLIMMIN
 10
0.0
 20
0.0
  9
$PLIMMAX
 10
12.0
 20
9.0
  9
$UNITMODE
 70
     0
  9
$VISRETAIN
 70
     1
  9
$PLINEGEN
 70
     0
  9
$PSLTSCALE
 70
     1
  0
ENDSEC
  0
SECTION
  2
TABLES
  0
TABLE
  2
VPORT
 70
     1
  0
VPORT
  2
*ACTIVE
 70
     0
 10
0.0
 20
0.0
 11
1.0
 21
1.0
 12
524.9921188111910624
 22
55.6426975863400912
 13
0.0
 23
0.0
 14
1.0
 24
1.0
 15
0.0
 25
0.0
 16
0.0
 26
0.0
 36
60.4960186965801583
 17
3911.3653564453120453
 27
132.5796051025390057
 37
0.0
 40
30.6202317803577699
 41
2.204387990762124
 42
50.0
 43
0.0
 44
0.0
 50
0.0
 51
0.0
 71
     0
 72
   100
 73
     1
 74
     1
 75
     0
 76
     0
 77
     0
 78
     0
  0
ENDTAB
  0
TABLE
  2
LTYPE
 70
     2
  0
LTYPE
  2
CONTINUOUS
 70
     0
  3
Solid line
 72
    65
 73
     0
 40
0.0
  0
LTYPE
  2
PHANTOM2
 70
     0
  3
___ _ _ ___ _ _ ___ _ _ ___ _ _
 72
    65
 73
     6
 40
1.25
 49
0.625
 49
-0.125
 49
0.125
 49
-0.125
 49
0.125
 49
-0.125
  0
ENDTAB
  0
TABLE
  2
LAYER
 70
     2
  0
LAYER
  2
0
 70
     0
 62
   255
  6
CONTINUOUS
  0
LAYER
  2
DEFPOINTS
 70
     0
 62
     7
  6
CONTINUOUS
  0
ENDTAB
  0
TABLE
  2
STYLE
 70
     1
  0
STYLE
  2
STANDARD
 70
     0
 40
0.0
 41
0.8
 50
0.0
 71
     0
 42
0.2
  3
txt
  4

  0
ENDTAB
  0
TABLE
  2
VIEW
 70
     0
  0
ENDTAB
  0
TABLE
  2
UCS
 70
     0
  0
ENDTAB
  0
TABLE
  2
APPID
 70
    10
  0
APPID
  2
ACAD
 70
     0
  0
APPID
  2
ACAD_MLEADERVER
 70
     0
  0
APPID
  2
ACAD_EXEMPT_FROM_CAD_STANDARDS
 70
     0
  0
APPID
  2
ACAD_NAV_VCDISPLAY
 70
     0
  0
APPID
  2
ACAECLAYERSTANDARD
 70
     0
  0
APPID
  2
ACCMTRANSPARENCY
 70
     0
  0
APPID
  2
ACAD_DSTYLE_DIMJAG
 70
     0
  0
APPID
  2
ACAD_DSTYLE_DIMTALN
 70
     0
  0
APPID
  2
ACDBATTR
 70
     0
  0
APPID
  2
ACADANNOTATIVE
 70
     0
  0
ENDTAB
  0
TABLE
  2
DIMSTYLE
 70
     1
  0
DIMSTYLE
  2
STANDARD
 70
     0
  3

  4

  5

  6

  7

 40
1.0
 41
0.1875
 42
0.0625
 43
0.38
 44
0.125
 45
0.0
 46
0.0
 47
0.01
 48
0.01
140
0.15625
141
0.09
142
0.0
143
25.3999999999999986
144
1.0
145
0.0
146
1.0
147
0.09
 71
     1
 72
     0
 73
     1
 74
     1
 75
     0
 76
     0
 77
     0
 78
     4
170
     0
171
     2
172
     0
173
     0
174
     0
175
     0
176
     0
177
     0
178
     0
  0
ENDTAB
  0
ENDSEC
  0
SECTION
  2
BLOCKS
  0
BLOCK
  8
0
  2
$MODEL_SPACE
 70
     0
 10
0.0
 20
0.0
 30
0.0
  3
$MODEL_SPACE
  1

  0
ENDBLK
  5
21
  8
0
  0
BLOCK
 67
     1
  8
0
  2
$PAPER_SPACE
 70
     0
 10
0.0
 20
0.0
 30
0.0
  3
$PAPER_SPACE
  1

  0
ENDBLK
  5
1D
 67
     1
  8
0
  0
BLOCK
  8
0
  2
_FILLED
 70
     0
 10
0.0
 20
0.0
 30
0.0
  3
_FILLED
  1

  0
SOLID
  5
11F9C
  8
0
  6
BYBLOCK
 62
     0
 10
0.0
 20
0.0
 30
0.0
 11
-1.0
 21
0.1666666667
 31
0.0
 12
-1.0
 22
-0.1666666667
 32
0.0
 13
-1.0
 23
-0.1666666667
 33
0.0
  0
ENDBLK
  5
11F9D
  8
0
  6
BYBLOCK
 62
     0
  0
ENDSEC
  0
SECTION
  2
ENTITIES
  0
ATTDEF
  5
11F12
  8
DEFPOINTS
 10
4436.4570592441996268
 20
176.1173100786120074
 30
0.0
 40
0.001
  1
K-99236T-GR
  3

  2
MODELNUMBER
 70
     0
1001
ACDBATTR
1070
     0
1070
     1
  0
ATTDEF
  5
11F13
  8
DEFPOINTS
 10
4436.4570592441996268
 20
176.1156434119453138
 30
0.0
 40
0.001
  1
EVOK
  3

  2
TRADENAME
 70
     0
1001
ACDBATTR
1070
     0
1070
     1
  0
ATTDEF
  5
11F14
  8
DEFPOINTS
 10
4436.4570592441996268
 20
176.1139767452787055
 30
0.0
 40
0.001
  1
BATH
  3

  2
PRODUCT
 70
     0
1001
ACDBATTR
1070
     0
1070
     1
  0
LINE
  5
13489
  8
0
 10
4403.0331160050982362
 20
198.3585965140815119
 30
0.0
 11
4408.4184976615988489
 21
176.7590104464813976
 31
0.0
  0
LINE
  5
1348A
  8
0
 10
4408.991612475499096
 20
176.3113524196814978
 30
0.0
 11
4463.925013235498227
 21
176.3113524196814978
 31
0.0
  0
LINE
  5
1348B
  8
0
 10
4402.9937459263983328
 20
198.3585965140815119
 30
0.0
 11
4469.9228797845980807
 21
198.3585965140815119
 31
0.0
  0
ARC
  5
1348C
  8
0
 10
4409.0329748772592211
 20
176.955001226076206
 30
0.0
 40
0.6449764602315299
 50
197.6903595358828909
 51
266.3230929483390241
  0
LINE
  5
1348D
  8
0
 10
4402.9937459263983328
 20
198.3585965140815119
 30
0.0
 11
4403.0518942470980619
 21
200.0237457508814884
 31
0.0
  0
LINE
  5
1348E
  8
0
 10
4403.3551096109913487
 20
200.3300468026334897
 30
0.0
 11
4469.5615161000059743
 21
200.3300468026334897
 31
0.0
  0
ARC
  5
1348F
  8
0
 10
4403.3900535129214404
 20
199.9922240203713955
 30
0.0
 40
0.3396252471436449
 50
95.9055902956553865
 51
174.6745268549248919
  0
LINE
  5
13490
  8
0
 10
4469.8835097058981773
 20
198.3585965140815119
 30
0.0
 11
4464.4981280493975646
 21
176.7590104464813976
 31
0.0
  0
ARC
  5
13491
  8
0
 10
4463.8836508337371924
 20
176.955001226076206
 30
0.0
 40
0.6449764602315299
 50
273.6769070516609759
 51
342.3096404641154891
  0
LINE
  5
13492
  8
0
 10
4469.9228797845980807
 20
198.3585965140815119
 30
0.0
 11
4469.8647314638983516
 21
200.0237457508814884
 31
0.0
  0
ARC
  5
13493
  8
0
 10
4469.5265721980749731
 20
199.9922240203713955
 30
0.0
 40
0.3396252471436449
 50
5.3254731450750263
 51
84.0944097043446135
  0
LINE
  5
13495
  8
0
 10
4424.8641119972480737
 20
176.2317859114872078
 30
0.0
 11
4428.3680490051474408
 21
176.2317859114872078
 31
0.0
  0
LINE
  5
13496
  8
0
 10
4424.8641119972480737
 20
176.1136756752871975
 30
0.0
 11
4428.3680490051474408
 21
176.1136756752871975
 31
0.0
  0
LINE
  5
13497
  8
0
 10
4424.8641119972480737
 20
176.2317859114872078
 30
0.0
 11
4424.8641119972480737
 21
176.1136756752871975
 31
0.0
  0
LINE
  5
13498
  8
0
 10
4425.062268527733977
 20
176.3113524196814978
 30
0.0
 11
4425.0619254309476673
 21
176.2317859114872078
 31
0.0
  0
LINE
  5
13499
  8
0
 10
4425.108146196146663
 20
176.2317859114872078
 30
0.0
 11
4425.1078030993621724
 21
176.3113524196814978
 31
0.0
  0
LINE
  5
1349A
  8
0
 10
4428.3680490051474408
 20
176.2317859114872078
 30
0.0
 11
4428.3680490051474408
 21
176.1136756752871975
 31
0.0
  0
LINE
  5
1349B
  8
0
 10
4425.5276736156483821
 20
176.2317859114872078
 30
0.0
 11
4425.5273305188620725
 21
176.3113524196814978
 31
0.0
  0
LINE
  5
1349C
  8
0
 10
4425.5769125911456285
 20
176.2317859114872078
 30
0.0
 11
4425.5765694943602284
 21
176.3113524196814978
 31
0.0
  0
LINE
  5
1349D
  8
0
 10
4425.579975768746408
 20
176.2317859114872078
 30
0.0
 11
4425.5796326719600984
 21
176.3113524196814978
 31
0.0
  0
LINE
  5
1349E
  8
0
 10
4425.5862896113467286
 20
176.2317859114872078
 30
0.0
 11
4425.585946514560419
 21
176.3113524196814978
 31
0.0
  0
LINE
  5
1349F
  8
0
 10
4425.6105925187457615
 20
176.2317859118647903
 30
0.0
 11
4425.6102494219603614
 21
176.3113524200591087
 31
0.0
  0
LINE
  5
134A0
  8
0
 10
4425.6383791644457233
 20
176.2317859114872078
 30
0.0
 11
4425.6380360676603232
 21
176.3113524196814978
 31
0.0
  0
LINE
  5
134A1
  8
0
 10
4425.6745466646461864
 20
176.2317859114872078
 30
0.0
 11
4425.6742035678607863
 21
176.3113524196814978
 31
0.0
  0
LINE
  5
134A2
  8
0
 10
4425.8696822887477538
 20
176.2317859114872078
 30
0.0
 11
4425.8693391919614442
 21
176.3113524201590963
 31
0.0
  0
LINE
  5
134A3
  8
0
 10
4425.8876427896457244
 20
176.2317859114872078
 30
0.0
 11
4425.8872996928603243
 21
176.3113524196814978
 31
0.0
  0
LINE
  5
134A4
  8
0
 10
4425.9022776873462135
 20
176.2317859114872078
 30
0.0
 11
4425.9019345905608134
 21
176.3113524196814978
 31
0.0
  0
LINE
  5
134A5
  8
0
 10
4425.9362697499482238
 20
176.2317859114872078
 30
0.0
 11
4425.9359266531610047
 21
176.3113524201590963
 31
0.0
  0
LINE
  5
134A6
  8
0
 10
4425.966832901147427
 20
176.2317859114872078
 30
0.0
 11
4425.9664898043602079
 21
176.3113524196814978
 31
0.0
  0
LINE
  5
134A7
  8
0
 10
4426.0062414041476586
 20
176.2317859114872078
 30
0.0
 11
4426.0058983073604395
 21
176.3113524201590963
 31
0.0
  0
LINE
  5
134A8
  8
0
 10
4426.2524252772936961
 20
176.2317859119648062
 30
0.0
 11
4426.252082180508296
 21
176.3113524201590963
 31
0.0
  0
LINE
  5
134A9
  8
0
 10
4426.28133103219443
 20
176.2317859119648062
 30
0.0
 11
4426.2809879354081204
 21
176.3113524201590963
 31
0.0
  0
LINE
  5
134AA
  8
0
 10
4426.3043075682926428
 20
176.2317859119648062
 30
0.0
 11
4426.3039644715081522
 21
176.3113524201590963
 31
0.0
  0
LINE
  5
134AB
  8
0
 10
4426.34388884159398
 20
176.2317859119648062
 30
0.0
 11
4426.3435457448067609
 21
176.3113524201590963
 31
0.0
  0
LINE
  5
134AC
  8
0
 10
4426.3735421312931066
 20
176.2317859119648062
 30
0.0
 11
4426.373199034506797
 21
176.3113524201590963
 31
0.0
  0
LINE
  5
134AD
  8
0
 10
4426.4114383898941014
 20
176.2317859119648062
 30
0.0
 11
4426.4110952931068823
 21
176.3113524201590963
 31
0.0
  0
LINE
  5
134AE
  8
0
 10
4426.4665599121126434
 20
176.2317859114872078
 30
0.0
 11
4426.4662168153272432
 21
176.3113524196814978
 31
0.0
  0
LINE
  5
134AF
  8
0
 10
4426.5682286571309305
 20
176.2317859114872078
 30
0.0
 11
4426.5678855603446209
 21
176.3113524196814978
 31
0.0
  0
LINE
  5
134B0
  8
0
 10
4426.595384177698179
 20
176.2317859114872078
 30
0.0
 11
4426.5950410809118694
 21
176.3113524196814978
 31
0.0
  0
LINE
  5
134B1
  8
0
 10
4426.6791543332928995
 20
176.2317859119648062
 30
0.0
 11
4426.6788112365084089
 21
176.3113524201590963
 31
0.0
  0
LINE
  5
134B2
  8
0
 10
4426.7155188814931535
 20
176.2317859119648062
 30
0.0
 11
4426.7151757847077533
 21
176.3113524201590963
 31
0.0
  0
LINE
  5
134B3
  8
0
 10
4426.7440657464921969
 20
176.2317859119648062
 30
0.0
 11
4426.7437226497077063
 21
176.3113524201590963
 31
0.0
  0
LINE
  5
134B4
  8
0
 10
4426.7844621448930411
 20
176.2317859119648062
 30
0.0
 11
4426.7841190481067315
 21
176.3113524201590963
 31
0.0
  0
LINE
  5
134B5
  8
0
 10
4426.8096289485938541
 20
176.2317859119648062
 30
0.0
 11
4426.809285851806635
 21
176.3113524201590963
 31
0.0
  0
LINE
  5
134B6
  8
0
 10
4426.8414421148936526
 20
176.2317859119648062
 30
0.0
 11
4426.841099018107343
 21
176.3113524201590963
 31
0.0
  0
LINE
  5
134B7
  8
0
 10
4427.0983053327945527
 20
176.2317859114872078
 30
0.0
 11
4427.0979622360082431
 21
176.3113524201590963
 31
0.0
  0
LINE
  5
134B8
  8
0
 10
4427.1377425729951938
 20
176.2317859114872078
 30
0.0
 11
4427.1373994762070652
 21
176.3113524201590963
 31
0.0
  0
LINE
  5
134B9
  8
0
 10
4427.1684165938959268
 20
176.2317859114872078
 30
0.0
 11
4427.1680734971068887
 21
176.3113524201590963
 31
0.0
  0
LINE
  5
134BA
  8
0
 10
4427.2047557154955939
 20
176.2317859114872078
 30
0.0
 11
4427.2044126187065558
 21
176.3113524201590963
 31
0.0
  0
LINE
  5
134BB
  8
0
 10
4427.2224005451953417
 20
176.2317859114872078
 30
0.0
 11
4427.2220574484081226
 21
176.3113524201590963
 31
0.0
  0
LINE
  5
134BC
  8
0
 10
4427.244293481794557
 20
176.2317859114872078
 30
0.0
 11
4427.2439503850073379
 21
176.3113524201590963
 31
0.0
  0
LINE
  5
134BD
  8
0
 10
4427.4593224792934052
 20
176.2317859119648062
 30
0.0
 11
4427.4589793825080051
 21
176.3113524201590963
 31
0.0
  0
LINE
  5
134BE
  8
0
 10
4427.4970756983939282
 20
176.2317859119648062
 30
0.0
 11
4427.4967326016067091
 21
176.3113524201590963
 31
0.0
  0
LINE
  5
134BF
  8
0
 10
4427.5261771353925724
 20
176.2317859119648062
 30
0.0
 11
4427.5258340386080818
 21
176.3113524201590963
 31
0.0
  0
LINE
  5
134C0
  8
0
 10
4427.5540759458926914
 20
176.2317859119648062
 30
0.0
 11
4427.5537328491082008
 21
176.3113524201590963
 31
0.0
  0
LINE
  5
134C1
  8
0
 10
4427.562824615692989
 20
176.2317859119648062
 30
0.0
 11
4427.5624815189066794
 21
176.3113524201590963
 31
0.0
  0
LINE
  5
134C2
  8
0
 10
4427.5714026703935815
 20
176.2317859119648062
 30
0.0
 11
4427.5710595736072719
 21
176.3113524201590963
 31
0.0
  0
LINE
  5
134C3
  8
0
 10
4427.6280179964378476
 20
176.2317859114872078
 30
0.0
 11
4427.6276748996524475
 21
176.3113524196814978
 31
0.0
  0
LINE
  5
134C4
  8
0
 10
4428.0205362317328763
 20
176.2317859114872078
 30
0.0
 11
4428.0201931349465667
 21
176.3113524196814978
 31
0.0
  0
LINE
  5
134C5
  8
0
 10
4428.0764398864021132
 20
176.2317859114872078
 30
0.0
 11
4428.0760967896167131
 21
176.3113524196814978
 31
0.0
  0
LINE
  5
134C6
  8
0
 10
4428.1702355714496662
 20
176.2317859114872078
 30
0.0
 11
4428.169892474664266
 21
176.3113524196814978
 31
0.0
  0
LINE
  5
134C7
  8
0
 10
4444.5491513673478039
 20
176.2317859114872078
 30
0.0
 11
4448.0530883752480804
 21
176.2317859114872078
 31
0.0
  0
LINE
  5
134C8
  8
0
 10
4444.5491513673478039
 20
176.1136756752871975
 30
0.0
 11
4448.0530883752480804
 21
176.1136756752871975
 31
0.0
  0
LINE
  5
134C9
  8
0
 10
4444.5491513673478039
 20
176.2317859114872078
 30
0.0
 11
4444.5491513673478039
 21
176.1136756752871975
 31
0.0
  0
LINE
  5
134CA
  8
0
 10
4444.7473078978327976
 20
176.3113524196814978
 30
0.0
 11
4444.746964801048307
 21
176.2317859114872078
 31
0.0
  0
LINE
  5
134CB
  8
0
 10
4444.7931855662482121
 20
176.2317859114872078
 30
0.0
 11
4444.792842469460993
 21
176.3113524196814978
 31
0.0
  0
LINE
  5
134CC
  8
0
 10
4448.0530883752480804
 20
176.2317859114872078
 30
0.0
 11
4448.0530883752480804
 21
176.1136756752871975
 31
0.0
  0
LINE
  5
134CD
  8
0
 10
4445.2127129857481123
 20
176.2317859114872078
 30
0.0
 11
4445.2123698889618026
 21
176.3113524196814978
 31
0.0
  0
LINE
  5
134CE
  8
0
 10
4445.2619519612462682
 20
176.2317859114872078
 30
0.0
 11
4445.2616088644608681
 21
176.3113524196814978
 31
0.0
  0
LINE
  5
134CF
  8
0
 10
4445.2650151388461381
 20
176.2317859114872078
 30
0.0
 11
4445.2646720420598285
 21
176.3113524196814978
 31
0.0
  0
LINE
  5
134D0
  8
0
 10
4445.2713289814473683
 20
176.2317859114872078
 30
0.0
 11
4445.2709858846601492
 21
176.3113524196814978
 31
0.0
  0
LINE
  5
134D1
  8
0
 10
4445.2956318888464011
 20
176.2317859118647903
 30
0.0
 11
4445.295288792061001
 21
176.3113524200591087
 31
0.0
  0
LINE
  5
134D2
  8
0
 10
4445.3234185345463629
 20
176.2317859114872078
 30
0.0
 11
4445.3230754377609628
 21
176.3113524196814978
 31
0.0
  0
LINE
  5
134D3
  8
0
 10
4445.3595860347459165
 20
176.2317859114872078
 30
0.0
 11
4445.3592429379596069
 21
176.3113524196814978
 31
0.0
  0
LINE
  5
134D4
  8
0
 10
4445.5547216588483934
 20
176.2317859114872078
 30
0.0
 11
4445.5543785620602648
 21
176.3113524201590963
 31
0.0
  0
LINE
  5
134D5
  8
0
 10
4445.5726821597463641
 20
176.2317859114872078
 30
0.0
 11
4445.5723390629609639
 21
176.3113524196814978
 31
0.0
  0
LINE
  5
134D6
  8
0
 10
4445.5873170574459436
 20
176.2317859114872078
 30
0.0
 11
4445.586973960661453
 21
176.3113524196814978
 31
0.0
  0
LINE
  5
134D7
  8
0
 10
4445.6213091200479539
 20
176.2317859114872078
 30
0.0
 11
4445.6209660232607348
 21
176.3113524201590963
 31
0.0
  0
LINE
  5
134D8
  8
0
 10
4445.6518722712471572
 20
176.2317859114872078
 30
0.0
 11
4445.6515291744608476
 21
176.3113524196814978
 31
0.0
  0
LINE
  5
134D9
  8
0
 10
4445.6912807742482983
 20
176.2317859114872078
 30
0.0
 11
4445.6909376774601697
 21
176.3113524201590963
 31
0.0
  0
LINE
  5
134DA
  8
0
 10
4445.9374646473934263
 20
176.2317859119648062
 30
0.0
 11
4445.9371215506080262
 21
176.3113524201590963
 31
0.0
  0
LINE
  5
134DB
  8
0
 10
4445.9663704022941602
 20
176.2317859119648062
 30
0.0
 11
4445.9660273055078505
 21
176.3113524201590963
 31
0.0
  0
LINE
  5
134DC
  8
0
 10
4445.9893469383932825
 20
176.2317859119648062
 30
0.0
 11
4445.9890038416069729
 21
176.3113524201590963
 31
0.0
  0
LINE
  5
134DD
  8
0
 10
4446.0289282116937102
 20
176.2317859119648062
 30
0.0
 11
4446.0285851149083101
 21
176.3113524201590963
 31
0.0
  0
LINE
  5
134DE
  8
0
 10
4446.0585815013928368
 20
176.2317859119648062
 30
0.0
 11
4446.0582384046074367
 21
176.3113524201590963
 31
0.0
  0
LINE
  5
134DF
  8
0
 10
4446.0964777599938316
 20
176.2317859119648062
 30
0.0
 11
4446.0961346632066125
 21
176.3113524201590963
 31
0.0
  0
LINE
  5
134E0
  8
0
 10
4446.151599282213283
 20
176.2317859114872078
 30
0.0
 11
4446.1512561854269734
 21
176.3113524196814978
 31
0.0
  0
LINE
  5
134E1
  8
0
 10
4446.2532680272306607
 20
176.2317859114872078
 30
0.0
 11
4446.2529249304452605
 21
176.3113524196814978
 31
0.0
  0
LINE
  5
134E2
  8
0
 10
4446.2804235477979091
 20
176.2317859114872078
 30
0.0
 11
4446.2800804510115995
 21
176.3113524196814978
 31
0.0
  0
LINE
  5
134E3
  8
0
 10
4446.3641937033926297
 20
176.2317859119648062
 30
0.0
 11
4446.3638506066081391
 21
176.3113524201590963
 31
0.0
  0
LINE
  5
134E4
  8
0
 10
4446.4005582515928836
 20
176.2317859119648062
 30
0.0
 11
4446.400215154806574
 21
176.3113524201590963
 31
0.0
  0
LINE
  5
134E5
  8
0
 10
4446.4291051165928366
 20
176.2317859119648062
 30
0.0
 11
4446.4287620198083459
 21
176.3113524201590963
 31
0.0
  0
LINE
  5
134E6
  8
0
 10
4446.4695015149927713
 20
176.2317859119648062
 30
0.0
 11
4446.4691584182082806
 21
176.3113524201590963
 31
0.0
  0
LINE
  5
134E7
  8
0
 10
4446.4946683186935843
 20
176.2317859119648062
 30
0.0
 11
4446.4943252219081842
 21
176.3113524201590963
 31
0.0
  0
LINE
  5
134E8
  8
0
 10
4446.5264814849933828
 20
176.2317859119648062
 30
0.0
 11
4446.5261383882070731
 21
176.3113524201590963
 31
0.0
  0
LINE
  5
134E9
  8
0
 10
4446.7833447028951923
 20
176.2317859114872078
 30
0.0
 11
4446.7830016061079732
 21
176.3113524201590963
 31
0.0
  0
LINE
  5
134EA
  8
0
 10
4446.8227819430958334
 20
176.2317859114872078
 30
0.0
 11
4446.8224388463067953
 21
176.3113524201590963
 31
0.0
  0
LINE
  5
134EB
  8
0
 10
4446.8534559639947474
 20
176.2317859114872078
 30
0.0
 11
4446.8531128672066188
 21
176.3113524201590963
 31
0.0
  0
LINE
  5
134EC
  8
0
 10
4446.8897950855953241
 20
176.2317859114872078
 30
0.0
 11
4446.8894519888081049
 21
176.3113524201590963
 31
0.0
  0
LINE
  5
134ED
  8
0
 10
4446.9074399152950718
 20
176.2317859114872078
 30
0.0
 11
4446.9070968185078527
 21
176.3113524201590963
 31
0.0
  0
LINE
  5
134EE
  8
0
 10
4446.9293328518951967
 20
176.2317859114872078
 30
0.0
 11
4446.928989755107068
 21
176.3113524201590963
 31
0.0
  0
LINE
  5
134EF
  8
0
 10
4447.1443618493922258
 20
176.2317859119648062
 30
0.0
 11
4447.1440187526077352
 21
176.3113524201590963
 31
0.0
  0
LINE
  5
134F0
  8
0
 10
4447.1821150684936583
 20
176.2317859119648062
 30
0.0
 11
4447.1817719717082582
 21
176.3113524201590963
 31
0.0
  0
LINE
  5
134F1
  8
0
 10
4447.2112165054923025
 20
176.2317859119648062
 30
0.0
 11
4447.2108734087078119
 21
176.3113524201590963
 31
0.0
  0
LINE
  5
134F2
  8
0
 10
4447.239115315993331
 20
176.2317859119648062
 30
0.0
 11
4447.2387722192079309
 21
176.3113524201590963
 31
0.0
  0
LINE
  5
134F3
  8
0
 10
4447.2478639857927192
 20
176.2317859119648062
 30
0.0
 11
4447.2475208890082286
 21
176.3113524201590963
 31
0.0
  0
LINE
  5
134F4
  8
0
 10
4447.2564420404933117
 20
176.2317859119648062
 30
0.0
 11
4447.256098943707002
 21
176.3113524201590963
 31
0.0
  0
LINE
  5
134F5
  8
0
 10
4447.3130573665375778
 20
176.2317859114872078
 30
0.0
 11
4447.3127142697512681
 21
176.3113524196814978
 31
0.0
  0
LINE
  5
134F6
  8
0
 10
4447.7055756018326065
 20
176.2317859114872078
 30
0.0
 11
4447.7052325050472064
 21
176.3113524196814978
 31
0.0
  0
LINE
  5
134F7
  8
0
 10
4447.7614792565009338
 20
176.2317859114872078
 30
0.0
 11
4447.7611361597164432
 21
176.3113524196814978
 31
0.0
  0
LINE
  5
134F8
  8
0
 10
4447.8552749415493963
 20
176.2317859114872078
 30
0.0
 11
4447.8549318447639962
 21
176.3113524196814978
 31
0.0
  0
ENDSEC
  0
EOF
