  0
SECTION
  2
HEADER
  9
$ACADVER
  1
AC1009
  9
$INSBASE
 10
5145.7945922248945863
 20
242.5095518327613036
 30
0.0
  9
$EXTMIN
 10
5112.330025295795167
 20
227.7457723051113021
 30
0.0
  9
$EXTMAX
 10
5179.2591591539940055
 20
257.2733313603113174
 30
0.0
  9
$LIMMIN
 10
0.0
 20
0.0
  9
$LIMMAX
 10
11.6929133858000007
 20
8.2677165353999982
  9
$ORTHOMODE
 70
     1
  9
$REGENMODE
 70
     1
  9
$FILLMODE
 70
     1
  9
$QTEXTMODE
 70
     0
  9
$MIRRTEXT
 70
     0
  9
$DRAGMODE
 70
     2
  9
$LTSCALE
 40
0.6431102362
  9
$OSMODE
 70
  4095
  9
$ATTMODE
 70
     1
  9
$TEXTSIZE
 40
0.2
  9
$TRACEWID
 40
0.05
  9
$TEXTSTYLE
  7
STANDARD
  9
$CLAYER
  8
0
  9
$CELTYPE
  6
BYLAYER
  9
$CECOLOR
 62
   256
  9
$DIMSCALE
 40
1.0
  9
$DIMASZ
 40
0.1875
  9
$DIMEXO
 40
0.0625
  9
$DIMDLI
 40
0.4443307087
  9
$DIMRND
 40
0.0
  9
$DIMDLE
 40
0.0
  9
$DIMEXE
 40
0.125
  9
$DIMTP
 40
0.01
  9
$DIMTM
 40
0.01
  9
$DIMTXT
 40
2.0
  9
$DIMCEN
 40
0.1052362205
  9
$DIMTSZ
 40
0.0
  9
$DIMTOL
 70
     1
  9
$DIMLIM
 70
     0
  9
$DIMTIH
 70
     1
  9
$DIMTOH
 70
     1
  9
$DIMSE1
 70
     0
  9
$DIMSE2
 70
     0
  9
$DIMTAD
 70
     0
  9
$DIMZIN
 70
     0
  9
$DIMBLK
  1

  9
$DIMASO
 70
     1
  9
$DIMSHO
 70
     1
  9
$DIMPOST
  1
\X
  9
$DIMAPOST
  1

  9
$DIMALT
 70
     1
  9
$DIMALTD
 70
     2
  9
$DIMALTF
 40
25.3999999999999986
  9
$DIMLFAC
 40
1.0
  9
$DIMTOFL
 70
     0
  9
$DIMTVP
 40
0.0
  9
$DIMTIX
 70
     0
  9
$DIMSOXD
 70
     0
  9
$DIMSAH
 70
     0
  9
$DIMBLK1
  1

  9
$DIMBLK2
  1

  9
$DIMSTYLE
  2
STANDARD
  9
$DIMCLRD
 70
     0
  9
$DIMCLRE
 70
     0
  9
$DIMCLRT
 70
     0
  9
$DIMTFAC
 40
1.0
  9
$DIMGAP
 40
0.09
  9
$LUNITS
 70
     2
  9
$LUPREC
 70
     4
  9
$SKETCHINC
 40
0.1
  9
$FILLETRAD
 40
0.0
  9
$AUNITS
 70
     0
  9
$AUPREC
 70
     0
  9
$MENU
  1
.
  9
$ELEVATION
 40
0.0
  9
$PELEVATION
 40
0.0
  9
$THICKNESS
 40
0.0
  9
$LIMCHECK
 70
     0
  9
$BLIPMODE
 70
     0
  9
$CHAMFERA
 40
0.0
  9
$CHAMFERB
 40
0.0
  9
$SKPOLY
 70
     0
  9
$TDCREATE
 40
2458060.468368056230247
  9
$TDUPDATE
 40
2459772.6905787037685513
  9
$TDINDWG
 40
0.3693126157
  9
$TDUSRTIMER
 40
0.3693126157
  9
$USRTIMER
 70
     1
  9
$ANGBASE
 50
0.0
  9
$ANGDIR
 70
     0
  9
$PDMODE
 70
     0
  9
$PDSIZE
 40
0.3125
  9
$PLINEWID
 40
0.0
  9
$COORDS
 70
     1
  9
$SPLFRAME
 70
     0
  9
$SPLINETYPE
 70
     6
  9
$SPLINESEGS
 70
     8
  9
$ATTDIA
 70
     1
  9
$ATTREQ
 70
     1
  9
$HANDLING
 70
     1
  9
$HANDSEED
  5
DA21
  9
$SURFTAB1
 70
     6
  9
$SURFTAB2
 70
     6
  9
$SURFTYPE
 70
     6
  9
$SURFU
 70
     6
  9
$SURFV
 70
     6
  9
$UCSNAME
  2

  9
$UCSORG
 10
0.0
 20
0.0
 30
0.0
  9
$UCSXDIR
 10
1.0
 20
0.0
 30
0.0
  9
$UCSYDIR
 10
0.0
 20
1.0
 30
0.0
  9
$PUCSNAME
  2

  9
$PUCSORG
 10
0.0
 20
0.0
 30
0.0
  9
$PUCSXDIR
 10
1.0
 20
0.0
 30
0.0
  9
$PUCSYDIR
 10
0.0
 20
1.0
 30
0.0
  9
$USERI1
 70
     0
  9
$USERI2
 70
     0
  9
$USERI3
 70
     0
  9
$USERI4
 70
     0
  9
$USERI5
 70
     0
  9
$USERR1
 40
0.0
  9
$USERR2
 40
0.0
  9
$USERR3
 40
0.0
  9
$USERR4
 40
0.0
  9
$USERR5
 40
0.0
  9
$WORLDVIEW
 70
     1
  9
$SHADEDGE
 70
     3
  9
$SHADEDIF
 70
    70
  9
$TILEMODE
 70
     1
  9
$MAXACTVP
 70
    64
  9
$PLIMCHECK
 70
     0
  9
$PEXTMIN
 10
1.0000000000000000E+20
 20
1.0000000000000000E+20
 30
1.0000000000000000E+20
  9
$PEXTMAX
 10
-1.0000000000000000E+20
 20
-1.0000000000000000E+20
 30
-1.0000000000000000E+20
  9
$PLIMMIN
 10
0.0
 20
0.0
  9
$PLIMMAX
 10
12.0
 20
9.0
  9
$UNITMODE
 70
     0
  9
$VISRETAIN
 70
     1
  9
$PLINEGEN
 70
     0
  9
$PSLTSCALE
 70
     1
  0
ENDSEC
  0
SECTION
  2
TABLES
  0
TABLE
  2
VPORT
 70
     1
  0
VPORT
  2
*ACTIVE
 70
     0
 10
0.0
 20
0.0
 11
1.0
 21
1.0
 12
0.0
 22
0.0
 13
0.0
 23
0.0
 14
1.0
 24
1.0
 15
0.0
 25
0.0
 16
0.0
 26
0.0
 36
207.9480227832270884
 17
5145.794677734375
 27
242.5095596313477131
 37
0.0
 40
73.1469770576744054
 41
2.127494456762749
 42
50.0
 43
0.0
 44
0.0
 50
0.0
 51
0.0
 71
     0
 72
   100
 73
     1
 74
     1
 75
     0
 76
     0
 77
     0
 78
     0
  0
ENDTAB
  0
TABLE
  2
LTYPE
 70
     2
  0
LTYPE
  2
CONTINUOUS
 70
     0
  3
Solid line
 72
    65
 73
     0
 40
0.0
  0
LTYPE
  2
PHANTOM2
 70
     0
  3
___ _ _ ___ _ _ ___ _ _ ___ _ _
 72
    65
 73
     6
 40
1.25
 49
0.625
 49
-0.125
 49
0.125
 49
-0.125
 49
0.125
 49
-0.125
  0
ENDTAB
  0
TABLE
  2
LAYER
 70
     2
  0
LAYER
  2
0
 70
     0
 62
   255
  6
CONTINUOUS
  0
LAYER
  2
DEFPOINTS
 70
     0
 62
     7
  6
CONTINUOUS
  0
ENDTAB
  0
TABLE
  2
STYLE
 70
     1
  0
STYLE
  2
STANDARD
 70
     0
 40
0.0
 41
0.8
 50
0.0
 71
     0
 42
0.2
  3
txt
  4

  0
ENDTAB
  0
TABLE
  2
VIEW
 70
     0
  0
ENDTAB
  0
TABLE
  2
UCS
 70
     0
  0
ENDTAB
  0
TABLE
  2
APPID
 70
     9
  0
APPID
  2
ACAD
 70
     0
  0
APPID
  2
ACAD_MLEADERVER
 70
     0
  0
APPID
  2
ACAD_EXEMPT_FROM_CAD_STANDARDS
 70
     0
  0
APPID
  2
ACAD_NAV_VCDISPLAY
 70
     0
  0
APPID
  2
ACAECLAYERSTANDARD
 70
     0
  0
APPID
  2
ACCMTRANSPARENCY
 70
     0
  0
APPID
  2
ACAD_DSTYLE_DIMJAG
 70
     0
  0
APPID
  2
ACAD_DSTYLE_DIMTALN
 70
     0
  0
APPID
  2
ACDBATTR
 70
     0
  0
ENDTAB
  0
TABLE
  2
DIMSTYLE
 70
     1
  0
DIMSTYLE
  2
STANDARD
 70
     0
  3

  4

  5

  6

  7

 40
1.0
 41
0.1875
 42
0.0625
 43
0.38
 44
0.125
 45
0.0
 46
0.0
 47
0.01
 48
0.01
140
0.15625
141
0.09
142
0.0
143
25.3999999999999986
144
1.0
145
0.0
146
1.0
147
0.09
 71
     1
 72
     0
 73
     1
 74
     1
 75
     0
 76
     0
 77
     0
 78
     4
170
     0
171
     2
172
     0
173
     0
174
     0
175
     0
176
     0
177
     0
178
     0
  0
ENDTAB
  0
ENDSEC
  0
SECTION
  2
BLOCKS
  0
BLOCK
  8
0
  2
$MODEL_SPACE
 70
     0
 10
0.0
 20
0.0
 30
0.0
  3
$MODEL_SPACE
  1

  0
ENDBLK
  5
21
  8
0
  0
BLOCK
 67
     1
  8
0
  2
$PAPER_SPACE
 70
     0
 10
0.0
 20
0.0
 30
0.0
  3
$PAPER_SPACE
  1

  0
ENDBLK
  5
1D
 67
     1
  8
0
  0
ENDSEC
  0
SECTION
  2
ENTITIES
  0
ATTDEF
  5
3930
  8
DEFPOINTS
 10
5145.7915875164562749
 20
242.5139525187713048
 30
0.0
 40
0.001
  1
K-99236T
  3

  2
MODELNUMBER
 70
     0
1001
ACDBATTR
1070
     0
1070
     1
  0
ATTDEF
  5
3931
  8
DEFPOINTS
 10
5145.7915875164562749
 20
242.5122858521046112
 30
0.0
 40
0.001
  1
EVOK
  3

  2
TRADENAME
 70
     0
1001
ACDBATTR
1070
     0
1070
     1
  0
ATTDEF
  5
3932
  8
DEFPOINTS
 10
5145.7915875164562749
 20
242.5106191854380029
 30
0.0
 40
0.001
  1
BATH
  3

  2
PRODUCT
 70
     0
1001
ACDBATTR
1070
     0
1070
     1
  0
LINE
  5
D97C
  8
0
 10
5127.0938048233947484
 20
227.7457723052112897
 30
0.0
 11
5164.4953796263944241
 21
227.7457723052112897
 31
0.0
  0
LINE
  5
D97D
  8
0
 10
5142.2906552169943097
 20
253.4706822697112898
 30
0.0
 11
5142.2906552169943097
 21
253.4037815211113127
 31
0.0
  0
LINE
  5
D97E
  8
0
 10
5164.4953796263944241
 20
257.2733313603113174
 30
0.0
 11
5127.093804823294704
 21
257.2733313603113174
 31
0.0
  0
ARC
  5
D97F
  8
0
 10
5127.0938048233947484
 20
242.5095518327113098
 30
0.0
 40
14.7637795275999899
 50
90.0000000004689724
 51
269.999999999687418
  0
CIRCLE
  5
D980
  8
0
 10
5145.7945922248945863
 20
241.6040400217113131
 30
0.0
 40
1.7240105844999991
  0
CIRCLE
  5
D981
  8
0
 10
5145.7945922248945863
 20
241.6040400217113131
 30
0.0
 40
1.3779527558999991
  0
ARC
  5
D982
  8
0
 10
5127.1422742699405717
 20
241.6027173145348002
 30
0.0
 40
12.3533990123559594
 50
91.3026376568311662
 51
268.697362343168777
  0
LINE
  5
D983
  8
0
 10
5126.8614400339056374
 20
229.252510867258394
 30
0.0
 11
5164.7277444158808066
 21
229.252510867258394
 31
0.0
  0
LINE
  5
D984
  8
0
 10
5134.3299214053940887
 20
251.4184211618112954
 30
0.0
 11
5157.2592630443941744
 21
251.4184211618112954
 31
0.0
  0
LINE
  5
D985
  8
0
 10
5134.3299214056942219
 20
231.7896423955112937
 30
0.0
 11
5157.2592630440858557
 21
231.7896423955112937
 31
0.0
  0
ARC
  5
D986
  8
0
 10
5136.9446211612630577
 20
241.6040406034607031
 30
0.0
 40
11.8243851367836399
 50
148.5114591349218927
 51
211.4885408650781073
  0
ARC
  5
D987
  8
0
 10
5134.4556149024638216
 20
241.6756191783613019
 30
0.0
 40
9.7436127459953372
 50
90.7391413061058216
 51
141.2057017917211112
  0
ARC
  5
D988
  8
0
 10
5134.3444832801424127
 20
241.3042836475208901
 30
0.0
 40
9.5146523952601481
 50
218.1426274496180042
 51
269.912310588048399
  0
LINE
  5
D989
  8
0
 10
5142.4954357651686223
 20
253.5151904368046871
 30
0.0
 11
5149.0937486846196407
 21
253.5151904368046871
 31
0.0
  0
ARC
  5
D98A
  8
0
 10
5142.5048653108597136
 20
252.9784572028831917
 30
0.0
 40
0.5368160585599453
 50
91.006491795320045
 51
113.5180631621352063
  0
LINE
  5
D98B
  8
0
 10
5142.4954357651686223
 20
253.3592733540178017
 30
0.0
 11
5149.0937486846196407
 21
253.3592733540178017
 31
0.0
  0
ARC
  5
D98C
  8
0
 10
5142.5048653108597136
 20
253.8960065879394108
 30
0.0
 40
0.5368160585599453
 50
246.4819368378647937
 51
268.9935082046799835
  0
LINE
  5
D98D
  8
0
 10
5149.2985292327939533
 20
253.4706822697112898
 30
0.0
 11
5149.2985292327939533
 21
253.4037815211113127
 31
0.0
  0
ARC
  5
D98E
  8
0
 10
5164.4953796263944241
 20
242.5095518327113098
 30
0.0
 40
14.7637795275999899
 50
270.0000000002606271
 51
89.9999999995310134
  0
ARC
  5
D98F
  8
0
 10
5164.4469101798467818
 20
241.6027173145348002
 30
0.0
 40
12.3533990123559594
 50
271.302637656831223
 51
88.697362343168848
  0
ARC
  5
D990
  8
0
 10
5154.6445632885252053
 20
241.6040406034607031
 30
0.0
 40
11.8243851367836399
 50
328.5114591349218927
 51
31.4885408650781109
  0
ARC
  5
D991
  8
0
 10
5157.1335695473253509
 20
241.6756191783613019
 30
0.0
 40
9.7436127459953372
 50
38.794298208278839
 51
89.2608586938941926
  0
ARC
  5
D992
  8
0
 10
5157.2447011696458503
 20
241.3042836475208901
 30
0.0
 40
9.5146523952601481
 50
270.0876894119517146
 51
321.8573725503819105
  0
ARC
  5
D993
  8
0
 10
5149.0843191389276399
 20
252.9784572028831917
 30
0.0
 40
0.5368160585599453
 50
66.4819368378647937
 51
88.9935082046799693
  0
ARC
  5
D994
  8
0
 10
5149.0843191389276399
 20
253.8960065879394108
 30
0.0
 40
0.5368160585599453
 50
271.0064917953200165
 51
293.5180631621350926
  0
LINE
  5
D995
  8
0
 10
5126.8614400339056374
 20
253.9529237618112916
 30
0.0
 11
5164.7277444158808066
 21
253.9529237618112916
 31
0.0
  0
ENDSEC
  0
EOF
