  0
SECTION
  2
HEADER
  9
$ACADVER
  1
AC1009
  9
$INSBASE
 10
3703.1709951197199189
 20
136.5461551187920008
 30
0.0
  9
$EXTMIN
 10
3671.4469882298690209
 20
121.7808083119268048
 30
-0.0000000000112498
  9
$EXTMAX
 10
3734.705542894717837
 20
151.3122442278258859
 30
0.0000000000002956
  9
$LIMMIN
 10
0.0
 20
0.0
  9
$LIMMAX
 10
11.6929133858000007
 20
8.2677165353999982
  9
$ORTHOMODE
 70
     1
  9
$REGENMODE
 70
     1
  9
$FILLMODE
 70
     1
  9
$QTEXTMODE
 70
     0
  9
$MIRRTEXT
 70
     0
  9
$DRAGMODE
 70
     2
  9
$LTSCALE
 40
0.6431102362
  9
$OSMODE
 70
  4095
  9
$ATTMODE
 70
     1
  9
$TEXTSIZE
 40
0.2
  9
$TRACEWID
 40
0.05
  9
$TEXTSTYLE
  7
STANDARD
  9
$CLAYER
  8
0
  9
$CELTYPE
  6
BYLAYER
  9
$CECOLOR
 62
   256
  9
$DIMSCALE
 40
1.0
  9
$DIMASZ
 40
0.1875
  9
$DIMEXO
 40
0.0625
  9
$DIMDLI
 40
0.4443307087
  9
$DIMRND
 40
0.0
  9
$DIMDLE
 40
0.0
  9
$DIMEXE
 40
0.125
  9
$DIMTP
 40
0.01
  9
$DIMTM
 40
0.01
  9
$DIMTXT
 40
2.0
  9
$DIMCEN
 40
0.1052362205
  9
$DIMTSZ
 40
0.0
  9
$DIMTOL
 70
     1
  9
$DIMLIM
 70
     0
  9
$DIMTIH
 70
     1
  9
$DIMTOH
 70
     1
  9
$DIMSE1
 70
     0
  9
$DIMSE2
 70
     0
  9
$DIMTAD
 70
     0
  9
$DIMZIN
 70
     0
  9
$DIMBLK
  1

  9
$DIMASO
 70
     1
  9
$DIMSHO
 70
     1
  9
$DIMPOST
  1
\X
  9
$DIMAPOST
  1

  9
$DIMALT
 70
     1
  9
$DIMALTD
 70
     2
  9
$DIMALTF
 40
25.3999999999999986
  9
$DIMLFAC
 40
1.0
  9
$DIMTOFL
 70
     0
  9
$DIMTVP
 40
0.0
  9
$DIMTIX
 70
     0
  9
$DIMSOXD
 70
     0
  9
$DIMSAH
 70
     0
  9
$DIMBLK1
  1

  9
$DIMBLK2
  1

  9
$DIMSTYLE
  2
STANDARD
  9
$DIMCLRD
 70
     0
  9
$DIMCLRE
 70
     0
  9
$DIMCLRT
 70
     0
  9
$DIMTFAC
 40
1.0
  9
$DIMGAP
 40
0.09
  9
$LUNITS
 70
     2
  9
$LUPREC
 70
     4
  9
$SKETCHINC
 40
0.1
  9
$FILLETRAD
 40
0.0
  9
$AUNITS
 70
     0
  9
$AUPREC
 70
     0
  9
$MENU
  1
.
  9
$ELEVATION
 40
0.0
  9
$PELEVATION
 40
0.0
  9
$THICKNESS
 40
0.0
  9
$LIMCHECK
 70
     0
  9
$BLIPMODE
 70
     0
  9
$CHAMFERA
 40
0.0
  9
$CHAMFERB
 40
0.0
  9
$SKPOLY
 70
     0
  9
$TDCREATE
 40
2458060.468368056230247
  9
$TDUPDATE
 40
2459887.5478819441050291
  9
$TDINDWG
 40
0.3852153935
  9
$TDUSRTIMER
 40
0.3852153935
  9
$USRTIMER
 70
     1
  9
$ANGBASE
 50
0.0
  9
$ANGDIR
 70
     0
  9
$PDMODE
 70
     0
  9
$PDSIZE
 40
0.3125
  9
$PLINEWID
 40
0.0
  9
$COORDS
 70
     1
  9
$SPLFRAME
 70
     0
  9
$SPLINETYPE
 70
     6
  9
$SPLINESEGS
 70
     8
  9
$ATTDIA
 70
     1
  9
$ATTREQ
 70
     1
  9
$HANDLING
 70
     1
  9
$HANDSEED
  5
ABDD
  9
$SURFTAB1
 70
     6
  9
$SURFTAB2
 70
     6
  9
$SURFTYPE
 70
     6
  9
$SURFU
 70
     6
  9
$SURFV
 70
     6
  9
$UCSNAME
  2

  9
$UCSORG
 10
0.0
 20
0.0
 30
0.0
  9
$UCSXDIR
 10
1.0
 20
0.0
 30
0.0
  9
$UCSYDIR
 10
0.0
 20
1.0
 30
0.0
  9
$PUCSNAME
  2

  9
$PUCSORG
 10
0.0
 20
0.0
 30
0.0
  9
$PUCSXDIR
 10
1.0
 20
0.0
 30
0.0
  9
$PUCSYDIR
 10
0.0
 20
1.0
 30
0.0
  9
$USERI1
 70
     0
  9
$USERI2
 70
     0
  9
$USERI3
 70
     0
  9
$USERI4
 70
     0
  9
$USERI5
 70
     0
  9
$USERR1
 40
0.0
  9
$USERR2
 40
0.0
  9
$USERR3
 40
0.0
  9
$USERR4
 40
0.0
  9
$USERR5
 40
0.0
  9
$WORLDVIEW
 70
     1
  9
$SHADEDGE
 70
     3
  9
$SHADEDIF
 70
    70
  9
$TILEMODE
 70
     1
  9
$MAXACTVP
 70
    64
  9
$PLIMCHECK
 70
     0
  9
$PEXTMIN
 10
1.0000000000000000E+20
 20
1.0000000000000000E+20
 30
1.0000000000000000E+20
  9
$PEXTMAX
 10
-1.0000000000000000E+20
 20
-1.0000000000000000E+20
 30
-1.0000000000000000E+20
  9
$PLIMMIN
 10
0.0
 20
0.0
  9
$PLIMMAX
 10
12.0
 20
9.0
  9
$UNITMODE
 70
     0
  9
$VISRETAIN
 70
     1
  9
$PLINEGEN
 70
     0
  9
$PSLTSCALE
 70
     1
  0
ENDSEC
  0
SECTION
  2
TABLES
  0
TABLE
  2
VPORT
 70
     1
  0
VPORT
  2
*ACTIVE
 70
     0
 10
0.0
 20
0.0
 11
1.0
 21
1.0
 12
-166.2262246720819974
 22
6.375180913951711
 13
0.0
 23
0.0
 14
1.0
 24
1.0
 15
0.0
 25
0.0
 16
0.0
 26
0.0
 36
50.1863853749498219
 17
3869.302490234375
 27
130.1713453559245863
 37
0.0
 40
29.9169410467505301
 41
2.1211111111111101
 42
50.0
 43
0.0
 44
0.0
 50
0.0
 51
0.0
 71
     0
 72
   100
 73
     1
 74
     1
 75
     0
 76
     0
 77
     0
 78
     1
  0
ENDTAB
  0
TABLE
  2
LTYPE
 70
     2
  0
LTYPE
  2
CONTINUOUS
 70
     0
  3
Solid line
 72
    65
 73
     0
 40
0.0
  0
LTYPE
  2
PHANTOM2
 70
     0
  3
___ _ _ ___ _ _ ___ _ _ ___ _ _
 72
    65
 73
     6
 40
1.25
 49
0.625
 49
-0.125
 49
0.125
 49
-0.125
 49
0.125
 49
-0.125
  0
ENDTAB
  0
TABLE
  2
LAYER
 70
     2
  0
LAYER
  2
0
 70
     0
 62
   255
  6
CONTINUOUS
  0
LAYER
  2
DEFPOINTS
 70
     0
 62
     7
  6
CONTINUOUS
  0
ENDTAB
  0
TABLE
  2
STYLE
 70
     1
  0
STYLE
  2
STANDARD
 70
     0
 40
0.0
 41
0.8
 50
0.0
 71
     0
 42
0.2
  3
txt
  4

  0
ENDTAB
  0
TABLE
  2
VIEW
 70
     0
  0
ENDTAB
  0
TABLE
  2
UCS
 70
     0
  0
ENDTAB
  0
TABLE
  2
APPID
 70
     9
  0
APPID
  2
ACAD
 70
     0
  0
APPID
  2
ACAD_MLEADERVER
 70
     0
  0
APPID
  2
ACAD_EXEMPT_FROM_CAD_STANDARDS
 70
     0
  0
APPID
  2
ACAD_NAV_VCDISPLAY
 70
     0
  0
APPID
  2
ACAECLAYERSTANDARD
 70
     0
  0
APPID
  2
ACCMTRANSPARENCY
 70
     0
  0
APPID
  2
ACAD_DSTYLE_DIMJAG
 70
     0
  0
APPID
  2
ACAD_DSTYLE_DIMTALN
 70
     0
  0
APPID
  2
ACDBATTR
 70
     0
  0
ENDTAB
  0
TABLE
  2
DIMSTYLE
 70
     1
  0
DIMSTYLE
  2
STANDARD
 70
     0
  3

  4

  5

  6

  7

 40
1.0
 41
0.1875
 42
0.0625
 43
0.38
 44
0.125
 45
0.0
 46
0.0
 47
0.01
 48
0.01
140
0.15625
141
0.09
142
0.0
143
25.3999999999999986
144
1.0
145
0.0
146
1.0
147
0.09
 71
     1
 72
     0
 73
     1
 74
     1
 75
     0
 76
     0
 77
     0
 78
     4
170
     0
171
     2
172
     0
173
     0
174
     0
175
     0
176
     0
177
     0
178
     0
  0
ENDTAB
  0
ENDSEC
  0
SECTION
  2
BLOCKS
  0
BLOCK
  8
0
  2
$MODEL_SPACE
 70
     0
 10
0.0
 20
0.0
 30
0.0
  3
$MODEL_SPACE
  1

  0
ENDBLK
  5
21
  8
0
  0
BLOCK
 67
     1
  8
0
  2
$PAPER_SPACE
 70
     0
 10
0.0
 20
0.0
 30
0.0
  3
$PAPER_SPACE
  1

  0
ENDBLK
  5
1D
 67
     1
  8
0
  0
ENDSEC
  0
SECTION
  2
ENTITIES
  0
LINE
  5
A790
  8
0
 10
3686.0908474831990134
 20
147.8802838982356036
 30
0.0
 11
3696.9190056585289312
 21
147.8802838982356036
 31
0.0
  0
LINE
  5
A791
  8
0
 10
3686.4387116552188672
 20
151.3099346463920085
 30
0.0
 11
3719.903278584220061
 21
151.3099346463920085
 31
0.0
  0
LINE
  5
A792
  8
0
 10
3686.4387116552188672
 20
121.7823755911919932
 30
0.0
 11
3719.903278584220061
 21
121.7823755911919932
 31
0.0
  0
CIRCLE
  5
A793
  8
0
 10
3703.1709951197199189
 20
136.5461551187920008
 30
0.0
 40
1.0275590551
  0
CIRCLE
  5
A794
  8
0
 10
3703.1709951197199189
 20
136.5461551187920008
 30
0.0
 40
2.316750601799999
  0
LINE
  5
A795
  8
0
 10
3699.0957363531038027
 20
148.0027042150854868
 30
0.0
 11
3707.2466416463271344
 21
148.0027042150854868
 31
0.0
  0
LINE
  5
A796
  8
0
 10
3699.1160298798859003
 20
147.8347740174855005
 30
0.0
 11
3707.2263481195459462
 21
147.8347740174855005
 31
0.0
  0
LINE
  5
A797
  8
0
 10
3709.2134314441350398
 20
147.8347740174855005
 30
0.0
 11
3721.3005500531858161
 21
147.8347740174855005
 31
0.0
  0
ARC
  5
A798
  8
0
 10
3699.2635134707538782
 20
144.6433482959957928
 30
0.0
 40
3.3635429761383531
 50
92.8591611970046955
 51
96.5003863318470536
  0
ARC
  5
A799
  8
0
 10
3698.9226806842420956
 20
147.8368798468347904
 30
0.0
 40
0.153672207746592
 50
105.0696172517457967
 51
122.3376073815015985
  0
LINE
  5
A79A
  8
0
 10
3698.8404803383150465
 20
147.9667191727855027
 30
0.0
 11
3698.8404803383150465
 21
147.8707590598855006
 31
0.0
  0
ARC
  5
A79B
  8
0
 10
3698.8583875796980465
 20
147.8797684567325064
 30
0.0
 40
0.0200459104422717
 50
206.7076417677629081
 51
252.6307618535086874
  0
ARC
  5
A79C
  8
0
 10
3698.9905750606358197
 20
148.3330776705118126
 30
0.0
 40
0.4922316278572875
 50
253.6977292494931078
 51
266.6250072918958267
  0
ARC
  5
A79D
  8
0
 10
3699.1300126630421801
 20
149.8718309684053054
 30
0.0
 40
2.0371049407223252
 50
265.2577160516544836
 51
269.6067160135388008
  0
LINE
  5
A79E
  8
0
 10
3697.8607607878029739
 20
147.1100751718020945
 30
0.0
 11
3708.4816172116279631
 21
147.1100751718020945
 31
0.0
  0
LINE
  5
A79F
  8
0
 10
3697.8070220623349087
 20
148.0899543878855127
 30
0.0
 11
3708.5353559370969379
 21
148.0899543878855127
 31
0.0
  0
ARC
  5
A7A0
  8
0
 10
3697.8565008183741156
 20
147.6857663097721911
 30
0.0
 40
0.4072052919449801
 50
96.9791493910664855
 51
131.1606648790827023
  0
ARC
  5
A7A1
  8
0
 10
3697.8398960484869349
 20
147.7047600804239949
 30
0.0
 40
0.381976702873682
 50
131.1606648790821055
 51
169.2317416454459931
  0
ARC
  5
A7A2
  8
0
 10
3685.5002343830578866
 20
143.9856325197609976
 30
0.0
 40
12.5504975267216903
 50
16.140766182041169
 51
17.5789393950955208
  0
ARC
  5
A7A3
  8
0
 10
3698.0157346486507777
 20
147.5469367396134999
 30
0.0
 40
0.4653720456830552
 50
188.9362462990494862
 51
209.8682793801575883
  0
ARC
  5
A7A4
  8
0
 10
3697.9263580508918494
 20
147.4427719098356135
 30
0.0
 40
0.3391019322016176
 50
202.1028574400648097
 51
258.8461542990626185
  0
ARC
  5
A7A5
  8
0
 10
3698.4764450460138505
 20
154.5578899910352106
 30
0.0
 40
6.8568243798631441
 50
256.8714192059807147
 51
261.5143942992717143
  0
ARC
  5
A7A6
  8
0
 10
3707.0788645286770588
 20
144.6433482959957928
 30
0.0
 40
3.3635429761383531
 50
83.4996136681529606
 51
87.1408388029953045
  0
ARC
  5
A7A7
  8
0
 10
3707.4196973151888415
 20
147.8368798468347904
 30
0.0
 40
0.153672207746592
 50
57.6623926184984015
 51
74.9303827482542317
  0
LINE
  5
A7A8
  8
0
 10
3707.5018976611158905
 20
147.9667191727855027
 30
0.0
 11
3707.5018976611158905
 21
147.8707590598855006
 31
0.0
  0
ARC
  5
A7A9
  8
0
 10
3707.4839904197338001
 20
147.8797684567325064
 30
0.0
 40
0.0200459104422717
 50
287.3692381464912842
 51
333.2923582322371203
  0
ARC
  5
A7AA
  8
0
 10
3707.3518029387960269
 20
148.3330776705118126
 30
0.0
 40
0.4922316278572875
 50
273.3749927081041733
 51
286.3022707505069206
  0
ARC
  5
A7AB
  8
0
 10
3707.2123653363901212
 20
149.8718309684053054
 30
0.0
 40
2.0371049407223252
 50
270.3932839864611992
 51
274.7422839483455164
  0
ARC
  5
A7AC
  8
0
 10
3708.4858771810581857
 20
147.6857663097721911
 30
0.0
 40
0.4072052919449801
 50
48.8393351209172835
 51
83.0208506089335145
  0
ARC
  5
A7AD
  8
0
 10
3708.5024819509440022
 20
147.7047600804239949
 30
0.0
 40
0.381976702873682
 50
10.7682583545539501
 51
48.8393351209178306
  0
ARC
  5
A7AE
  8
0
 10
3720.84214361637396
 20
143.9856325197609976
 30
0.0
 40
12.5504975267216903
 50
162.4210606049045111
 51
163.8592338179587955
  0
ARC
  5
A7AF
  8
0
 10
3708.3266433507810689
 20
147.5469367396134999
 30
0.0
 40
0.4653720456830552
 50
330.1317206198423833
 51
351.0637537009504854
  0
ARC
  5
A7B0
  8
0
 10
3708.4160199485390876
 20
147.4427719098356135
 30
0.0
 40
0.3391019322016176
 50
281.1538457009373815
 51
337.8971425599352187
  0
ARC
  5
A7B1
  8
0
 10
3707.8659329534170865
 20
154.5578899910352106
 30
0.0
 40
6.8568243798631441
 50
278.4856057007282857
 51
281.3334919436975952
  0
ARC
  5
A7CA
  8
0
 10
3686.4387116552188672
 20
136.5461551187927114
 30
0.0
 40
14.7637795275993309
 50
90.0
 51
106.2418206454243972
  0
ARC
  5
A7CB
  8
0
 10
3686.4387116552188672
 20
136.5461551187918019
 30
0.0
 40
14.7637795276001995
 50
106.2418206454243972
 51
139.0948789385136024
  0
ARC
  5
A7CC
  8
0
 10
3686.4387116552188672
 20
136.5461551187920008
 30
0.0
 40
14.76377952759991
 50
139.0948789385136024
 51
180.0
  0
ARC
  5
A7CD
  8
0
 10
3684.2648592145351358
 20
136.5270589231861891
 30
0.0
 40
11.3144428519034808
 50
146.8240575552580083
 51
179.9032977631559049
  0
ARC
  5
A7CE
  8
0
 10
3683.9341073677378517
 20
136.7432985747728935
 30
0.0
 40
10.91927659438878
 50
120.1982993594610036
 51
146.8240575552580083
  0
ARC
  5
A7CF
  8
0
 10
3684.1967649129492202
 20
136.2919769147559919
 30
0.0
 40
11.4414645173217107
 50
96.2318274580803035
 51
120.1982993594610036
  0
ARC
  5
A7D0
  8
0
 10
3687.1695902318351727
 20
109.067515998401305
 30
0.0
 40
38.8277560253505882
 50
91.5920405171649747
 51
96.2318274580802324
  0
LINE
  5
A7D1
  8
0
 10
3688.746206174848794
 20
145.6967721961148925
 30
0.0
 11
3717.5957840645901342
 21
145.6967721961148925
 31
0.0
  0
LINE
  5
A7D2
  8
0
 10
3688.9049259531520875
 20
127.3942636528392001
 30
0.0
 11
3717.437064286288205
 21
127.3942636528392001
 31
0.0
  0
ARC
  5
A7D3
  8
0
 10
3689.3560119423041215
 20
137.2197003865065028
 30
0.0
 40
9.8357859664039466
 50
246.8381791775343004
 51
267.3713954213794182
  0
ARC
  5
A7D4
  8
0
 10
3688.3421507106831996
 20
134.8498248279715881
 30
0.0
 40
7.2581465890038288
 50
222.7885876225356014
 51
246.8381791775343004
  0
ARC
  5
A7D5
  8
0
 10
3690.0525280103120167
 20
136.4330188804264026
 30
0.0
 40
9.588788971440902
 50
202.8526978829465008
 51
222.7885876225356014
  0
ARC
  5
A7D6
  8
0
 10
3689.4416208477459804
 20
136.175555730155196
 30
0.0
 40
8.9258449051561861
 50
187.4014306517323973
 51
202.8526978829465008
  0
ARC
  5
A7D7
  8
0
 10
3693.7334337655311174
 20
136.7330738786122026
 30
0.0
 40
13.2537178939496005
 50
180.8080759820340973
 51
187.4014306517323973
  0
ARC
  5
A7D8
  8
0
 10
3690.0436266147480637
 20
136.6810309136317017
 30
0.0
 40
9.5635437408539605
 50
162.572988113229286
 51
180.8080759820340973
  0
ARC
  5
A7D9
  8
0
 10
3690.3978553066099266
 20
136.5698389429093993
 30
0.0
 40
9.9348140204239908
 50
144.820547584643009
 51
162.572988113229286
  0
ARC
  5
A7DA
  8
0
 10
3688.4083423986980961
 20
137.9722176553866859
 30
0.0
 40
7.5007171316458043
 50
126.5113118702571029
 51
144.820547584643009
  0
ARC
  5
A7DB
  8
0
 10
3689.1039396707169544
 20
137.0325599360924969
 30
0.0
 40
8.669824566515679
 50
112.844623039882805
 51
126.5113118702571029
  0
ARC
  5
A7DC
  8
0
 10
3688.7396463922891598
 20
137.8972935569466927
 30
0.0
 40
7.731488897502051
 50
99.7410510387269085
 51
112.844623039882805
  0
ARC
  5
A7DD
  8
0
 10
3690.7000599223388235
 20
126.4776726093891028
 30
0.0
 40
19.3181607144951215
 50
95.8048651531061637
 51
99.7410510387269085
  0
ARC
  5
A7DE
  8
0
 10
3686.4387116552188672
 20
136.546155118791404
 30
0.0
 40
14.7637795275993309
 50
253.7581793545755886
 51
270.0
  0
ARC
  5
A7DF
  8
0
 10
3686.4387116552188672
 20
136.5461551187921998
 30
0.0
 40
14.7637795276001995
 50
220.9051210614863976
 51
253.7581793545755886
  0
ARC
  5
A7E0
  8
0
 10
3686.4387116552188672
 20
136.5461551187920008
 30
0.0
 40
14.76377952759991
 50
180.0
 51
220.9051210614863976
  0
ARC
  5
A7E1
  8
0
 10
3684.2648592145351358
 20
136.5652513143978126
 30
0.0
 40
11.3144428519034808
 50
180.0967022368440951
 51
213.1759424447419917
  0
ARC
  5
A7E2
  8
0
 10
3683.9341073677378517
 20
136.3490116628111082
 30
0.0
 40
10.91927659438878
 50
213.1759424447419917
 51
239.8017006405389964
  0
ARC
  5
A7E3
  8
0
 10
3684.1967649129492202
 20
136.8003333228280098
 30
0.0
 40
11.4414645173217107
 50
239.8017006405389964
 51
263.7681725419196823
  0
ARC
  5
A7E4
  8
0
 10
3687.1695902318351727
 20
164.024794239182711
 30
0.0
 40
38.8277560253505882
 50
263.768172541919796
 51
268.4079594828349968
  0
LINE
  5
A7E5
  8
0
 10
3686.0908474831990134
 20
125.2120263393483981
 30
0.0
 11
3720.2511427562408244
 21
125.2120263393483981
 31
0.0
  0
ARC
  5
A7E6
  8
0
 10
3719.903278584220061
 20
136.5461551187927114
 30
0.0
 40
14.7637795275993309
 50
73.7581793545755602
 51
90.0
  0
ARC
  5
A7E7
  8
0
 10
3719.9032785842191515
 20
136.5461551187918019
 30
0.0
 40
14.7637795276001995
 50
40.9051210614863976
 51
73.7581793545755602
  0
ARC
  5
A7E8
  8
0
 10
3719.903278584220061
 20
136.5461551187920008
 30
0.0
 40
14.76377952759991
 50
0.0
 51
40.9051210614863976
  0
ARC
  5
A7E9
  8
0
 10
3722.0771310249037924
 20
136.5270589231861891
 30
0.0
 40
11.3144428519034808
 50
0.0967022368441464
 51
33.1759424447419633
  0
ARC
  5
A7EA
  8
0
 10
3722.4078828717010765
 20
136.7432985747728935
 30
0.0
 40
10.91927659438878
 50
33.1759424447419633
 51
59.8017006405390106
  0
ARC
  5
A7EB
  8
0
 10
3722.1452253264887986
 20
136.2919769147559919
 30
0.0
 40
11.4414645173217107
 50
59.8017006405390106
 51
83.768172541919796
  0
ARC
  5
A7EC
  8
0
 10
3719.6237199210290783
 20
114.1526411440132023
 30
0.0
 40
33.7238466696542432
 50
83.5925915955295267
 51
87.1499419192114146
  0
ARC
  5
A7ED
  8
0
 10
3716.9859782971348068
 20
137.2197003865065028
 30
0.0
 40
9.8357859664039466
 50
272.6286045786205818
 51
293.1618208224655859
  0
ARC
  5
A7EE
  8
0
 10
3717.9998395287561834
 20
134.8498248279715881
 30
0.0
 40
7.2581465890038288
 50
293.1618208224655859
 51
317.2114123774643986
  0
ARC
  5
A7EF
  8
0
 10
3716.289462229127821
 20
136.4330188804264026
 30
0.0
 40
9.588788971440902
 50
317.2114123774643986
 51
337.1473021170535276
  0
ARC
  5
A7F0
  8
0
 10
3716.9003693916929478
 20
136.175555730155196
 30
0.0
 40
8.9258449051561861
 50
337.1473021170535276
 51
352.5985693482675742
  0
ARC
  5
A7F1
  8
0
 10
3712.6085564739078109
 20
136.7330738786122026
 30
0.0
 40
13.2537178939496005
 50
352.5985693482675742
 51
359.1919240179659027
  0
ARC
  5
A7F2
  8
0
 10
3716.2983636246908645
 20
136.6810309136317017
 30
0.0
 40
9.5635437408539605
 50
359.1919240179659027
 51
17.4270118867706891
  0
ARC
  5
A7F3
  8
0
 10
3715.9441349328280921
 20
136.5698389429093993
 30
0.0
 40
9.9348140204239908
 50
17.4270118867706891
 51
35.1794524153569483
  0
ARC
  5
A7F4
  8
0
 10
3717.9336478407408322
 20
137.9722176553866859
 30
0.0
 40
7.5007171316458043
 50
35.1794524153569483
 51
53.4886881297428332
  0
ARC
  5
A7F5
  8
0
 10
3717.2380505687228833
 20
137.0325599360924969
 30
0.0
 40
8.669824566515679
 50
53.4886881297428332
 51
67.1553769601171524
  0
ARC
  5
A7F6
  8
0
 10
3717.6023438471511326
 20
137.8972935569466927
 30
0.0
 40
7.731488897502051
 50
67.1553769601171524
 51
80.2589489612730773
  0
ARC
  5
A7F7
  8
0
 10
3715.6419303171001047
 20
126.4776726093891028
 30
0.0
 40
19.3181607144951215
 50
80.2589489612730773
 51
84.1951348468938363
  0
ARC
  5
A7F8
  8
0
 10
3719.903278584220061
 20
136.546155118791404
 30
0.0
 40
14.7637795275993309
 50
270.0
 51
286.2418206454245251
  0
ARC
  5
A7F9
  8
0
 10
3719.9032785842191515
 20
136.5461551187921998
 30
0.0
 40
14.7637795276001995
 50
286.2418206454245251
 51
319.0948789385136024
  0
ARC
  5
A7FA
  8
0
 10
3719.903278584220061
 20
136.5461551187920008
 30
0.0
 40
14.76377952759991
 50
319.0948789385136024
 51
0.0
  0
ARC
  5
A7FB
  8
0
 10
3722.0771310249037924
 20
136.5652513143978126
 30
0.0
 40
11.3144428519034808
 50
326.8240575552579799
 51
359.9032977631558765
  0
ARC
  5
A7FC
  8
0
 10
3722.4078828717010765
 20
136.3490116628111082
 30
0.0
 40
10.91927659438878
 50
300.1982993594609752
 51
326.8240575552579799
  0
ARC
  5
A7FD
  8
0
 10
3722.1452253264887986
 20
136.8003333228280098
 30
0.0
 40
11.4414645173217107
 50
276.2318274580803177
 51
300.1982993594609752
  0
ARC
  5
A7FE
  8
0
 10
3719.1724000076042103
 20
164.024794239182711
 30
0.0
 40
38.8277560253505882
 50
271.5920405171650032
 51
276.231827458080204
  0
ATTDEF
  5
A802
  8
DEFPOINTS
 10
3703.1594646584658221
 20
136.5435773076893895
 30
0.0
 40
0.001
  1
K-99313T-FD
  3

  2
MODELNUMBER
 70
     0
1001
ACDBATTR
1070
     0
1070
     1
  0
ATTDEF
  5
A803
  8
DEFPOINTS
 10
3703.1594646584658221
 20
136.5419106410228096
 30
0.0
 40
0.001
  1
VOLUTE
  3

  2
TRADENAME
 70
     0
1001
ACDBATTR
1070
     0
1070
     1
  0
ATTDEF
  5
A804
  8
DEFPOINTS
 10
3703.1594646584658221
 20
136.5402439743560876
 30
0.0
 40
0.001
  1
BATH
  3

  2
PRODUCT
 70
     0
1001
ACDBATTR
1070
     0
1070
     1
  0
ENDSEC
  0
EOF
