  0
SECTION
  2
HEADER
  9
$ACADVER
  1
AC1009
  9
$INSBASE
 10
4133.498310222260443
 20
188.0624637958991912
 30
0.0
  9
$EXTMIN
 10
4118.0848132442588394
 20
180.1691492693896066
 30
-0.0000000000000058
  9
$EXTMAX
 10
4149.1502474792359862
 20
190.6140756542588974
 30
0.0000000000000104
  9
$LIMMIN
 10
0.0
 20
0.0
  9
$LIMMAX
 10
11.6929133858000007
 20
8.2677165353999982
  9
$ORTHOMODE
 70
     0
  9
$REGENMODE
 70
     1
  9
$FILLMODE
 70
     1
  9
$QTEXTMODE
 70
     0
  9
$MIRRTEXT
 70
     0
  9
$DRAGMODE
 70
     2
  9
$LTSCALE
 40
0.6431102362
  9
$OSMODE
 70
  4095
  9
$ATTMODE
 70
     1
  9
$TEXTSIZE
 40
0.2
  9
$TRACEWID
 40
0.05
  9
$TEXTSTYLE
  7
STANDARD
  9
$CLAYER
  8
0
  9
$CELTYPE
  6
BYLAYER
  9
$CECOLOR
 62
   256
  9
$DIMSCALE
 40
1.0
  9
$DIMASZ
 40
0.1875
  9
$DIMEXO
 40
0.0625
  9
$DIMDLI
 40
0.4443307087
  9
$DIMRND
 40
0.0
  9
$DIMDLE
 40
0.0
  9
$DIMEXE
 40
0.125
  9
$DIMTP
 40
0.01
  9
$DIMTM
 40
0.01
  9
$DIMTXT
 40
2.0
  9
$DIMCEN
 40
0.1052362205
  9
$DIMTSZ
 40
0.0
  9
$DIMTOL
 70
     1
  9
$DIMLIM
 70
     0
  9
$DIMTIH
 70
     1
  9
$DIMTOH
 70
     1
  9
$DIMSE1
 70
     0
  9
$DIMSE2
 70
     0
  9
$DIMTAD
 70
     0
  9
$DIMZIN
 70
     0
  9
$DIMBLK
  1

  9
$DIMASO
 70
     1
  9
$DIMSHO
 70
     1
  9
$DIMPOST
  1
\X
  9
$DIMAPOST
  1

  9
$DIMALT
 70
     1
  9
$DIMALTD
 70
     2
  9
$DIMALTF
 40
25.3999999999999986
  9
$DIMLFAC
 40
1.0
  9
$DIMTOFL
 70
     0
  9
$DIMTVP
 40
0.0
  9
$DIMTIX
 70
     0
  9
$DIMSOXD
 70
     0
  9
$DIMSAH
 70
     0
  9
$DIMBLK1
  1

  9
$DIMBLK2
  1

  9
$DIMSTYLE
  2
STANDARD
  9
$DIMCLRD
 70
     0
  9
$DIMCLRE
 70
     0
  9
$DIMCLRT
 70
     0
  9
$DIMTFAC
 40
1.0
  9
$DIMGAP
 40
0.09
  9
$LUNITS
 70
     2
  9
$LUPREC
 70
     4
  9
$SKETCHINC
 40
0.1
  9
$FILLETRAD
 40
0.0
  9
$AUNITS
 70
     0
  9
$AUPREC
 70
     0
  9
$MENU
  1
.
  9
$ELEVATION
 40
0.0
  9
$PELEVATION
 40
0.0
  9
$THICKNESS
 40
0.0
  9
$LIMCHECK
 70
     0
  9
$BLIPMODE
 70
     0
  9
$CHAMFERA
 40
0.0
  9
$CHAMFERB
 40
0.0
  9
$SKPOLY
 70
     0
  9
$TDCREATE
 40
2458060.468368056230247
  9
$TDUPDATE
 40
2459179.8809143519029021
  9
$TDINDWG
 40
0.4460950231
  9
$TDUSRTIMER
 40
0.4460950231
  9
$USRTIMER
 70
     1
  9
$ANGBASE
 50
0.0
  9
$ANGDIR
 70
     0
  9
$PDMODE
 70
     0
  9
$PDSIZE
 40
0.3125
  9
$PLINEWID
 40
0.0
  9
$COORDS
 70
     1
  9
$SPLFRAME
 70
     0
  9
$SPLINETYPE
 70
     6
  9
$SPLINESEGS
 70
     8
  9
$ATTDIA
 70
     1
  9
$ATTREQ
 70
     1
  9
$HANDLING
 70
     1
  9
$HANDSEED
  5
188C8
  9
$SURFTAB1
 70
     6
  9
$SURFTAB2
 70
     6
  9
$SURFTYPE
 70
     6
  9
$SURFU
 70
     6
  9
$SURFV
 70
     6
  9
$UCSNAME
  2

  9
$UCSORG
 10
0.0
 20
0.0
 30
0.0
  9
$UCSXDIR
 10
1.0
 20
0.0
 30
0.0
  9
$UCSYDIR
 10
0.0
 20
1.0
 30
0.0
  9
$PUCSNAME
  2

  9
$PUCSORG
 10
0.0
 20
0.0
 30
0.0
  9
$PUCSXDIR
 10
1.0
 20
0.0
 30
0.0
  9
$PUCSYDIR
 10
0.0
 20
1.0
 30
0.0
  9
$USERI1
 70
     0
  9
$USERI2
 70
     0
  9
$USERI3
 70
     0
  9
$USERI4
 70
     0
  9
$USERI5
 70
     0
  9
$USERR1
 40
0.0
  9
$USERR2
 40
0.0
  9
$USERR3
 40
0.0
  9
$USERR4
 40
0.0
  9
$USERR5
 40
0.0
  9
$WORLDVIEW
 70
     1
  9
$SHADEDGE
 70
     3
  9
$SHADEDIF
 70
    70
  9
$TILEMODE
 70
     1
  9
$MAXACTVP
 70
    64
  9
$PLIMCHECK
 70
     0
  9
$PEXTMIN
 10
1.0000000000000000E+20
 20
1.0000000000000000E+20
 30
1.0000000000000000E+20
  9
$PEXTMAX
 10
-1.0000000000000000E+20
 20
-1.0000000000000000E+20
 30
-1.0000000000000000E+20
  9
$PLIMMIN
 10
0.0
 20
0.0
  9
$PLIMMAX
 10
12.0
 20
9.0
  9
$UNITMODE
 70
     0
  9
$VISRETAIN
 70
     1
  9
$PLINEGEN
 70
     0
  9
$PSLTSCALE
 70
     1
  0
ENDSEC
  0
SECTION
  2
TABLES
  0
TABLE
  2
VPORT
 70
     1
  0
VPORT
  2
*ACTIVE
 70
     0
 10
0.0
 20
0.0
 11
1.0
 21
1.0
 12
222.2521739164349128
 22
52.8120073592852535
 13
0.0
 23
0.0
 14
1.0
 24
1.0
 15
0.0
 25
0.0
 16
0.0
 26
0.0
 36
60.4960186965801583
 17
3911.3653564453120453
 27
132.5796051025390057
 37
0.0
 40
10.8070556547595498
 41
2.887234042553191
 42
50.0
 43
0.0
 44
0.0
 50
0.0
 51
0.0
 71
     0
 72
   100
 73
     1
 74
     1
 75
     0
 76
     0
 77
     0
 78
     0
  0
ENDTAB
  0
TABLE
  2
LTYPE
 70
     2
  0
LTYPE
  2
CONTINUOUS
 70
     0
  3
Solid line
 72
    65
 73
     0
 40
0.0
  0
LTYPE
  2
PHANTOM2
 70
     0
  3
___ _ _ ___ _ _ ___ _ _ ___ _ _
 72
    65
 73
     6
 40
1.25
 49
0.625
 49
-0.125
 49
0.125
 49
-0.125
 49
0.125
 49
-0.125
  0
ENDTAB
  0
TABLE
  2
LAYER
 70
     2
  0
LAYER
  2
0
 70
     0
 62
   255
  6
CONTINUOUS
  0
LAYER
  2
DEFPOINTS
 70
     0
 62
     7
  6
CONTINUOUS
  0
ENDTAB
  0
TABLE
  2
STYLE
 70
     1
  0
STYLE
  2
STANDARD
 70
     0
 40
0.0
 41
0.8
 50
0.0
 71
     0
 42
0.2
  3
txt
  4

  0
ENDTAB
  0
TABLE
  2
VIEW
 70
     0
  0
ENDTAB
  0
TABLE
  2
UCS
 70
     0
  0
ENDTAB
  0
TABLE
  2
APPID
 70
    11
  0
APPID
  2
ACAD
 70
     0
  0
APPID
  2
ACAD_MLEADERVER
 70
     0
  0
APPID
  2
ACAD_EXEMPT_FROM_CAD_STANDARDS
 70
     0
  0
APPID
  2
ACAD_NAV_VCDISPLAY
 70
     0
  0
APPID
  2
ACAECLAYERSTANDARD
 70
     0
  0
APPID
  2
ACCMTRANSPARENCY
 70
     0
  0
APPID
  2
ACAD_DSTYLE_DIMJAG
 70
     0
  0
APPID
  2
ACAD_DSTYLE_DIMTALN
 70
     0
  0
APPID
  2
ACDBATTR
 70
     0
  0
APPID
  2
ACADANNOTATIVE
 70
     0
  0
APPID
  2
DCO15
 70
     0
  0
ENDTAB
  0
TABLE
  2
DIMSTYLE
 70
     1
  0
DIMSTYLE
  2
STANDARD
 70
     0
  3

  4

  5

  6

  7

 40
1.0
 41
0.1875
 42
0.0625
 43
0.38
 44
0.125
 45
0.0
 46
0.0
 47
0.01
 48
0.01
140
0.15625
141
0.09
142
0.0
143
25.3999999999999986
144
1.0
145
0.0
146
1.0
147
0.09
 71
     1
 72
     0
 73
     1
 74
     1
 75
     0
 76
     0
 77
     0
 78
     4
170
     0
171
     2
172
     0
173
     0
174
     0
175
     0
176
     0
177
     0
178
     0
  0
ENDTAB
  0
ENDSEC
  0
SECTION
  2
BLOCKS
  0
BLOCK
  8
0
  2
$MODEL_SPACE
 70
     0
 10
0.0
 20
0.0
 30
0.0
  3
$MODEL_SPACE
  1

  0
ENDBLK
  5
21
  8
0
  0
BLOCK
 67
     1
  8
0
  2
$PAPER_SPACE
 70
     0
 10
0.0
 20
0.0
 30
0.0
  3
$PAPER_SPACE
  1

  0
ENDBLK
  5
1D
 67
     1
  8
0
  0
ENDSEC
  0
SECTION
  2
ENTITIES
  0
ATTDEF
  5
18455
  8
DEFPOINTS
 10
4133.4912481735937035
 20
188.0580319120973911
 30
0.0
 40
0.001
  1
K-99359T-2SD
  3

  2
MODELNUMBER
 70
     0
1001
ACDBATTR
1070
     0
1070
     1
  0
ATTDEF
  5
18456
  8
DEFPOINTS
 10
4133.4911223639373929
 20
188.0563650717182043
 30
0.0
 40
0.001
  1
LISON
  3

  2
TRADENAME
 70
     0
1001
ACDBATTR
1070
     0
1070
     1
  0
ATTDEF
  5
18457
  8
DEFPOINTS
 10
4133.4912481735937035
 20
188.0546985787640892
 30
0.0
 40
0.001
  1
KITCHEN SINK
  3

  2
PRODUCT
 70
     0
1001
ACDBATTR
1070
     0
1070
     1
  0
LINE
  5
18771
  8
0
 10
4120.0869174024946915
 20
190.4365037854992124
 30
0.0
 11
4120.0966135736962315
 21
188.8617976016992088
 31
0.0
  0
LINE
  5
18772
  8
0
 10
4120.0769265271956101
 20
188.8419913549992089
 30
0.0
 11
4118.9669382328956999
 21
188.8419913549992089
 31
0.0
  0
LINE
  5
18773
  8
0
 10
4119.9821017423955709
 20
188.8419913549992089
 30
0.0
 11
4119.985761027094668
 21
188.4226788581991912
 31
0.0
  0
LINE
  5
18774
  8
0
 10
4120.000350453896317
 20
188.4038363523991961
 30
0.0
 11
4120.3331329541961168
 21
188.3146675501992036
 31
0.0
  0
LINE
  5
18775
  8
0
 10
4118.9608932213950538
 20
190.4404165518992045
 30
0.0
 11
4120.0829715386962562
 21
190.4404165518992045
 31
0.0
  0
LINE
  5
18776
  8
0
 10
4120.0857091660964215
 20
190.4797866305991931
 30
0.0
 11
4118.9581503258959856
 21
190.4797866305991931
 31
0.0
  0
LINE
  5
18777
  8
0
 10
4119.987118722597188
 20
190.5968460273992093
 30
0.0
 11
4120.0831182535948756
 21
190.5799175951991913
 31
0.0
  0
LINE
  5
18778
  8
0
 10
4120.0747384088954277
 20
190.4797866305991931
 30
0.0
 11
4120.0750479283960885
 21
190.4443192032991874
 31
0.0
  0
LINE
  5
18779
  8
0
 10
4120.0928842435960178
 20
190.5683890768991944
 30
0.0
 11
4120.0935881502955453
 21
190.4877293592992089
 31
0.0
  0
ARC
  5
1877A
  8
0
 10
4119.9529360109681875
 20
190.4029862362530139
 30
0.0
 40
0.1968503908999492
 50
80.0000000074028463
 51
87.375865113051745
  0
ARC
  5
1877B
  8
0
 10
4120.0810760512558772
 20
190.568286891966693
 30
0.0
 40
0.0118086344712692
 50
0.4958099471847664
 51
80.0411147198887818
  0
ARC
  5
1877C
  8
0
 10
4120.0857144312285527
 20
190.487660647712886
 30
0.0
 40
0.0078740188739907
 50
269.9616879350402883
 51
0.4999904026861664
  0
ARC
  5
1877D
  8
0
 10
4120.0789847864070907
 20
190.4443535598186088
 30
0.0
 40
0.0039370079210112
 50
180.5000011644042104
 51
270.0
  0
ARC
  5
1877E
  8
0
 10
4120.0829804518652963
 20
190.4364795366805936
 30
0.0
 40
0.0039370253080516
 50
0.3528968296802388
 51
90.1297140255082354
  0
ARC
  5
1877F
  8
0
 10
4120.07692890727958
 20
188.8616763944318109
 30
0.0
 40
0.0196850395764755
 50
269.9930724678504248
 51
0.3527912008834881
  0
ARC
  5
18780
  8
0
 10
4120.0054453169468616
 20
188.4228506403570975
 30
0.0
 40
0.019685039396874
 50
180.4999998917552944
 51
255.0000001455042877
  0
ARC
  5
18781
  8
0
 10
4120.3280380911719476
 20
188.2956532622814905
 30
0.0
 40
0.0196850393510163
 50
8.8573608946604221
 51
75.0000001917648689
  0
LINE
  5
18782
  8
0
 10
4119.4116962886446345
 20
190.1136449930492063
 30
0.0
 11
4119.4116962886446345
 21
189.4450427153533951
 31
0.0
  0
LINE
  5
18783
  8
0
 10
4119.6321685403454467
 20
190.1136449930492063
 30
0.0
 11
4119.6321685403454467
 21
189.4450439049199133
 31
0.0
  0
LINE
  5
18784
  8
0
 10
4118.9569474264962992
 20
190.4365037854992124
 30
0.0
 11
4118.9472512552956687
 21
188.8617976016992088
 31
0.0
  0
LINE
  5
18785
  8
0
 10
4119.0617630865963292
 20
188.8419913549992089
 30
0.0
 11
4119.0581038018963227
 21
188.4226788581991912
 31
0.0
  0
LINE
  5
18786
  8
0
 10
4119.0435143750946736
 20
188.4038363523991961
 30
0.0
 11
4118.7107318747948739
 21
188.3146675501992036
 31
0.0
  0
LINE
  5
18787
  8
0
 10
4119.0567461063947121
 20
190.5968460273992093
 30
0.0
 11
4118.9607465753952056
 21
190.5799175951991913
 31
0.0
  0
LINE
  5
18788
  8
0
 10
4118.9691264200955629
 20
190.4797866305991931
 30
0.0
 11
4118.9688169005958116
 21
190.4443192032991874
 31
0.0
  0
LINE
  5
18789
  8
0
 10
4118.9509805853949729
 20
190.5683890768991944
 30
0.0
 11
4118.9502766786954453
 21
190.4877293592992089
 31
0.0
  0
ARC
  5
1878A
  8
0
 10
4119.0909289259798243
 20
190.4029854829906867
 30
0.0
 40
0.1968511514650617
 50
92.6241762421936841
 51
99.9999928656777968
  0
ARC
  5
1878B
  8
0
 10
4118.9627887777351134
 20
190.568286891966693
 30
0.0
 40
0.0118086344712692
 50
99.9588852801112324
 51
179.5041900528152041
  0
ARC
  5
1878C
  8
0
 10
4118.9581503947783858
 20
190.4876606464987105
 30
0.0
 40
0.0078740158998498
 50
179.5000005734682134
 51
269.9994987747083997
  0
ARC
  5
1878D
  8
0
 10
4118.9648800425848094
 20
190.4443535598186088
 30
0.0
 40
0.0039370079210112
 50
270.0
 51
359.4999988355950222
  0
ARC
  5
1878E
  8
0
 10
4118.9608843768610313
 20
190.4364795367922909
 30
0.0
 40
0.0039370250415394
 50
89.8712848057992204
 51
179.6471047724394055
  0
ARC
  5
1878F
  8
0
 10
4118.9669359216977682
 20
188.8616763944260981
 30
0.0
 40
0.0196850395625705
 50
179.6472087822862136
 51
270.0067270306194018
  0
ARC
  5
18790
  8
0
 10
4119.0384195120450386
 20
188.4228506403570975
 30
0.0
 40
0.019685039396874
 50
284.9999998544956838
 51
359.5000001082439098
  0
ARC
  5
18791
  8
0
 10
4118.7158267378199525
 20
188.2956532622814905
 30
0.0
 40
0.0196850393510163
 50
104.9999998082353017
 51
171.1426391053396117
  0
ARC
  5
18792
  8
0
 10
4119.5219323800947677
 20
180.9989654943989876
 30
0.0
 40
9.6107427975002242
 50
87.3758650109128183
 51
92.6241349890871959
  0
ARC
  5
18793
  8
0
 10
4119.4680804572772104
 20
189.4450427153533951
 30
0.0
 40
0.0563841686312793
 50
180.0
 51
219.3415805034034918
  0
ARC
  5
18794
  8
0
 10
4119.5219308310943234
 20
189.5369415087835137
 30
0.0
 40
0.1655118159086551
 50
246.9327841635434879
 51
293.0672158364565121
  0
ARC
  5
18795
  8
0
 10
4119.4927258718962548
 20
189.4657394662490049
 30
0.0
 40
0.0885658205888332
 50
219.5891543096263092
 51
246.2678405087671081
  0
ARC
  5
18796
  8
0
 10
4119.5757887127256254
 20
189.4450439049199133
 30
0.0
 40
0.0563798276190736
 50
320.6563664438747878
 51
0.0
  0
ARC
  5
18797
  8
0
 10
4119.5511741580339731
 20
189.4656911830552133
 30
0.0
 40
0.0885061802205062
 50
293.7220016206638888
 51
320.4214754576880182
  0
ARC
  5
18798
  8
0
 10
4119.5219323799346967
 20
189.4002559560157977
 30
0.0
 40
0.0955909316834118
 50
42.2941601320212115
 51
137.7058398679781135
  0
ARC
  5
18799
  8
0
 10
4119.4812254556800326
 20
189.4412037738038066
 30
0.0
 40
0.0380351284039973
 50
142.0724048089687983
 51
217.9275951910126139
  0
ARC
  5
1879A
  8
0
 10
4119.5219323803994484
 20
189.4928137836554072
 30
0.0
 40
0.1030681114562528
 50
226.6827497690916005
 51
313.3172495237058115
  0
ARC
  5
1879B
  8
0
 10
4119.5626393039419781
 20
189.4412037733675049
 30
0.0
 40
0.0380351288692581
 50
322.0724045217630191
 51
37.9275954782396099
  0
ARC
  5
1879C
  8
0
 10
4119.5219324144945858
 20
190.1136449930492063
 30
0.0
 40
0.1102361258499975
 50
0.0
 51
180.0
  0
ARC
  5
1879D
  8
0
 10
4119.5219324144945858
 20
190.1136449930492063
 30
0.0
 40
0.1139952193500004
 50
345.2450890266418924
 51
194.7549109733643888
  0
LINE
  5
1879E
  8
0
 10
4119.0435143750946736
 20
188.4038363523991961
 30
0.0
 11
4120.000350453896317
 21
188.4038363523991961
 31
0.0
  0
LINE
  5
1879F
  8
0
 10
4118.7107318747948739
 20
188.3146675501992036
 30
0.0
 11
4120.3331329541961168
 21
188.3146675501992036
 31
0.0
  0
LINE
  5
187A0
  8
0
 10
4118.143979513611157
 20
188.0624637958991912
 30
0.0
 11
4148.8526409309097289
 21
188.0624637958991912
 31
0.0
  0
LINE
  5
187A1
  8
0
 10
4118.2226795136102737
 20
188.2986842683991995
 30
0.0
 11
4148.7739409309106122
 21
188.2986842683991995
 31
0.0
  0
LINE
  5
187A2
  8
0
 10
4118.143979513611157
 20
188.0624637958991912
 30
0.0
 11
4118.143979513611157
 21
188.2199842683992017
 31
0.0
  0
LINE
  5
187A3
  8
0
 10
4148.8526409309097289
 20
188.2199842683992017
 30
0.0
 11
4148.8526409309097289
 21
188.0624637958991912
 31
0.0
  0
LINE
  5
187A4
  8
0
 10
4119.6153084201614547
 20
182.0409162319726022
 30
0.0
 11
4119.2997324845109688
 21
188.0624637958991912
 31
0.0
  0
LINE
  5
187A5
  8
0
 10
4124.9107647670762162
 20
180.3945537394999974
 30
0.0
 11
4121.1572764810462104
 21
180.5256284387249934
 31
0.0
  0
LINE
  5
187A6
  8
0
 10
4125.0413781325696618
 20
180.2419807783994088
 30
0.0
 11
4124.9476667780745629
 21
180.3746183878058957
 31
0.0
  0
LINE
  5
187A7
  8
0
 10
4125.3226289444100985
 20
180.1766370242993105
 30
0.0
 11
4125.0944370375336803
 21
180.2094966588277032
 31
0.0
  0
LINE
  5
187A8
  8
0
 10
4125.3226289444100985
 20
180.1766370242993105
 30
0.0
 11
4129.2247789017046671
 21
180.1766370242984863
 31
0.0
  0
ARC
  5
187A9
  8
0
 10
4125.1056541353664215
 20
180.2873931716908942
 30
0.0
 40
0.0787
 50
215.2420365652301086
 51
261.8057366805277866
  0
ARC
  5
187AA
  8
0
 10
4124.9091175108305833
 20
180.3473824924647033
 30
0.0
 40
0.0472
 50
35.2420365652314089
 51
88.0000000000224247
  0
ARC
  5
187AB
  8
0
 10
4121.2131156757695862
 20
182.1246537619556136
 30
0.0
 40
1.6000000000000001
 50
182.9999999997949089
 51
268.0000000000223963
  0
LINE
  5
187AC
  8
0
 10
4134.9320866835751076
 20
182.040912261905703
 30
0.0
 11
4135.2169641663813309
 21
187.4764592807892996
 31
0.0
  0
LINE
  5
187AD
  8
0
 10
4136.5946884815439262
 20
182.7498829587246121
 30
0.0
 11
4136.3469791232937496
 21
187.4764590819102921
 31
0.0
  0
LINE
  5
187AE
  8
0
 10
4129.5060297135523797
 20
180.2419807783994088
 30
0.0
 11
4129.5997410680465691
 21
180.3746183878058957
 31
0.0
  0
LINE
  5
187AF
  8
0
 10
4129.224778901710124
 20
180.1766370242993105
 30
0.0
 11
4129.4529708085856328
 21
180.2094966588277032
 31
0.0
  0
ARC
  5
187B0
  8
0
 10
4129.4417537107547105
 20
180.2873931716908942
 30
0.0
 40
0.0787
 50
278.1942633194723271
 51
324.7579634347699198
  0
ARC
  5
187B1
  8
0
 10
4129.6382903352887297
 20
180.3473824924647033
 30
0.0
 40
0.0472
 50
91.9999999999775753
 51
144.7579634347686124
  0
LINE
  5
187B2
  8
0
 10
4133.390118875954613
 20
180.5256281452296889
 30
0.0
 11
4129.6366430790449158
 21
180.3945537394999974
 31
0.0
  0
ARC
  5
187B3
  8
0
 10
4133.3342796205406557
 20
182.1246534663409022
 30
0.0
 40
1.6000000000000001
 50
272.0000021746105858
 51
356.9998682379950878
  0
LINE
  5
187B4
  8
0
 10
4147.4184666155097148
 20
182.7498680637905863
 30
0.0
 11
4147.6968879600108266
 21
188.0624637958991912
 31
0.0
  0
LINE
  5
187B5
  8
0
 10
4124.9107647670762162
 20
180.3945537394999974
 30
0.0
 11
4129.6366430790449158
 21
180.3945537394999974
 31
0.0
  0
LINE
  5
187B6
  8
0
 10
4139.7742521482696247
 20
181.0293823531993951
 30
0.0
 11
4139.6805407937754353
 21
181.1620199626059105
 31
0.0
  0
LINE
  5
187B7
  8
0
 10
4140.0555029601100614
 20
180.9640385990992968
 30
0.0
 11
4139.8273110532336432
 21
180.9968982336276895
 31
0.0
  0
LINE
  5
187B8
  8
0
 10
4140.0555029601100614
 20
180.9640385990992968
 30
0.0
 11
4143.95765291740463
 21
180.964038599098501
 31
0.0
  0
ARC
  5
187B9
  8
0
 10
4139.8385281510663845
 20
181.0747947464909089
 30
0.0
 40
0.0787
 50
215.2420365652301086
 51
261.8057366805277866
  0
ARC
  5
187BA
  8
0
 10
4139.6419915265305463
 20
181.1347840672646896
 30
0.0
 40
0.0472
 50
35.2420365652314089
 51
88.0000000000224247
  0
LINE
  5
187BB
  8
0
 10
4144.2389037292514331
 20
181.0293823531993951
 30
0.0
 11
4144.3326150837474415
 21
181.1620199626059105
 31
0.0
  0
LINE
  5
187BC
  8
0
 10
4143.9576529174109965
 20
180.9640385990992968
 30
0.0
 11
4144.1858448242874147
 21
180.9968982336276895
 31
0.0
  0
ARC
  5
187BD
  8
0
 10
4144.1746277264555829
 20
181.0747947464909089
 30
0.0
 40
0.0787
 50
278.1942633194723271
 51
324.7579634347699198
  0
ARC
  5
187BE
  8
0
 10
4144.3711643509896021
 20
181.1347840672646896
 30
0.0
 40
0.0472
 50
91.9999999999775753
 51
144.7579634347686124
  0
LINE
  5
187BF
  8
0
 10
4139.6436387827761791
 20
181.1819553143000121
 30
0.0
 11
4144.3695170947448787
 21
181.1819553143000121
 31
0.0
  0
LINE
  5
187C0
  8
0
 10
4144.3695170947448787
 20
181.1819553143000121
 30
0.0
 11
4145.8764985589141361
 21
181.2345802706840914
 31
0.0
  0
LINE
  5
187C1
  8
0
 10
4139.6436387827761791
 20
181.1819553143000121
 30
0.0
 11
4138.1366407816585706
 21
181.2345957159454883
 31
0.0
  0
ARC
  5
187C2
  8
0
 10
4138.1924957371502387
 20
182.8336204887201006
 30
0.0
 40
1.6000000000000001
 50
183.0000000002459046
 51
267.9994352649371763
  0
ARC
  5
187C3
  8
0
 10
4145.8206593599015832
 20
182.8336055937649007
 30
0.0
 40
1.6000000000000001
 50
272.0000001536138825
 51
357.000000000514774
  0
LINE
  5
187C4
  8
0
 10
4122.458254147288244
 20
187.5585267880985896
 30
0.0
 11
4131.0737993681341322
 21
187.5585267880991012
 31
0.0
  0
LINE
  5
187C5
  8
0
 10
4132.6157344622870369
 20
187.5585267880991012
 30
0.0
 11
4138.9478151161320056
 21
187.5585267880994991
 31
0.0
  0
LINE
  5
187C6
  8
0
 10
4140.4897502102876388
 20
187.5585267880996128
 30
0.0
 11
4144.5383662972335514
 21
187.5585267880998117
 31
0.0
  0
ARC
  5
187C7
  8
0
 10
4119.9909780898251483
 20
183.0922534605109036
 30
0.0
 40
4.4307048537435314
 50
92.847886236541882
 51
98.3190689799173754
  0
ARC
  5
187C8
  8
0
 10
4121.2323522907563529
 20
158.1379845527955865
 30
0.0
 40
29.415831361834389
 50
90.6195553533356843
 51
92.847886236541882
  0
LINE
  5
187C9
  8
0
 10
4119.3499192386107097
 20
187.4763370648992122
 30
0.0
 11
4119.319391841911056
 21
188.0624637958991912
 31
0.0
  0
ARC
  5
187CA
  8
0
 10
4136.2604978055851461
 20
187.4719267880992959
 30
0.0
 40
0.0866
 50
3.0000000002459721
 51
90.0
  0
ARC
  5
187CB
  8
0
 10
4135.303445473667125
 20
187.4719267880992959
 30
0.0
 40
0.0866
 50
90.0
 51
176.999868237994292
  0
ARC
  5
187CC
  8
0
 10
4118.2226795136102737
 20
188.2199842683992017
 30
0.0
 40
0.0787
 50
90.0
 51
180.0000000000007958
  0
ARC
  5
187CD
  8
0
 10
4148.7739409309106122
 20
188.2199842683992017
 30
0.0
 40
0.0787
 50
0.0
 51
90.0
  0
LINE
  5
187CE
  8
0
 10
4120.8998850254110948
 20
188.0624637958991912
 30
0.0
 11
4120.8998850254110948
 21
187.6372669454991922
 31
0.0
  0
LINE
  5
187CF
  8
0
 10
4121.0967354191107006
 20
187.4404165517991885
 30
0.0
 11
4122.2778377813110637
 21
187.4404165517991885
 31
0.0
  0
LINE
  5
187D0
  8
0
 10
4122.47468817500976
 20
188.0624637958991912
 30
0.0
 11
4122.47468817500976
 21
187.6372669454991922
 31
0.0
  0
ARC
  5
187D1
  8
0
 10
4121.0967354191107006
 20
187.6372669454991922
 30
0.0
 40
0.1968503937000028
 50
180.0
 51
270.0
  0
ARC
  5
187D2
  8
0
 10
4122.2778377813110637
 20
187.6372669454991922
 30
0.0
 40
0.1968503937000054
 50
270.0
 51
359.9999999999984084
  0
ARC
  5
187D3
  8
0
 10
4121.8250818758106107
 20
187.7750622210992049
 30
0.0
 40
0.1771653543000013
 50
270.0
 51
90.0
  0
ARC
  5
187D4
  8
0
 10
4121.5494913246111537
 20
187.7750622210992049
 30
0.0
 40
0.1771653542999978
 50
90.0
 51
270.0
  0
LINE
  5
187D5
  8
0
 10
4121.5494913246111537
 20
187.9522275753992062
 30
0.0
 11
4121.8250818758106107
 21
187.9522275753992062
 31
0.0
  0
LINE
  5
187D6
  8
0
 10
4121.5494913246111537
 20
187.5978968666991875
 30
0.0
 11
4121.8250818758106107
 21
187.5978968667992035
 31
0.0
  0
LINE
  5
187D7
  8
0
 10
4131.0573653404098877
 20
188.0624637958991912
 30
0.0
 11
4131.0573653404098877
 21
187.6372669454991922
 31
0.0
  0
LINE
  5
187D8
  8
0
 10
4131.254215734110403
 20
187.4404165517991885
 30
0.0
 11
4132.4353180963107661
 21
187.4404165517991885
 31
0.0
  0
LINE
  5
187D9
  8
0
 10
4132.6321684900103719
 20
188.0624637958991912
 30
0.0
 11
4132.6321684900103719
 21
187.6372669454991922
 31
0.0
  0
ARC
  5
187DA
  8
0
 10
4131.254215734110403
 20
187.6372669454991922
 30
0.0
 40
0.1968503937000028
 50
180.0
 51
270.0
  0
ARC
  5
187DB
  8
0
 10
4132.4353180963107661
 20
187.6372669454991922
 30
0.0
 40
0.1968503937000054
 50
270.0
 51
359.9999999999984084
  0
ARC
  5
187DC
  8
0
 10
4131.9825621908112225
 20
187.7750622210992049
 30
0.0
 40
0.1771653543000013
 50
270.0
 51
90.0
  0
ARC
  5
187DD
  8
0
 10
4131.7069716396108561
 20
187.7750622210992049
 30
0.0
 40
0.1771653542999978
 50
90.0
 51
270.0
  0
LINE
  5
187DE
  8
0
 10
4131.7069716396108561
 20
187.9522275753992062
 30
0.0
 11
4131.9825621908112225
 21
187.9522275753992062
 31
0.0
  0
LINE
  5
187DF
  8
0
 10
4131.7069716396108561
 20
187.5978968666991875
 30
0.0
 11
4131.9825621908112225
 21
187.5978968667992035
 31
0.0
  0
LINE
  5
187E0
  8
0
 10
4138.9313810884095801
 20
188.0624637958991912
 30
0.0
 11
4138.9313810884095801
 21
187.6372669454991922
 31
0.0
  0
LINE
  5
187E1
  8
0
 10
4139.1282314821110049
 20
187.4404165517991885
 30
0.0
 11
4140.309333844309549
 21
187.4404165517991885
 31
0.0
  0
LINE
  5
187E2
  8
0
 10
4140.5061842380109738
 20
188.0624637958991912
 30
0.0
 11
4140.5061842380109738
 21
187.6372669454991922
 31
0.0
  0
ARC
  5
187E3
  8
0
 10
4139.1282314821110049
 20
187.6372669454991922
 30
0.0
 40
0.1968503937000028
 50
180.0
 51
270.0
  0
ARC
  5
187E4
  8
0
 10
4140.309333844309549
 20
187.6372669454991922
 30
0.0
 40
0.1968503937000054
 50
270.0
 51
359.9999999999984084
  0
ARC
  5
187E5
  8
0
 10
4139.8565779388100054
 20
187.7750622210992049
 30
0.0
 40
0.1771653543000013
 50
270.0
 51
90.0
  0
ARC
  5
187E6
  8
0
 10
4139.580987387609639
 20
187.7750622210992049
 30
0.0
 40
0.1771653542999978
 50
90.0
 51
270.0
  0
LINE
  5
187E7
  8
0
 10
4139.580987387609639
 20
187.9522275753992062
 30
0.0
 11
4139.8565779388100054
 21
187.9522275753992062
 31
0.0
  0
LINE
  5
187E8
  8
0
 10
4139.580987387609639
 20
187.5978968666991875
 30
0.0
 11
4139.8565779388100054
 21
187.5978968667992035
 31
0.0
  0
LINE
  5
187E9
  8
0
 10
4144.5219322695111259
 20
188.0624637958991912
 30
0.0
 11
4144.5219322695111259
 21
187.6372669454991922
 31
0.0
  0
LINE
  5
187EA
  8
0
 10
4144.7187826632098222
 20
187.4404165517991885
 30
0.0
 11
4145.8998850254110948
 21
187.4404165517991885
 31
0.0
  0
LINE
  5
187EB
  8
0
 10
4146.0967354191097911
 20
188.0624637958991912
 30
0.0
 11
4146.0967354191097911
 21
187.6372669454991922
 31
0.0
  0
ARC
  5
187EC
  8
0
 10
4144.7187826632098222
 20
187.6372669454991922
 30
0.0
 40
0.1968503937000028
 50
180.0
 51
270.0
  0
ARC
  5
187ED
  8
0
 10
4145.8998850254110948
 20
187.6372669454991922
 30
0.0
 40
0.1968503937000054
 50
270.0
 51
359.9999999999984084
  0
ARC
  5
187EE
  8
0
 10
4145.4471291199106417
 20
187.7750622210992049
 30
0.0
 40
0.1771653543000013
 50
270.0
 51
90.0
  0
ARC
  5
187EF
  8
0
 10
4145.1715385687111848
 20
187.7750622210992049
 30
0.0
 40
0.1771653542999978
 50
90.0
 51
270.0
  0
LINE
  5
187F0
  8
0
 10
4145.1715385687111848
 20
187.9522275753992062
 30
0.0
 11
4145.4471291199106417
 21
187.9522275753992062
 31
0.0
  0
LINE
  5
187F1
  8
0
 10
4145.1715385687111848
 20
187.5978968666991875
 30
0.0
 11
4145.4471291199106417
 21
187.5978968667992035
 31
0.0
  0
ARC
  5
187F2
  8
0
 10
4147.1102588407748044
 20
184.1535289025661939
 30
0.0
 40
3.365940273836749
 50
80.8293879908521262
 51
88.033189937200703
  0
ARC
  5
187F3
  8
0
 10
4145.7104900636231832
 20
156.2440356111586937
 30
0.0
 40
31.3101391885928599
 50
87.2260220592716564
 51
89.3287022452051787
  0
LINE
  5
187F4
  8
0
 10
4147.6467050586561527
 20
187.4764462025239027
 30
0.0
 11
4147.6772288596939688
 21
188.0624637958991912
 31
0.0
  0
LINE
  5
187F5
  8
0
 10
4147.6467050586561527
 20
187.4764462025239027
 30
0.0
 11
4146.0133959936465544
 21
187.4764399030285063
 31
0.0
  0
LINE
  5
187F6
  8
0
 10
4144.6052793901626501
 20
187.4764344720759084
 30
0.0
 11
4140.4228142560750712
 21
187.4764183407629048
 31
0.0
  0
LINE
  5
187F7
  8
0
 10
4139.0147587683059101
 20
187.4764129100460082
 30
0.0
 11
4136.346982082300201
 21
187.4764026207215863
 31
0.0
  0
LINE
  5
187F8
  8
0
 10
4135.2169609683978706
 20
187.4763982623530865
 30
0.0
 11
4132.5487554498777172
 21
187.4763879713746064
 31
0.0
  0
LINE
  5
187F9
  8
0
 10
4131.1407860824074305
 20
187.4763825409899027
 30
0.0
 11
4122.3912195536358922
 21
187.4763487948636111
 31
0.0
  0
LINE
  5
187FA
  8
0
 10
4120.9833613536920893
 20
187.4763433649077058
 30
0.0
 11
4119.3499192386107097
 21
187.4763370648992122
 31
0.0
  0
LINE
  5
187FB
  8
0
 10
4148.3408299073107628
 20
188.0624637958991912
 30
0.0
 11
4148.3408299073107628
 21
187.3616763943992112
 31
0.0
  0
LINE
  5
187FC
  8
0
 10
4148.3092956222862995
 20
187.3616763943992112
 30
0.0
 11
4148.3092956222862995
 21
188.0624637958991912
 31
0.0
  0
LINE
  5
187FD
  8
0
 10
4118.6872866002104274
 20
188.0624637958991912
 30
0.0
 11
4118.6872866002104274
 21
187.3616763943992112
 31
0.0
  0
LINE
  5
187FE
  8
0
 10
4118.6557523151859641
 20
187.3616763943992112
 30
0.0
 11
4118.6557523151859641
 21
188.0624637958991912
 31
0.0
  0
LINE
  5
187FF
  8
0
 10
4148.3092956222862995
 20
187.3616763943992112
 30
0.0
 11
4148.3408299073107628
 21
187.3616763943992112
 31
0.0
  0
LINE
  5
18800
  8
0
 10
4118.6872866002104274
 20
187.3616763943992112
 30
0.0
 11
4118.6557523151859641
 21
187.3616763943992112
 31
0.0
  0
LINE
  5
18802
  8
0
 10
4120.0831182535948756
 20
190.5799175951991913
 30
0.0
 11
4118.9607465753952056
 21
190.5799175951991913
 31
0.0
  0
ENDSEC
  0
EOF
