  0
SECTION
  2
HEADER
  9
$ACADVER
  1
AC1009
  9
$INSBASE
 10
4253.6942941739325761
 20
216.8088771415293934
 30
0.0
  9
$EXTMIN
 10
4252.7598452282181825
 20
211.4193937746555889
 30
0.0
  9
$EXTMAX
 10
4254.627489637096005
 20
217.7402661770022974
 30
0.0
  9
$LIMMIN
 10
0.0
 20
0.0
  9
$LIMMAX
 10
11.6929133858000007
 20
8.2677165353999982
  9
$ORTHOMODE
 70
     0
  9
$REGENMODE
 70
     1
  9
$FILLMODE
 70
     1
  9
$QTEXTMODE
 70
     0
  9
$MIRRTEXT
 70
     0
  9
$DRAGMODE
 70
     2
  9
$LTSCALE
 40
0.6431102362
  9
$OSMODE
 70
  2039
  9
$ATTMODE
 70
     1
  9
$TEXTSIZE
 40
0.2
  9
$TRACEWID
 40
0.05
  9
$TEXTSTYLE
  7
STANDARD
  9
$CLAYER
  8
0
  9
$CELTYPE
  6
BYLAYER
  9
$CECOLOR
 62
   256
  9
$DIMSCALE
 40
1.0
  9
$DIMASZ
 40
0.1875
  9
$DIMEXO
 40
0.0625
  9
$DIMDLI
 40
0.4443307087
  9
$DIMRND
 40
0.0
  9
$DIMDLE
 40
0.0
  9
$DIMEXE
 40
0.125
  9
$DIMTP
 40
0.01
  9
$DIMTM
 40
0.01
  9
$DIMTXT
 40
2.0
  9
$DIMCEN
 40
0.1052362205
  9
$DIMTSZ
 40
0.0
  9
$DIMTOL
 70
     1
  9
$DIMLIM
 70
     0
  9
$DIMTIH
 70
     1
  9
$DIMTOH
 70
     1
  9
$DIMSE1
 70
     0
  9
$DIMSE2
 70
     0
  9
$DIMTAD
 70
     0
  9
$DIMZIN
 70
     0
  9
$DIMBLK
  1

  9
$DIMASO
 70
     1
  9
$DIMSHO
 70
     1
  9
$DIMPOST
  1
\X
  9
$DIMAPOST
  1

  9
$DIMALT
 70
     1
  9
$DIMALTD
 70
     2
  9
$DIMALTF
 40
25.3999999999999986
  9
$DIMLFAC
 40
1.0
  9
$DIMTOFL
 70
     0
  9
$DIMTVP
 40
0.0
  9
$DIMTIX
 70
     0
  9
$DIMSOXD
 70
     0
  9
$DIMSAH
 70
     0
  9
$DIMBLK1
  1

  9
$DIMBLK2
  1

  9
$DIMSTYLE
  2
STANDARD
  9
$DIMCLRD
 70
     0
  9
$DIMCLRE
 70
     0
  9
$DIMCLRT
 70
     0
  9
$DIMTFAC
 40
1.0
  9
$DIMGAP
 40
0.09
  9
$LUNITS
 70
     2
  9
$LUPREC
 70
     4
  9
$SKETCHINC
 40
0.1
  9
$FILLETRAD
 40
0.0
  9
$AUNITS
 70
     0
  9
$AUPREC
 70
     0
  9
$MENU
  1
.
  9
$ELEVATION
 40
0.0
  9
$PELEVATION
 40
0.0
  9
$THICKNESS
 40
0.0
  9
$LIMCHECK
 70
     0
  9
$BLIPMODE
 70
     0
  9
$CHAMFERA
 40
0.0
  9
$CHAMFERB
 40
0.0
  9
$SKPOLY
 70
     0
  9
$TDCREATE
 40
2458060.468368056230247
  9
$TDUPDATE
 40
2459149.672037037089467
  9
$TDINDWG
 40
0.5419283565
  9
$TDUSRTIMER
 40
0.5419283565
  9
$USRTIMER
 70
     1
  9
$ANGBASE
 50
0.0
  9
$ANGDIR
 70
     0
  9
$PDMODE
 70
     0
  9
$PDSIZE
 40
0.3125
  9
$PLINEWID
 40
0.0
  9
$COORDS
 70
     1
  9
$SPLFRAME
 70
     0
  9
$SPLINETYPE
 70
     6
  9
$SPLINESEGS
 70
     8
  9
$ATTDIA
 70
     1
  9
$ATTREQ
 70
     1
  9
$HANDLING
 70
     1
  9
$HANDSEED
  5
9DB3
  9
$SURFTAB1
 70
     6
  9
$SURFTAB2
 70
     6
  9
$SURFTYPE
 70
     6
  9
$SURFU
 70
     6
  9
$SURFV
 70
     6
  9
$UCSNAME
  2

  9
$UCSORG
 10
0.0
 20
0.0
 30
0.0
  9
$UCSXDIR
 10
1.0
 20
0.0
 30
0.0
  9
$UCSYDIR
 10
0.0
 20
1.0
 30
0.0
  9
$PUCSNAME
  2

  9
$PUCSORG
 10
0.0
 20
0.0
 30
0.0
  9
$PUCSXDIR
 10
1.0
 20
0.0
 30
0.0
  9
$PUCSYDIR
 10
0.0
 20
1.0
 30
0.0
  9
$USERI1
 70
     0
  9
$USERI2
 70
     0
  9
$USERI3
 70
     0
  9
$USERI4
 70
     0
  9
$USERI5
 70
     0
  9
$USERR1
 40
0.0
  9
$USERR2
 40
0.0
  9
$USERR3
 40
0.0
  9
$USERR4
 40
0.0
  9
$USERR5
 40
0.0
  9
$WORLDVIEW
 70
     1
  9
$SHADEDGE
 70
     3
  9
$SHADEDIF
 70
    70
  9
$TILEMODE
 70
     1
  9
$MAXACTVP
 70
    64
  9
$PLIMCHECK
 70
     0
  9
$PEXTMIN
 10
1.0000000000000000E+20
 20
1.0000000000000000E+20
 30
1.0000000000000000E+20
  9
$PEXTMAX
 10
-1.0000000000000000E+20
 20
-1.0000000000000000E+20
 30
-1.0000000000000000E+20
  9
$PLIMMIN
 10
0.0
 20
0.0
  9
$PLIMMAX
 10
12.0
 20
9.0
  9
$UNITMODE
 70
     0
  9
$VISRETAIN
 70
     1
  9
$PLINEGEN
 70
     0
  9
$PSLTSCALE
 70
     1
  0
ENDSEC
  0
SECTION
  2
TABLES
  0
TABLE
  2
VPORT
 70
     1
  0
VPORT
  2
*ACTIVE
 70
     0
 10
0.0
 20
0.0
 11
1.0
 21
1.0
 12
-0.0004243642179063
 22
-0.0032922775890114
 13
0.0
 23
0.0
 14
1.0
 24
1.0
 15
0.0
 25
0.0
 16
0.0
 26
0.0
 36
25.2426775541684592
 17
4253.694091796875
 27
214.5831222534179972
 37
0.0
 40
6.3777318242568439
 41
2.848348348348348
 42
50.0
 43
0.0
 44
0.0
 50
0.0
 51
0.0
 71
     0
 72
   100
 73
     1
 74
     1
 75
     0
 76
     0
 77
     0
 78
     0
  0
ENDTAB
  0
TABLE
  2
LTYPE
 70
     2
  0
LTYPE
  2
CONTINUOUS
 70
     0
  3
Solid line
 72
    65
 73
     0
 40
0.0
  0
LTYPE
  2
PHANTOM2
 70
     0
  3
___ _ _ ___ _ _ ___ _ _ ___ _ _
 72
    65
 73
     6
 40
1.25
 49
0.625
 49
-0.125
 49
0.125
 49
-0.125
 49
0.125
 49
-0.125
  0
ENDTAB
  0
TABLE
  2
LAYER
 70
     2
  0
LAYER
  2
0
 70
     0
 62
   255
  6
CONTINUOUS
  0
LAYER
  2
DEFPOINTS
 70
     0
 62
     7
  6
CONTINUOUS
  0
ENDTAB
  0
TABLE
  2
STYLE
 70
     1
  0
STYLE
  2
STANDARD
 70
     0
 40
0.0
 41
0.8
 50
0.0
 71
     0
 42
0.2
  3
txt
  4

  0
ENDTAB
  0
TABLE
  2
VIEW
 70
     0
  0
ENDTAB
  0
TABLE
  2
UCS
 70
     0
  0
ENDTAB
  0
TABLE
  2
APPID
 70
     9
  0
APPID
  2
ACAD
 70
     0
  0
APPID
  2
ACAD_MLEADERVER
 70
     0
  0
APPID
  2
ACAD_EXEMPT_FROM_CAD_STANDARDS
 70
     0
  0
APPID
  2
ACAD_NAV_VCDISPLAY
 70
     0
  0
APPID
  2
ACAECLAYERSTANDARD
 70
     0
  0
APPID
  2
ACCMTRANSPARENCY
 70
     0
  0
APPID
  2
ACAD_DSTYLE_DIMJAG
 70
     0
  0
APPID
  2
ACAD_DSTYLE_DIMTALN
 70
     0
  0
APPID
  2
ACDBATTR
 70
     0
  0
ENDTAB
  0
TABLE
  2
DIMSTYLE
 70
     1
  0
DIMSTYLE
  2
STANDARD
 70
     0
  3

  4

  5

  6

  7

 40
1.0
 41
0.1875
 42
0.0625
 43
0.38
 44
0.125
 45
0.0
 46
0.0
 47
0.01
 48
0.01
140
0.15625
141
0.09
142
0.0
143
25.3999999999999986
144
1.0
145
0.0
146
1.0
147
0.09
 71
     1
 72
     0
 73
     1
 74
     1
 75
     0
 76
     0
 77
     0
 78
     4
170
     0
171
     2
172
     0
173
     0
174
     0
175
     0
176
     0
177
     0
178
     0
  0
ENDTAB
  0
ENDSEC
  0
SECTION
  2
BLOCKS
  0
BLOCK
  8
0
  2
$MODEL_SPACE
 70
     0
 10
0.0
 20
0.0
 30
0.0
  3
$MODEL_SPACE
  1

  0
ENDBLK
  5
21
  8
0
  0
BLOCK
 67
     1
  8
0
  2
$PAPER_SPACE
 70
     0
 10
0.0
 20
0.0
 30
0.0
  3
$PAPER_SPACE
  1

  0
ENDBLK
  5
1D
 67
     1
  8
0
  0
BLOCK
  8
0
  2
_FILLED
 70
     0
 10
0.0
 20
0.0
 30
0.0
  3
_FILLED
  1

  0
SOLID
  5
6F59
  8
0
  6
BYBLOCK
 62
     0
 10
0.0
 20
0.0
 30
0.0
 11
-1.0
 21
0.1666666667
 31
0.0
 12
-1.0
 22
-0.1666666667
 32
0.0
 13
-1.0
 23
-0.1666666667
 33
0.0
  0
ENDBLK
  5
6F5A
  8
0
  6
BYBLOCK
 62
     0
  0
ENDSEC
  0
SECTION
  2
ENTITIES
  0
ATTDEF
  5
3930
  8
DEFPOINTS
 10
4253.694875086385764
 20
216.8128812231902884
 30
0.0
 40
0.001
  1
K-99448IN-4ND
  3

  2
MODELNUMBER
 70
     0
1001
ACDBATTR
1070
     0
1070
     1
  0
ATTDEF
  5
3931
  8
DEFPOINTS
 10
4253.694875086385764
 20
216.8112145565237086
 30
0.0
 40
0.001
  1
KUMIN
  3

  2
TRADENAME
 70
     0
1001
ACDBATTR
1070
     0
1070
     1
  0
ATTDEF
  5
3932
  8
DEFPOINTS
 10
4253.694875086385764
 20
216.8095478898569866
 30
0.0
 40
0.001
  1
BATHROOM SINK FAUCET
  3

  2
PRODUCT
 70
     0
1001
ACDBATTR
1070
     0
1070
     1
  0
ARC
  5
9B91
  8
0
 10
4253.6936674326561842
 20
216.8071820614069054
 30
0.0
 40
0.9330841155953777
 50
11.7050605588104997
 51
168.2949394411895128
  0
ARC
  5
9B92
  8
0
 10
4253.6937736641311858
 20
212.3447265756414026
 30
0.0
 40
0.9253328009858053
 50
205.5571762886208091
 51
334.4428238573078147
  0
ARC
  5
9B93
  8
0
 10
4255.9122167428531611
 20
212.4816522814579969
 30
0.0
 40
3.1445074900893761
 50
179.7284295993868
 51
183.8966157899122038
  0
ARC
  5
9B94
  8
0
 10
4253.6553277546481695
 20
212.3251529354751028
 30
0.0
 40
0.8822049796851299
 50
183.7168705738031065
 51
205.4875246061673977
  0
LINE
  5
9B95
  8
0
 10
4252.767744574450262
 20
212.4965565548378947
 30
0.0
 11
4252.7680558782549269
 21
215.7773212340912039
 31
0.0
  0
ARC
  5
9B96
  8
0
 10
4222.513145688266377
 20
215.8417929726496141
 30
0.0
 40
30.2549788829769817
 50
359.87790567207918
 51
1.340438970847452
  0
ARC
  5
9B97
  8
0
 10
4261.4281622310436433
 20
216.382818272319696
 30
0.0
 40
8.6699202850954844
 50
175.9411769198214017
 51
178.8981010587584137
  0
ARC
  5
9B98
  8
0
 10
4253.6936674326561842
 20
216.8059164824373966
 30
0.0
 40
0.8167189751227591
 50
13.4816439812228595
 51
166.5183560187770979
  0
ARC
  5
9B99
  8
0
 10
4254.1855603070107463
 20
216.7706205202848935
 30
0.0
 40
1.3057609860373021
 50
170.0464344316179961
 51
180.0212658777118975
  0
ARC
  5
9B9A
  8
0
 10
4186.7681094065701473
 20
214.3493904316412113
 30
0.0
 40
66.1559941632648503
 50
0.1453513357161798
 51
2.0970052521876021
  0
ARC
  5
9B9B
  8
0
 10
4253.8176979486361233
 20
214.45749934196499
 30
0.0
 40
0.8958000980172268
 50
176.1774874574726937
 51
203.8876338117534885
  0
ARC
  5
9B9C
  8
0
 10
4253.6936674326561842
 20
214.4315733410637108
 30
0.0
 40
0.772350727532379
 50
205.855387458445108
 51
334.1446125415549204
  0
ARC
  5
9B9D
  8
0
 10
4251.4753305854501377
 20
212.4816522814579969
 30
0.0
 40
3.1445074900893761
 50
356.1033842100878246
 51
0.2715704006132122
  0
ARC
  5
9B9E
  8
0
 10
4253.7322195736560388
 20
212.3251529354753018
 30
0.0
 40
0.8822049796851299
 50
334.512475393831096
 51
356.2831294261969219
  0
LINE
  5
9B9F
  8
0
 10
4254.6198027538530368
 20
212.4965565548378947
 30
0.0
 11
4254.61927898706017
 21
215.7773212340912039
 31
0.0
  0
ARC
  5
9BA0
  8
0
 10
4284.8741891770478105
 20
215.8417929726496141
 30
0.0
 40
30.2549788829769817
 50
178.6595610291525134
 51
180.1220943279190863
  0
ARC
  5
9BA1
  8
0
 10
4245.9591726342687252
 20
216.382818272319696
 30
0.0
 40
8.6699202850954844
 50
1.10189894124161
 51
4.0588230801786001
  0
ARC
  5
9BA2
  8
0
 10
4253.569223684861754
 20
214.457625364987706
 30
0.0
 40
0.8962289667781679
 50
336.1156974309237171
 51
3.8126061142714112
  0
ARC
  5
9BA3
  8
0
 10
4253.2082951738229895
 20
216.7711871185778136
 30
0.0
 40
1.299240705868379
 50
0.0463592693016528
 51
9.9786589603148617
  0
ARC
  5
9BA4
  8
0
 10
4320.9716037715979837
 20
214.3454958690174976
 30
0.0
 40
66.5083562900412346
 50
177.9089398448817008
 51
179.8520636310144027
  0
ENDSEC
  0
EOF
