  0
SECTION
  2
HEADER
  9
$ACADVER
  1
AC1009
  9
$INSBASE
 10
4250.8294228094264327
 20
212.1384538665274135
 30
0.0
  9
$EXTMIN
 10
4245.4414441650051231
 20
212.1334511126615894
 30
0.0
  9
$EXTMAX
 10
4251.762344165005743
 20
225.4510630393274937
 30
0.0
  9
$LIMMIN
 10
0.0
 20
0.0
  9
$LIMMAX
 10
11.6929133858000007
 20
8.2677165353999982
  9
$ORTHOMODE
 70
     0
  9
$REGENMODE
 70
     1
  9
$FILLMODE
 70
     1
  9
$QTEXTMODE
 70
     0
  9
$MIRRTEXT
 70
     0
  9
$DRAGMODE
 70
     2
  9
$LTSCALE
 40
0.6431102362
  9
$OSMODE
 70
  3839
  9
$ATTMODE
 70
     1
  9
$TEXTSIZE
 40
0.2
  9
$TRACEWID
 40
0.05
  9
$TEXTSTYLE
  7
STANDARD
  9
$CLAYER
  8
0
  9
$CELTYPE
  6
BYLAYER
  9
$CECOLOR
 62
   256
  9
$DIMSCALE
 40
1.0
  9
$DIMASZ
 40
0.1875
  9
$DIMEXO
 40
0.0625
  9
$DIMDLI
 40
0.4443307087
  9
$DIMRND
 40
0.0
  9
$DIMDLE
 40
0.0
  9
$DIMEXE
 40
0.125
  9
$DIMTP
 40
0.01
  9
$DIMTM
 40
0.01
  9
$DIMTXT
 40
2.0
  9
$DIMCEN
 40
0.1052362205
  9
$DIMTSZ
 40
0.0
  9
$DIMTOL
 70
     1
  9
$DIMLIM
 70
     0
  9
$DIMTIH
 70
     1
  9
$DIMTOH
 70
     1
  9
$DIMSE1
 70
     0
  9
$DIMSE2
 70
     0
  9
$DIMTAD
 70
     0
  9
$DIMZIN
 70
     0
  9
$DIMBLK
  1

  9
$DIMASO
 70
     1
  9
$DIMSHO
 70
     1
  9
$DIMPOST
  1
\X
  9
$DIMAPOST
  1

  9
$DIMALT
 70
     1
  9
$DIMALTD
 70
     2
  9
$DIMALTF
 40
25.3999999999999986
  9
$DIMLFAC
 40
1.0
  9
$DIMTOFL
 70
     0
  9
$DIMTVP
 40
0.0
  9
$DIMTIX
 70
     0
  9
$DIMSOXD
 70
     0
  9
$DIMSAH
 70
     0
  9
$DIMBLK1
  1

  9
$DIMBLK2
  1

  9
$DIMSTYLE
  2
STANDARD
  9
$DIMCLRD
 70
     0
  9
$DIMCLRE
 70
     0
  9
$DIMCLRT
 70
     0
  9
$DIMTFAC
 40
1.0
  9
$DIMGAP
 40
0.09
  9
$LUNITS
 70
     2
  9
$LUPREC
 70
     4
  9
$SKETCHINC
 40
0.1
  9
$FILLETRAD
 40
0.0
  9
$AUNITS
 70
     0
  9
$AUPREC
 70
     0
  9
$MENU
  1
.
  9
$ELEVATION
 40
0.0
  9
$PELEVATION
 40
0.0
  9
$THICKNESS
 40
0.0
  9
$LIMCHECK
 70
     0
  9
$BLIPMODE
 70
     0
  9
$CHAMFERA
 40
0.0
  9
$CHAMFERB
 40
0.0
  9
$SKPOLY
 70
     0
  9
$TDCREATE
 40
2458060.468368056230247
  9
$TDUPDATE
 40
2459030.9522685180418193
  9
$TDINDWG
 40
0.5561991898
  9
$TDUSRTIMER
 40
0.5561991898
  9
$USRTIMER
 70
     1
  9
$ANGBASE
 50
0.0
  9
$ANGDIR
 70
     0
  9
$PDMODE
 70
     0
  9
$PDSIZE
 40
0.3125
  9
$PLINEWID
 40
0.0
  9
$COORDS
 70
     1
  9
$SPLFRAME
 70
     0
  9
$SPLINETYPE
 70
     6
  9
$SPLINESEGS
 70
     8
  9
$ATTDIA
 70
     1
  9
$ATTREQ
 70
     1
  9
$HANDLING
 70
     1
  9
$HANDSEED
  5
9953
  9
$SURFTAB1
 70
     6
  9
$SURFTAB2
 70
     6
  9
$SURFTYPE
 70
     6
  9
$SURFU
 70
     6
  9
$SURFV
 70
     6
  9
$UCSNAME
  2

  9
$UCSORG
 10
0.0
 20
0.0
 30
0.0
  9
$UCSXDIR
 10
1.0
 20
0.0
 30
0.0
  9
$UCSYDIR
 10
0.0
 20
1.0
 30
0.0
  9
$PUCSNAME
  2

  9
$PUCSORG
 10
0.0
 20
0.0
 30
0.0
  9
$PUCSXDIR
 10
1.0
 20
0.0
 30
0.0
  9
$PUCSYDIR
 10
0.0
 20
1.0
 30
0.0
  9
$USERI1
 70
     0
  9
$USERI2
 70
     0
  9
$USERI3
 70
     0
  9
$USERI4
 70
     0
  9
$USERI5
 70
     0
  9
$USERR1
 40
0.0
  9
$USERR2
 40
0.0
  9
$USERR3
 40
0.0
  9
$USERR4
 40
0.0
  9
$USERR5
 40
0.0
  9
$WORLDVIEW
 70
     1
  9
$SHADEDGE
 70
     3
  9
$SHADEDIF
 70
    70
  9
$TILEMODE
 70
     1
  9
$MAXACTVP
 70
    64
  9
$PLIMCHECK
 70
     0
  9
$PEXTMIN
 10
1.0000000000000000E+20
 20
1.0000000000000000E+20
 30
1.0000000000000000E+20
  9
$PEXTMAX
 10
-1.0000000000000000E+20
 20
-1.0000000000000000E+20
 30
-1.0000000000000000E+20
  9
$PLIMMIN
 10
0.0
 20
0.0
  9
$PLIMMAX
 10
12.0
 20
9.0
  9
$UNITMODE
 70
     0
  9
$VISRETAIN
 70
     1
  9
$PLINEGEN
 70
     0
  9
$PSLTSCALE
 70
     1
  0
ENDSEC
  0
SECTION
  2
TABLES
  0
TABLE
  2
VPORT
 70
     1
  0
VPORT
  2
*ACTIVE
 70
     0
 10
0.0
 20
0.0
 11
1.0
 21
1.0
 12
0.0
 22
0.0
 13
0.0
 23
0.0
 14
1.0
 24
1.0
 15
0.0
 25
0.0
 16
0.0
 26
0.0
 36
56.4577067074767385
 17
4248.601806640625
 27
218.7922580880691044
 37
0.0
 40
14.7414844523606696
 41
3.0287253141831241
 42
50.0
 43
0.0
 44
0.0
 50
0.0
 51
0.0
 71
     0
 72
   100
 73
     1
 74
     1
 75
     0
 76
     0
 77
     0
 78
     0
  0
ENDTAB
  0
TABLE
  2
LTYPE
 70
     2
  0
LTYPE
  2
CONTINUOUS
 70
     0
  3
Solid line
 72
    65
 73
     0
 40
0.0
  0
LTYPE
  2
PHANTOM2
 70
     0
  3
___ _ _ ___ _ _ ___ _ _ ___ _ _
 72
    65
 73
     6
 40
1.25
 49
0.625
 49
-0.125
 49
0.125
 49
-0.125
 49
0.125
 49
-0.125
  0
ENDTAB
  0
TABLE
  2
LAYER
 70
     2
  0
LAYER
  2
0
 70
     0
 62
   255
  6
CONTINUOUS
  0
LAYER
  2
DEFPOINTS
 70
     0
 62
     7
  6
CONTINUOUS
  0
ENDTAB
  0
TABLE
  2
STYLE
 70
     1
  0
STYLE
  2
STANDARD
 70
     0
 40
0.0
 41
0.8
 50
0.0
 71
     0
 42
0.2
  3
txt
  4

  0
ENDTAB
  0
TABLE
  2
VIEW
 70
     0
  0
ENDTAB
  0
TABLE
  2
UCS
 70
     0
  0
ENDTAB
  0
TABLE
  2
APPID
 70
     9
  0
APPID
  2
ACAD
 70
     0
  0
APPID
  2
ACAD_MLEADERVER
 70
     0
  0
APPID
  2
ACAD_EXEMPT_FROM_CAD_STANDARDS
 70
     0
  0
APPID
  2
ACAD_NAV_VCDISPLAY
 70
     0
  0
APPID
  2
ACAECLAYERSTANDARD
 70
     0
  0
APPID
  2
ACCMTRANSPARENCY
 70
     0
  0
APPID
  2
ACAD_DSTYLE_DIMJAG
 70
     0
  0
APPID
  2
ACAD_DSTYLE_DIMTALN
 70
     0
  0
APPID
  2
ACDBATTR
 70
     0
  0
ENDTAB
  0
TABLE
  2
DIMSTYLE
 70
     1
  0
DIMSTYLE
  2
STANDARD
 70
     0
  3

  4

  5

  6

  7

 40
1.0
 41
0.1875
 42
0.0625
 43
0.38
 44
0.125
 45
0.0
 46
0.0
 47
0.01
 48
0.01
140
0.15625
141
0.09
142
0.0
143
25.3999999999999986
144
1.0
145
0.0
146
1.0
147
0.09
 71
     1
 72
     0
 73
     1
 74
     1
 75
     0
 76
     0
 77
     0
 78
     4
170
     0
171
     2
172
     0
173
     0
174
     0
175
     0
176
     0
177
     0
178
     0
  0
ENDTAB
  0
ENDSEC
  0
SECTION
  2
BLOCKS
  0
BLOCK
  8
0
  2
$MODEL_SPACE
 70
     0
 10
0.0
 20
0.0
 30
0.0
  3
$MODEL_SPACE
  1

  0
ENDBLK
  5
21
  8
0
  0
BLOCK
 67
     1
  8
0
  2
$PAPER_SPACE
 70
     0
 10
0.0
 20
0.0
 30
0.0
  3
$PAPER_SPACE
  1

  0
ENDBLK
  5
1D
 67
     1
  8
0
  0
BLOCK
  8
0
  2
_FILLED
 70
     0
 10
0.0
 20
0.0
 30
0.0
  3
_FILLED
  1

  0
SOLID
  5
6F59
  8
0
  6
BYBLOCK
 62
     0
 10
0.0
 20
0.0
 30
0.0
 11
-1.0
 21
0.1666666667
 31
0.0
 12
-1.0
 22
-0.1666666667
 32
0.0
 13
-1.0
 23
-0.1666666667
 33
0.0
  0
ENDBLK
  5
6F5A
  8
0
  6
BYBLOCK
 62
     0
  0
ENDSEC
  0
SECTION
  2
ENTITIES
  0
ATTDEF
  5
3930
  8
DEFPOINTS
 10
4250.8181187797454186
 20
212.1367844459948913
 30
0.0
 40
0.001
  1
K-99448T-4CD
  3

  2
MODELNUMBER
 70
     0
1001
ACDBATTR
1070
     0
1070
     1
  0
ATTDEF
  5
3931
  8
DEFPOINTS
 10
4250.8181187797454186
 20
212.1351177793283114
 30
0.0
 40
0.001
  1
KUMIN
  3

  2
TRADENAME
 70
     0
1001
ACDBATTR
1070
     0
1070
     1
  0
ATTDEF
  5
3932
  8
DEFPOINTS
 10
4250.8181187797454186
 20
212.1334511126615894
 30
0.0
 40
0.001
  1
BATHROOM SINK FAUCET
  3

  2
PRODUCT
 70
     0
1001
ACDBATTR
1070
     0
1070
     1
  0
LINE
  5
94DB
  8
0
 10
4248.6502927656920292
 20
225.4510630393274937
 30
0.0
 11
4250.5720871735920809
 21
225.4510630393274937
 31
0.0
  0
ARC
  5
94DC
  8
0
 10
4250.5311401334138282
 20
222.3414045403723094
 30
0.0
 40
3.1099280763747128
 50
69.2199314382502564
 51
89.245590148997664
  0
ARC
  5
94DD
  8
0
 10
4248.7742194838829164
 20
221.501253282850314
 30
0.0
 40
3.951753401193423
 50
91.797086391207813
 51
106.2034776099296067
  0
ARC
  5
94DE
  8
0
 10
4247.7017479212690887
 20
225.2448486557906051
 30
0.0
 40
0.0594591317359373
 50
120.5951389714828963
 51
239.4041807354064133
  0
ARC
  5
94DF
  8
0
 10
4247.8943743314466701
 20
225.5837079076185887
 30
0.0
 40
0.4492342586115686
 50
240.2540569153271974
 51
265.8770684274160772
  0
ARC
  5
94E0
  8
0
 10
4251.6141699879981388
 20
225.229044622125798
 30
0.0
 40
0.0284976373417123
 50
352.1178737355500061
 51
44.5289671937030178
  0
ARC
  5
94E1
  8
0
 10
4251.6171027297814362
 20
224.8818966326207942
 30
0.0
 40
0.019689306665522
 50
295.0733242162630745
 51
359.0077695207476722
  0
LINE
  5
94E2
  8
0
 10
4251.6254466200916795
 20
224.8640627241470042
 30
0.0
 11
4250.9866091744916048
 21
224.5661679307470138
 31
0.0
  0
ARC
  5
94E3
  8
0
 10
4250.6871159179909228
 20
225.20843329154701
 30
0.0
 40
0.7086614172999735
 50
270.0000000323603899
 51
295.0000000114163754
  0
LINE
  5
94E4
  8
0
 10
4250.6871159183920099
 20
224.4997718742469885
 30
0.0
 11
4250.0527046509432694
 21
224.4997718742469885
 31
0.0
  0
ARC
  5
94E5
  8
0
 10
4250.0510236879363219
 20
224.5297142252564129
 30
0.0
 40
0.0299894985052974
 50
184.5583111996473065
 51
273.213211097303315
  0
ARC
  5
94E6
  8
0
 10
4249.668103558450639
 20
224.8814218516895949
 30
0.0
 40
0.3561794114824337
 50
349.0737831369859236
 51
41.7043540693242605
  0
ARC
  5
94E7
  8
0
 10
4248.756150136042379
 20
-3452.2611460389889544
 30
0.0
 40
3677.3968909537079526
 50
89.9860698525001084
 51
90.0139301474998774
  0
ARC
  5
94E8
  8
0
 10
4249.5869185465880946
 20
221.7515116917680871
 30
0.0
 40
3.384716606241108
 50
84.1139452204000548
 51
88.9283095660845788
  0
LINE
  5
94E9
  8
0
 10
4250.0801886884601117
 20
224.4997718742469885
 30
0.0
 11
4250.0674950509455812
 21
224.4170946301470053
 31
0.0
  0
ARC
  5
94EA
  8
0
 10
4250.7226545327921485
 20
224.3565484500470006
 30
0.0
 40
0.8661417322999792
 50
4.0084340884877419
 51
30.195993606213559
  0
LINE
  5
94EB
  8
0
 10
4250.0392574684456122
 20
224.4170946306624899
 30
0.0
 11
4251.6177912531657057
 21
224.4170946296773081
 31
0.0
  0
ARC
  5
94EC
  8
0
 10
4250.0392606007089853
 20
224.3974074225536981
 30
0.0
 40
0.0196872083580276
 50
90.0091158391224582
 51
179.9962860912883968
  0
LINE
  5
94ED
  8
0
 10
4251.7621530182523202
 20
223.2157749029522904
 30
0.0
 11
4251.7594706715462962
 21
218.8510489746475969
 31
0.0
  0
LINE
  5
94EE
  8
0
 10
4251.7594469384603144
 20
218.812430395550507
 30
0.0
 11
4251.7553454394774235
 21
212.1384538665274135
 31
0.0
  0
LINE
  5
94F0
  8
0
 10
4249.9035001793772608
 20
212.1384538665274135
 30
0.0
 11
4251.7553454394756045
 21
212.1384538665274135
 31
0.0
  0
LINE
  5
94F1
  8
0
 10
4249.9035001793772608
 20
212.1384538665274135
 30
0.0
 11
4249.9028903772896228
 21
218.8118567307579099
 31
0.0
  0
LINE
  5
94F2
  8
0
 10
4249.9028867957313196
 20
218.8510517180793045
 30
0.0
 11
4249.9026078076922204
 21
221.9041727580550969
 31
0.0
  0
ARC
  5
94F3
  8
0
 10
4249.1522258398217673
 20
221.9269334100131061
 30
0.0
 40
0.7507270775600964
 50
358.2626320508331901
 51
86.7297778417892289
  0
ARC
  5
94F4
  8
0
 10
4246.1413423490921559
 20
120.656861594047399
 30
0.0
 40
102.065268864077396
 50
88.2855015800512319
 51
89.6946157989775656
  0
ARC
  5
94F5
  8
0
 10
4243.3987175611027851
 20
214.0672356139257033
 30
0.0
 40
9.2565664426428782
 50
69.202947768308178
 51
76.1692665087887946
  0
ARC
  5
94F6
  8
0
 10
4247.0188938569572201
 20
224.6398946160639127
 30
0.0
 40
2.119247087692635
 50
222.2168472861293083
 51
228.388060140274888
  0
ARC
  5
94F7
  8
0
 10
4245.470083843588327
 20
223.2356633706652076
 30
0.0
 40
0.0286396785821584
 50
136.271580728776911
 51
223.6600940650500888
  0
ARC
  5
94F8
  8
0
 10
4246.4661067468368856
 20
222.4171207956258911
 30
0.0
 40
1.3177745953537781
 50
112.092152364627907
 51
140.4925744762018098
  0
ARC
  5
94F9
  8
0
 10
4246.7136414995302403
 20
220.7696291445546137
 30
0.0
 40
2.9632156896724871
 50
90.8699489365625936
 51
104.5242938039899059
  0
LINE
  5
94FA
  8
0
 10
4246.6686513220238339
 20
223.7325032740864117
 30
0.0
 11
4249.2767210284919202
 21
223.7325032740864117
 31
0.0
  0
ARC
  5
94FB
  8
0
 10
4249.2457696996707455
 20
224.5145042589664968
 30
0.0
 40
0.7826132666324972
 50
272.2665640917683163
 51
351.395023018380698
  0
LINE
  5
94FC
  8
0
 10
4245.4493489122005485
 20
223.2159075155925905
 30
0.0
 11
4251.7621530182523202
 21
223.2157749029522904
 31
0.0
  0
LINE
  5
94FD
  8
0
 10
4247.6714844951593477
 20
225.1936674738304873
 30
0.0
 11
4248.6502927656920292
 21
225.1942114982333862
 31
0.0
  0
ARC
  5
94FE
  8
0
 10
4248.627529593075451
 20
263.7273190567032088
 30
0.0
 40
38.5331142820642683
 50
270.0338470902261179
 51
271.6614808468319211
  0
ARC
  5
94FF
  8
0
 10
4250.762891342094008
 20
191.3340266674898942
 30
0.0
 40
33.8916741785910816
 50
90.3225766947205386
 51
91.7214532974359429
  0
LINE
  5
9500
  8
0
 10
4250.5720813631924102
 20
225.2251637121470083
 30
0.0
 11
4251.6423983879740263
 21
225.2251365831135956
 31
0.0
  0
LINE
  5
9501
  8
0
 10
4245.7954340544129082
 20
222.9270186919430046
 30
0.0
 11
4245.8039339824781564
 21
222.9099658014264946
 31
0.0
  0
LINE
  5
9502
  8
0
 10
4245.8039339824781564
 20
222.9099658014264946
 30
0.0
 11
4246.4404426166793201
 21
222.7030797298264133
 31
0.0
  0
LINE
  5
9503
  8
0
 10
4246.4404426166793201
 20
222.7030797298264133
 30
0.0
 11
4246.4507216780793897
 21
222.7083124076264085
 31
0.0
  0
LINE
  5
9504
  8
0
 10
4246.4707899041450219
 20
222.7299706849699987
 30
0.0
 11
4246.4925799095872208
 21
222.7914569588764948
 31
0.0
  0
LINE
  5
9505
  8
0
 10
4246.170864867977798
 20
222.7907012929263999
 30
0.0
 11
4246.153296952726123
 21
222.7366515923378927
 31
0.0
  0
LINE
  5
9506
  8
0
 10
4246.0735158575607784
 20
222.8223428971737974
 30
0.0
 11
4246.0559479341782207
 21
222.7682931738264074
 31
0.0
  0
ARC
  5
9507
  8
0
 10
4246.2940668030387315
 20
223.3228675690207012
 30
0.0
 40
0.6035340549731929
 50
226.3722344734565866
 51
246.7626557889769003
  0
ARC
  5
9508
  8
0
 10
4246.2864197531043828
 20
223.3180118312787101
 30
0.0
 40
0.5964070819511811
 50
257.1024786488475229
 51
277.7392123804988842
  0
ARC
  5
9509
  8
0
 10
4272.7645122561134485
 20
224.7084605866623974
 30
0.0
 40
21.1284322263606583
 50
178.5987457600843129
 51
179.5305979670895056
  0
ARC
  5
950A
  8
0
 10
4253.5688891296413203
 20
223.1738006212387972
 30
0.0
 40
1.807223621061014
 50
178.4297447382982966
 51
178.669137877834487
  0
ARC
  5
950B
  8
0
 10
4251.6609498083207654
 20
223.2232954093502997
 30
0.0
 40
0.1013943605528101
 50
0.015826355638305
 51
18.4308353473843489
  0
ARC
  5
950C
  8
0
 10
4255.0634263467709388
 20
224.1791101821820007
 30
0.0
 40
3.4329049973247141
 50
176.3540685132292936
 51
195.6100814754099986
  0
ARC
  5
950D
  8
0
 10
4251.6177955115426812
 20
224.3974208348375896
 30
0.0
 40
0.0196737953005112
 50
359.9701297455736153
 51
90.0124016227018018
  0
LINE
  5
950E
  8
0
 10
4250.0178261799756001
 20
224.813909918246992
 30
0.0
 11
4250.0211290471770553
 21
224.5273308506469903
 31
0.0
  0
ARC
  5
950F
  8
0
 10
4245.8641255273469142
 20
222.9334119349084915
 30
0.0
 40
0.0689883469111405
 50
166.1349879419599063
 51
185.317306426826292
  0
LINE
  5
9510
  8
0
 10
4245.7971472941080719
 20
222.9499439729470112
 30
0.0
 11
4245.814510946504015
 21
223.0030044463269974
 31
0.0
  0
ARC
  5
9511
  8
0
 10
4246.436669649756368
 20
222.7414593937486131
 30
0.0
 40
0.0360025303129311
 50
292.9735836906231725
 51
341.3909885176607872
  0
ARC
  5
9513
  8
0
 10
4249.9227815136446225
 20
218.8114587501962092
 30
0.0
 40
0.0198951173402292
 50
90.098598126757949
 51
178.8537827060931136
  0
ARC
  5
9514
  8
0
 10
4249.9228149986920471
 20
218.8512832711816998
 30
0.0
 40
0.0199295481651897
 50
180.6657107271799987
 51
269.8053051846907238
  0
ARC
  5
9515
  8
0
 10
4251.7395715985221614
 20
218.8114545960567909
 30
0.0
 40
0.0198992794430147
 50
2.8107361278333109
 51
89.8888828454632858
  0
ARC
  5
9516
  8
0
 10
4251.7395472135467571
 20
218.8512785188318048
 30
0.0
 40
0.0199247802802308
 50
270.1810967043531946
 51
359.3399072046727838
  0
LINE
  5
9517
  8
0
 10
4249.9227472769107408
 20
218.8313538380780869
 30
0.0
 11
4251.7396101903677845
 21
218.8313538380780869
 31
0.0
  0
ENDSEC
  0
EOF
