  0
SECTION
  2
HEADER
  9
$ACADVER
  1
AC1009
  9
$INSBASE
 10
4250.8174210247943847
 20
212.1326740305790963
 30
0.0
  9
$EXTMIN
 10
4245.3122322434574016
 20
212.1220786858187921
 30
-0.0015258207003583
  9
$EXTMAX
 10
4252.4496049365880026
 20
225.4521637723358936
 30
0.0000000349246037
  9
$LIMMIN
 10
0.0
 20
0.0
  9
$LIMMAX
 10
11.6929133858000007
 20
8.2677165353999982
  9
$ORTHOMODE
 70
     0
  9
$REGENMODE
 70
     1
  9
$FILLMODE
 70
     1
  9
$QTEXTMODE
 70
     0
  9
$MIRRTEXT
 70
     0
  9
$DRAGMODE
 70
     2
  9
$LTSCALE
 40
0.6431102362
  9
$OSMODE
 70
  4095
  9
$ATTMODE
 70
     1
  9
$TEXTSIZE
 40
0.2
  9
$TRACEWID
 40
0.05
  9
$TEXTSTYLE
  7
STANDARD
  9
$CLAYER
  8
0
  9
$CELTYPE
  6
BYLAYER
  9
$CECOLOR
 62
   256
  9
$DIMSCALE
 40
1.0
  9
$DIMASZ
 40
0.1875
  9
$DIMEXO
 40
0.0625
  9
$DIMDLI
 40
0.4443307087
  9
$DIMRND
 40
0.0
  9
$DIMDLE
 40
0.0
  9
$DIMEXE
 40
0.125
  9
$DIMTP
 40
0.01
  9
$DIMTM
 40
0.01
  9
$DIMTXT
 40
2.0
  9
$DIMCEN
 40
0.1052362205
  9
$DIMTSZ
 40
0.0
  9
$DIMTOL
 70
     1
  9
$DIMLIM
 70
     0
  9
$DIMTIH
 70
     1
  9
$DIMTOH
 70
     1
  9
$DIMSE1
 70
     0
  9
$DIMSE2
 70
     0
  9
$DIMTAD
 70
     0
  9
$DIMZIN
 70
     0
  9
$DIMBLK
  1

  9
$DIMASO
 70
     1
  9
$DIMSHO
 70
     1
  9
$DIMPOST
  1
\X
  9
$DIMAPOST
  1

  9
$DIMALT
 70
     1
  9
$DIMALTD
 70
     2
  9
$DIMALTF
 40
25.3999999999999986
  9
$DIMLFAC
 40
1.0
  9
$DIMTOFL
 70
     0
  9
$DIMTVP
 40
0.0
  9
$DIMTIX
 70
     0
  9
$DIMSOXD
 70
     0
  9
$DIMSAH
 70
     0
  9
$DIMBLK1
  1

  9
$DIMBLK2
  1

  9
$DIMSTYLE
  2
STANDARD
  9
$DIMCLRD
 70
     0
  9
$DIMCLRE
 70
     0
  9
$DIMCLRT
 70
     0
  9
$DIMTFAC
 40
1.0
  9
$DIMGAP
 40
0.09
  9
$LUNITS
 70
     2
  9
$LUPREC
 70
     4
  9
$SKETCHINC
 40
0.1
  9
$FILLETRAD
 40
0.0
  9
$AUNITS
 70
     0
  9
$AUPREC
 70
     0
  9
$MENU
  1
.
  9
$ELEVATION
 40
0.0
  9
$PELEVATION
 40
0.0
  9
$THICKNESS
 40
0.0
  9
$LIMCHECK
 70
     0
  9
$BLIPMODE
 70
     0
  9
$CHAMFERA
 40
0.0
  9
$CHAMFERB
 40
0.0
  9
$SKPOLY
 70
     0
  9
$TDCREATE
 40
2458060.468368056230247
  9
$TDUPDATE
 40
2459104.9692476862110198
  9
$TDINDWG
 40
0.5597061343
  9
$TDUSRTIMER
 40
0.5597061343
  9
$USRTIMER
 70
     1
  9
$ANGBASE
 50
0.0
  9
$ANGDIR
 70
     0
  9
$PDMODE
 70
     0
  9
$PDSIZE
 40
0.3125
  9
$PLINEWID
 40
0.0
  9
$COORDS
 70
     1
  9
$SPLFRAME
 70
     0
  9
$SPLINETYPE
 70
     6
  9
$SPLINESEGS
 70
     8
  9
$ATTDIA
 70
     1
  9
$ATTREQ
 70
     1
  9
$HANDLING
 70
     1
  9
$HANDSEED
  5
A2BE
  9
$SURFTAB1
 70
     6
  9
$SURFTAB2
 70
     6
  9
$SURFTYPE
 70
     6
  9
$SURFU
 70
     6
  9
$SURFV
 70
     6
  9
$UCSNAME
  2

  9
$UCSORG
 10
0.0
 20
0.0
 30
0.0
  9
$UCSXDIR
 10
1.0
 20
0.0
 30
0.0
  9
$UCSYDIR
 10
0.0
 20
1.0
 30
0.0
  9
$PUCSNAME
  2

  9
$PUCSORG
 10
0.0
 20
0.0
 30
0.0
  9
$PUCSXDIR
 10
1.0
 20
0.0
 30
0.0
  9
$PUCSYDIR
 10
0.0
 20
1.0
 30
0.0
  9
$USERI1
 70
     0
  9
$USERI2
 70
     0
  9
$USERI3
 70
     0
  9
$USERI4
 70
     0
  9
$USERI5
 70
     0
  9
$USERR1
 40
0.0
  9
$USERR2
 40
0.0
  9
$USERR3
 40
0.0
  9
$USERR4
 40
0.0
  9
$USERR5
 40
0.0
  9
$WORLDVIEW
 70
     1
  9
$SHADEDGE
 70
     3
  9
$SHADEDIF
 70
    70
  9
$TILEMODE
 70
     1
  9
$MAXACTVP
 70
    64
  9
$PLIMCHECK
 70
     0
  9
$PEXTMIN
 10
1.0000000000000000E+20
 20
1.0000000000000000E+20
 30
1.0000000000000000E+20
  9
$PEXTMAX
 10
-1.0000000000000000E+20
 20
-1.0000000000000000E+20
 30
-1.0000000000000000E+20
  9
$PLIMMIN
 10
0.0
 20
0.0
  9
$PLIMMAX
 10
12.0
 20
9.0
  9
$UNITMODE
 70
     0
  9
$VISRETAIN
 70
     1
  9
$PLINEGEN
 70
     0
  9
$PSLTSCALE
 70
     1
  0
ENDSEC
  0
SECTION
  2
TABLES
  0
TABLE
  2
VPORT
 70
     1
  0
VPORT
  2
*ACTIVE
 70
     0
 10
0.0
 20
0.0
 11
1.0
 21
1.0
 12
0.2791119493977039
 22
-0.0051368589918184
 13
0.0
 23
0.0
 14
1.0
 24
1.0
 15
0.0
 25
0.0
 16
0.0
 26
0.0
 36
56.4577067074767385
 17
4248.601806640625
 27
218.7922580880691044
 37
0.0
 40
13.4410150594978202
 41
2.6486111111111108
 42
50.0
 43
0.0
 44
0.0
 50
0.0
 51
0.0
 71
     0
 72
   100
 73
     1
 74
     1
 75
     0
 76
     0
 77
     0
 78
     0
  0
ENDTAB
  0
TABLE
  2
LTYPE
 70
     2
  0
LTYPE
  2
CONTINUOUS
 70
     0
  3
Solid line
 72
    65
 73
     0
 40
0.0
  0
LTYPE
  2
PHANTOM2
 70
     0
  3
___ _ _ ___ _ _ ___ _ _ ___ _ _
 72
    65
 73
     6
 40
1.25
 49
0.625
 49
-0.125
 49
0.125
 49
-0.125
 49
0.125
 49
-0.125
  0
ENDTAB
  0
TABLE
  2
LAYER
 70
     2
  0
LAYER
  2
0
 70
     0
 62
   255
  6
CONTINUOUS
  0
LAYER
  2
DEFPOINTS
 70
     0
 62
     7
  6
CONTINUOUS
  0
ENDTAB
  0
TABLE
  2
STYLE
 70
     1
  0
STYLE
  2
STANDARD
 70
     0
 40
0.0
 41
0.8
 50
0.0
 71
     0
 42
0.2
  3
txt
  4

  0
ENDTAB
  0
TABLE
  2
VIEW
 70
     0
  0
ENDTAB
  0
TABLE
  2
UCS
 70
     0
  0
ENDTAB
  0
TABLE
  2
APPID
 70
     9
  0
APPID
  2
ACAD
 70
     0
  0
APPID
  2
ACAD_MLEADERVER
 70
     0
  0
APPID
  2
ACAD_EXEMPT_FROM_CAD_STANDARDS
 70
     0
  0
APPID
  2
ACAD_NAV_VCDISPLAY
 70
     0
  0
APPID
  2
ACAECLAYERSTANDARD
 70
     0
  0
APPID
  2
ACCMTRANSPARENCY
 70
     0
  0
APPID
  2
ACAD_DSTYLE_DIMJAG
 70
     0
  0
APPID
  2
ACAD_DSTYLE_DIMTALN
 70
     0
  0
APPID
  2
ACDBATTR
 70
     0
  0
ENDTAB
  0
TABLE
  2
DIMSTYLE
 70
     1
  0
DIMSTYLE
  2
STANDARD
 70
     0
  3

  4

  5

  6

  7

 40
1.0
 41
0.1875
 42
0.0625
 43
0.38
 44
0.125
 45
0.0
 46
0.0
 47
0.01
 48
0.01
140
0.15625
141
0.09
142
0.0
143
25.3999999999999986
144
1.0
145
0.0
146
1.0
147
0.09
 71
     1
 72
     0
 73
     1
 74
     1
 75
     0
 76
     0
 77
     0
 78
     4
170
     0
171
     2
172
     0
173
     0
174
     0
175
     0
176
     0
177
     0
178
     0
  0
ENDTAB
  0
ENDSEC
  0
SECTION
  2
BLOCKS
  0
BLOCK
  8
0
  2
$MODEL_SPACE
 70
     0
 10
0.0
 20
0.0
 30
0.0
  3
$MODEL_SPACE
  1

  0
ENDBLK
  5
21
  8
0
  0
BLOCK
 67
     1
  8
0
  2
$PAPER_SPACE
 70
     0
 10
0.0
 20
0.0
 30
0.0
  3
$PAPER_SPACE
  1

  0
ENDBLK
  5
1D
 67
     1
  8
0
  0
BLOCK
  8
0
  2
_FILLED
 70
     0
 10
0.0
 20
0.0
 30
0.0
  3
_FILLED
  1

  0
SOLID
  5
6F59
  8
0
  6
BYBLOCK
 62
     0
 10
0.0
 20
0.0
 30
0.0
 11
-1.0
 21
0.1666666667
 31
0.0
 12
-1.0
 22
-0.1666666667
 32
0.0
 13
-1.0
 23
-0.1666666667
 33
0.0
  0
ENDBLK
  5
6F5A
  8
0
  6
BYBLOCK
 62
     0
  0
ENDSEC
  0
SECTION
  2
ENTITIES
  0
ATTDEF
  5
3930
  8
DEFPOINTS
 10
4250.8181187797454186
 20
212.1367844459948913
 30
0.0
 40
0.001
  1
K-99448T-4E2
  3

  2
MODELNUMBER
 70
     0
1001
ACDBATTR
1070
     0
1070
     1
  0
ATTDEF
  5
3931
  8
DEFPOINTS
 10
4250.8181187797454186
 20
212.1351177793283114
 30
0.0
 40
0.001
  1
KUMIN
  3

  2
TRADENAME
 70
     0
1001
ACDBATTR
1070
     0
1070
     1
  0
ATTDEF
  5
3932
  8
DEFPOINTS
 10
4250.8181187797454186
 20
212.1334511126615894
 30
0.0
 40
0.001
  1
BATHROOM SINK FAUCET
  3

  2
PRODUCT
 70
     0
1001
ACDBATTR
1070
     0
1070
     1
  0
LINE
  5
9DC9
  8
0
 10
4248.6382909810581623
 20
225.4452832033790912
 30
0.0
 11
4250.5600853889591235
 21
225.4452832033790912
 31
0.0
  0
ARC
  5
9DCA
  8
0
 10
4250.5191383487808707
 20
222.3356247044239069
 30
0.0
 40
3.1099280763747128
 50
69.2199314382514217
 51
89.245590148997664
  0
ARC
  5
9DCB
  8
0
 10
4248.762217699249959
 20
221.4954734469019968
 30
0.0
 40
3.951753401193423
 50
91.797086391207813
 51
106.2034776099281999
  0
ARC
  5
9DCC
  8
0
 10
4247.6897461366352218
 20
225.2390688198422879
 30
0.0
 40
0.0594591317359373
 50
120.5951389714895043
 51
239.4041807354055038
  0
ARC
  5
9DCD
  8
0
 10
4247.8823725468137127
 20
225.5779280716702999
 30
0.0
 40
0.4492342586115686
 50
240.2540569153271974
 51
265.8770684274160772
  0
ARC
  5
9DCE
  8
0
 10
4251.6021682033660909
 20
225.2232647861775092
 30
0.0
 40
0.0284976373417123
 50
352.1178737355468229
 51
44.528967193698378
  0
ARC
  5
9DCF
  8
0
 10
4251.6051009451466598
 20
224.8761167966723917
 30
0.0
 40
0.019689306665522
 50
295.0733242162665988
 51
359.0077695207476722
  0
LINE
  5
9DD0
  8
0
 10
4251.6134448354578126
 20
224.8582828881986018
 30
0.0
 11
4250.9746073898586474
 21
224.5603880947986966
 31
0.0
  0
ARC
  5
9DD1
  8
0
 10
4250.6751141333579653
 20
225.2026534555986075
 30
0.0
 40
0.7086614172999735
 50
270.0000000323603899
 51
295.0000000114198997
  0
LINE
  5
9DD2
  8
0
 10
4250.675114133758143
 20
224.4939920382986998
 30
0.0
 11
4250.0407028663075835
 21
224.4939920382986998
 31
0.0
  0
ARC
  5
9DD3
  8
0
 10
4250.039021903300636
 20
224.5239343893080104
 30
0.0
 40
0.0299894985052974
 50
184.5583111996473065
 51
273.213211097303315
  0
ARC
  5
9DD4
  8
0
 10
4249.6561017738176815
 20
224.8756420157411924
 30
0.0
 40
0.3561794114824337
 50
349.0737831369763171
 51
41.7043540693315506
  0
ARC
  5
9DD5
  8
0
 10
4248.7441483514076026
 20
-3452.2669258749369874
 30
0.0
 40
3677.3968909537079526
 50
89.9860698525001084
 51
90.0139301474998774
  0
ARC
  5
9DD6
  8
0
 10
4249.5749167619542277
 20
221.7457318558197983
 30
0.0
 40
3.384716606241108
 50
84.1139452203998843
 51
88.9283095660845788
  0
LINE
  5
9DD7
  8
0
 10
4250.0681869038271543
 20
224.4939920382985861
 30
0.0
 11
4250.0554932663117143
 21
224.4113147941986881
 31
0.0
  0
ARC
  5
9DD8
  8
0
 10
4250.7106527481591911
 20
224.3507686140985982
 30
0.0
 40
0.8661417322999792
 50
4.0084340884844929
 51
30.1959936062290311
  0
LINE
  5
9DD9
  8
0
 10
4250.0272556838126548
 20
224.4113147947142011
 30
0.0
 11
4251.6057894685318388
 21
224.4113147937289057
 31
0.0
  0
ARC
  5
9DDA
  8
0
 10
4250.0272588160751184
 20
224.3916275866054093
 30
0.0
 40
0.0196872083580276
 50
90.0091158391224582
 51
179.9962860912883968
  0
LINE
  5
9DDB
  8
0
 10
4251.7501512336184533
 20
223.2099950670040016
 30
0.0
 11
4251.7474688869142483
 21
218.8452691386991944
 31
0.0
  0
LINE
  5
9DDC
  8
0
 10
4251.747445153827357
 20
218.8066505596021898
 30
0.0
 11
4251.7445355653107981
 21
214.0721557959415975
 31
0.0
  0
LINE
  5
9DDD
  8
0
 10
4251.7443250853202699
 20
213.7296618613208921
 30
0.0
 11
4251.7433436548426471
 21
212.1326740305790963
 31
0.0
  0
LINE
  5
9DDE
  8
0
 10
4249.8914983947443034
 20
212.1326740305790963
 30
0.0
 11
4251.7433436548426471
 21
212.1326740305790963
 31
0.0
  0
LINE
  5
9DDF
  8
0
 10
4249.8914983947443034
 20
212.1326740305790963
 30
0.0
 11
4249.8908885926566654
 21
218.8060768948095927
 31
0.0
  0
LINE
  5
9DE0
  8
0
 10
4249.8908850110983622
 20
218.845271882130902
 30
0.0
 11
4249.8906060230583535
 21
221.8983929221066944
 31
0.0
  0
ARC
  5
9DE1
  8
0
 10
4249.1399686881441085
 20
221.8982425985659006
 30
0.0
 40
0.7506373499672835
 50
0.0114741219727792
 51
86.6417605727140057
  0
ARC
  5
9DE2
  8
0
 10
4243.7646415445078674
 20
215.4175078660163081
 30
0.0
 40
7.8496033493187181
 50
68.2318774080789723
 51
76.4816598702035435
  0
ARC
  5
9DE3
  8
0
 10
4247.0068920723242627
 20
224.6341147801155955
 30
0.0
 40
2.119247087692635
 50
222.2168472861424959
 51
228.3880601402684078
  0
ARC
  5
9DE4
  8
0
 10
4245.4580820589553696
 20
223.2298835347168904
 30
0.0
 40
0.0286396785821584
 50
136.2715807287638938
 51
223.6600940650417897
  0
ARC
  5
9DE5
  8
0
 10
4246.4541049622039282
 20
222.4113409596776023
 30
0.0
 40
1.3177745953537781
 50
112.092152364631005
 51
140.4925744762155944
  0
ARC
  5
9DE6
  8
0
 10
4246.7016397148963733
 20
220.7638493086062113
 30
0.0
 40
2.9632156896724871
 50
90.8699489365625936
 51
104.5242938039899059
  0
LINE
  5
9DE7
  8
0
 10
4246.656649537389967
 20
223.7267234381380945
 30
0.0
 11
4249.2647192438580532
 21
223.7267234381380945
 31
0.0
  0
ARC
  5
9DE8
  8
0
 10
4249.2337679150359691
 20
224.508724423018208
 30
0.0
 40
0.7826132666324972
 50
272.2665640917683731
 51
351.3950230183742178
  0
LINE
  5
9DE9
  8
0
 10
4245.4373471275657721
 20
223.210127679644188
 30
0.0
 11
4251.7501512336184533
 21
223.2099950670040016
 31
0.0
  0
LINE
  5
9DEA
  8
0
 10
4247.6594827105245713
 20
225.1878876378821985
 30
0.0
 11
4248.6382909810581623
 21
225.1884316622850974
 31
0.0
  0
ARC
  5
9DEB
  8
0
 10
4248.6155278084406746
 20
263.7215392207547779
 30
0.0
 40
38.5331142820642683
 50
270.0338470902261179
 51
271.6614808468319211
  0
ARC
  5
9DEC
  8
0
 10
4250.7508895574610506
 20
191.3282468315414917
 30
0.0
 40
33.8916741785910816
 50
90.3225766947205386
 51
91.7214532974359429
  0
LINE
  5
9DED
  8
0
 10
4250.5600795785594528
 20
225.219383876198691
 30
0.0
 11
4251.6303966033410688
 21
225.2193567471651932
 31
0.0
  0
ARC
  5
9DEE
  8
0
 10
4272.7525104714795816
 20
224.7026807507139949
 30
0.0
 40
21.1284322263606583
 50
178.5987457600843129
 51
179.5305979670895056
  0
ARC
  5
9DEF
  8
0
 10
4253.5568873450083629
 20
223.1680207852903948
 30
0.0
 40
1.807223621061014
 50
178.4297447382982966
 51
178.669137877834487
  0
ARC
  5
9DF0
  8
0
 10
4251.6489480236868985
 20
223.2175155734020109
 30
0.0
 40
0.1013943605528101
 50
0.015826355638305
 51
18.4308353473920796
  0
ARC
  5
9DF1
  8
0
 10
4255.0514245621379814
 20
224.1733303462337119
 30
0.0
 40
3.4329049973247141
 50
176.3540685132325052
 51
195.6100814754163082
  0
ARC
  5
9DF2
  8
0
 10
4251.6057937269079048
 20
224.3916409988893008
 30
0.0
 40
0.0196737953005112
 50
359.9701297455736153
 51
90.0124016227018018
  0
LINE
  5
9DF3
  8
0
 10
4250.0058243953417332
 20
224.8081300822987032
 30
0.0
 11
4250.0091272625431884
 21
224.5215510146987015
 31
0.0
  0
ARC
  5
9DF4
  8
0
 10
4249.9107797290098461
 20
218.805678914247892
 30
0.0
 40
0.0198951173402292
 50
90.098598126757949
 51
178.8537827060931136
  0
ARC
  5
9DF5
  8
0
 10
4249.9108132140590897
 20
218.8455034352332973
 30
0.0
 40
0.0199295481651897
 50
180.6657107271799987
 51
269.8053051846907238
  0
ARC
  5
9DF6
  8
0
 10
4251.727569813887385
 20
218.8056747601085021
 30
0.0
 40
0.0198992794430147
 50
2.8107361278333109
 51
89.8888828454632858
  0
ARC
  5
9DF7
  8
0
 10
4251.7275454289137997
 20
218.8454986828834024
 30
0.0
 40
0.0199247802802308
 50
270.1810967043531946
 51
359.3399072046727838
  0
LINE
  5
9DF8
  8
0
 10
4249.9107454922777833
 20
218.8255740021297981
 30
0.0
 11
4251.7276084057339176
 21
218.8255740021297981
 31
0.0
  0
LINE
  5
9DFA
  8
0
 10
4251.5592941881941442
 20
213.6664901500791132
 30
0.0
 11
4251.6466519032937867
 21
213.9436303802791031
 31
0.0
  0
ARC
  5
9DFB
  8
0
 10
4251.8741186613433456
 20
213.8719303018384039
 30
0.0
 40
0.2384995330520775
 50
122.9103706550564965
 51
162.5045628096397934
  0
ARC
  5
9DFC
  8
0
 10
4251.8487202627065926
 20
213.9111746714524998
 30
0.0
 40
0.1917534187782205
 50
67.0339078814574663
 51
122.9103706550564965
  0
LINE
  5
9DFD
  8
0
 10
4251.9235398199771225
 20
214.0877289335450939
 30
0.0
 11
4252.3019189467104297
 21
213.9291275882845014
 31
0.0
  0
ARC
  5
9DFE
  8
0
 10
4252.2941371438164424
 20
213.9112017534781103
 30
0.0
 40
0.019542145969956
 50
31.3671997774322016
 51
66.5132404384061999
  0
ARC
  5
9DFF
  8
0
 10
4252.2739638989869491
 20
213.8989037982371997
 30
0.0
 40
0.0431683921815036
 50
8.5421863522865493
 51
31.3671997774322016
  0
ARC
  5
9E00
  8
0
 10
4252.225986726638439
 20
213.8787942348112949
 30
0.0
 40
0.0944661226718665
 50
6.8957475872558964
 51
16.3051792554326909
  0
ARC
  5
9E01
  8
0
 10
4252.2057071142371569
 20
213.8865926597324858
 30
0.0
 40
0.1141174190391856
 50
336.0746979271568762
 51
1.7793853301306599
  0
ARC
  5
9E02
  8
0
 10
4252.2098196093111255
 20
213.8791251442183921
 30
0.0
 40
0.1074537464283682
 50
309.2391338120611977
 51
338.8261052334843271
  0
ARC
  5
9E03
  8
0
 10
4252.0652498469380589
 20
214.1341517809028971
 30
0.0
 40
0.3994836229030115
 50
299.4966340824623785
 51
302.1432698667932186
  0
ARC
  5
9E04
  8
0
 10
4252.2470387474859308
 20
213.812814139465587
 30
0.0
 40
0.0302884398067829
 50
271.9989981318008745
 51
299.4806144108314925
  0
ARC
  5
9E05
  8
0
 10
4252.2479872346066259
 20
213.8011053349862038
 30
0.0
 40
0.0185615173111902
 50
247.5891172458211997
 51
270.3334844806075807
  0
ARC
  5
9E06
  8
0
 10
4252.2478677754397722
 20
213.8003548631261879
 30
0.0
 40
0.0178230483612224
 50
234.0332659963729043
 51
247.0243572998693935
  0
ARC
  5
9E07
  8
0
 10
4252.2547750415405972
 20
213.8074149946453133
 30
0.0
 40
0.0276317200450488
 50
193.4362720510806071
 51
231.0378439566898976
  0
ARC
  5
9E08
  8
0
 10
4252.3132654268229089
 20
213.820618155946903
 30
0.0
 40
0.0875923032477271
 50
167.4454260852594132
 51
192.9461580154741114
  0
ARC
  5
9E09
  8
0
 10
4252.3871541196231192
 20
213.8080024488178879
 30
0.0
 40
0.1624997504641974
 50
148.5774147457748029
 51
168.7667277629776095
  0
ARC
  5
9E0A
  8
0
 10
4252.342949364994638
 20
213.8371499735598888
 30
0.0
 40
0.1095971095906096
 50
130.5423834785642896
 51
149.5325518340216888
  0
ARC
  5
9E0B
  8
0
 10
4252.3019091269843557
 20
213.8853687589987942
 30
0.0
 40
0.0462781127087928
 50
106.4520154943344039
 51
130.7345251164252034
  0
ARC
  5
9E0C
  8
0
 10
4252.2946766576242226
 20
213.9075974485330107
 30
0.0
 40
0.0229201654762914
 50
84.1147944614301366
 51
104.8496483269267969
  0
ARC
  5
9E0D
  8
0
 10
4252.2947103167516616
 20
213.9108460820393987
 30
0.0
 40
0.0196874831714842
 50
70.936149323494945
 51
83.2428037185384824
  0
LINE
  5
9E0E
  8
0
 10
4251.5943182788168997
 20
213.2537686314529992
 30
0.0
 11
4251.7968467153377787
 21
213.8962855548014943
 31
0.0
  0
ARC
  5
9E0F
  8
0
 10
4251.8792282349622838
 20
213.8703179891834907
 30
0.0
 40
0.086377249550028
 50
137.0813360048666141
 51
162.5045724148334045
  0
ARC
  5
9E10
  8
0
 10
4251.8530399957371628
 20
213.8946695048958873
 30
0.0
 40
0.0506166540404774
 50
104.3503168844432025
 51
137.0813360048666141
  0
ARC
  5
9E11
  8
0
 10
4251.8498862444139377
 20
213.9069969230031063
 30
0.0
 40
0.0378922135972942
 50
75.9222117748274741
 51
104.3503168844436004
  0
ARC
  5
9E12
  8
0
 10
4251.8462098747104392
 20
213.8923366301922044
 30
0.0
 40
0.0530064413151459
 50
68.0226428187302048
 51
75.9222117748274741
  0
LINE
  5
9E13
  8
0
 10
4251.8660470131926559
 20
213.9414911900790912
 30
0.0
 11
4252.2409107307939848
 21
213.783945701579114
 31
0.0
  0
ARC
  5
9E14
  8
0
 10
4251.6114888694492038
 20
213.8909959060187873
 30
0.0
 40
0.0243721829270188
 50
25.859305434667899
 51
61.1684553361551977
  0
ARC
  5
9E15
  8
0
 10
4251.6192642873629666
 20
213.9035906167432017
 30
0.0
 40
0.0096174634810705
 50
65.569179576238156
 51
117.0309098043404958
  0
ARC
  5
9E16
  8
0
 10
4251.6242798703424342
 20
213.8936432065854945
 30
0.0
 40
0.0207577387908043
 50
116.884280357394104
 51
142.4288932552805989
  0
ARC
  5
9E17
  8
0
 10
4251.673003881479417
 20
213.8561597940181969
 30
0.0
 40
0.0822315989184846
 50
142.4288932552805989
 51
158.7776545948709099
  0
ARC
  5
9E18
  8
0
 10
4252.0342835329165609
 20
213.7158665306411081
 30
0.0
 40
0.4697947373777284
 50
158.7776545948709099
 51
161.4722209772166934
  0
ARC
  5
9E19
  8
0
 10
4252.1887866843699157
 20
213.6882767046245988
 30
0.0
 40
0.6254776686310628
 50
163.5736823511986131
 51
171.6676358757140974
  0
ARC
  5
9E1A
  8
0
 10
4253.0371196442101791
 20
213.5561601677862882
 30
0.0
 40
1.484021809377956
 50
171.3670425450638106
 51
178.8779155093151019
  0
ARC
  5
9E1B
  8
0
 10
4252.7928768265146573
 20
213.5412678613938056
 30
0.0
 40
1.2402734867609271
 50
177.9690889334983979
 51
190.5453330165516945
  0
ARC
  5
9E1C
  8
0
 10
4251.8890096094592081
 20
213.3768990901801885
 30
0.0
 40
0.321613293489415
 50
191.2271672422697009
 51
203.3820783461588064
  0
ARC
  5
9E1D
  8
0
 10
4251.6566698384303891
 20
213.2754660095552026
 30
0.0
 40
0.0681046317789808
 50
202.6276492288536986
 51
223.6594934686183933
  0
ARC
  5
9E1E
  8
0
 10
4251.6223329394888424
 20
213.2426993685101877
 30
0.0
 40
0.0206422741237371
 50
223.6594934686206955
 51
250.6746133523130027
  0
ARC
  5
9E1F
  8
0
 10
4251.6194104004525798
 20
213.2343657460075121
 30
0.0
 40
0.0118110511937803
 50
250.6746133523135995
 51
303.7729724932185036
  0
ARC
  5
9E20
  8
0
 10
4251.6088269762312848
 20
213.2501912201134076
 30
0.0
 40
0.0308492890047477
 50
303.7729724932185036
 51
330.4539826186322102
  0
ARC
  5
9E21
  8
0
 10
4251.5349295667347178
 20
213.2920787476855082
 30
0.0
 40
0.1157927531218729
 50
330.4539826186322102
 51
338.1071245052565928
  0
ARC
  5
9E22
  8
0
 10
4251.4845258072800789
 20
213.3123336490841098
 30
0.0
 40
0.1701140196567305
 50
338.1071245052565928
 51
341.9444573149103235
  0
ARC
  5
9E23
  8
0
 10
4251.3129170635429546
 20
213.3682766888408935
 30
0.0
 40
0.3506110684518748
 50
341.9444573149103235
 51
356.9076744703866098
  0
ARC
  5
9E24
  8
0
 10
4250.2976388242050234
 20
213.4986923198819113
 30
0.0
 40
1.3735204715723981
 50
353.7584562498983018
 51
357.285077811341921
  0
ARC
  5
9E25
  8
0
 10
4249.5489112140012367
 20
213.5388777271606102
 30
0.0
 40
2.1233162835185651
 50
357.1589103138230143
 51
358.9451445185520129
  0
ARC
  5
9E26
  8
0
 10
4252.2925497027308666
 20
213.8927561083272906
 30
0.0
 40
0.0264807720434761
 50
14.8475538933493407
 51
43.7923976772232422
  0
ARC
  5
9E27
  8
0
 10
4252.3021659487167199
 20
213.9019753076827897
 30
0.0
 40
0.0131591421272153
 50
43.7923976772255799
 51
73.3080117656618171
  0
ARC
  5
9E28
  8
0
 10
4252.3006239459546123
 20
213.8968329324090121
 30
0.0
 40
0.0185277356091701
 50
73.3080117656613623
 51
97.7658357999018648
  0
ARC
  5
9E29
  8
0
 10
4252.3012465593246816
 20
213.8922674996811111
 30
0.0
 40
0.0231354273742037
 50
97.7658357999018648
 51
115.7630204921227062
  0
ARC
  5
9E2A
  8
0
 10
4252.3246495304938435
 20
213.8511943462634974
 30
0.0
 40
0.0703718906110861
 50
118.389086348439406
 51
147.3510347640838916
  0
ARC
  5
9E2B
  8
0
 10
4252.3791706907122716
 20
213.8111548292264956
 30
0.0
 40
0.1379462065665344
 50
145.5650416654005994
 51
163.5507904615259918
  0
ARC
  5
9E2C
  8
0
 10
4252.335058906289305
 20
213.8214368536700931
 30
0.0
 40
0.0927656369872938
 50
161.9263442893253
 51
187.5007623407148003
  0
ARC
  5
9E2D
  8
0
 10
4252.2707362813061991
 20
213.8130663106747988
 30
0.0
 40
0.0279008982915504
 50
187.7014322392313943
 51
224.5856695146260051
  0
ARC
  5
9E2E
  8
0
 10
4252.2608953794524496
 20
213.8046223342815892
 30
0.0
 40
0.0149914272538396
 50
228.0054465003867961
 51
261.3413745975495885
  0
ARC
  5
9E2F
  8
0
 10
4252.2612279726299676
 20
213.8102412165385999
 30
0.0
 40
0.020602831521586
 50
262.7795719348752073
 51
281.2912136429345082
  0
ARC
  5
9E30
  8
0
 10
4252.2599120003851567
 20
213.8154145365878094
 30
0.0
 40
0.0259351677426706
 50
281.9044686007450764
 51
291.0513785675515237
  0
ARC
  5
9E31
  8
0
 10
4252.2575650319777196
 20
213.82167485794821
 30
0.0
 40
0.0326207620877129
 50
290.9487861944039082
 51
296.4577596545390179
  0
ARC
  5
9E32
  8
0
 10
4252.2928037236979435
 20
213.7517570118990875
 30
0.0
 40
0.0456760007249995
 50
115.9302882105513959
 51
116.9555701861611965
  0
LINE
  5
9E33
  8
0
 10
4246.4787343022799178
 20
222.7863307766872083
 30
0.0
 11
4246.4583158440191255
 21
222.7302244002474083
 31
0.0
  0
ARC
  5
9E34
  8
0
 10
4246.4213195216279928
 20
222.7436882511159979
 30
0.0
 40
0.0393700793835685
 50
295.0023381249534964
 51
340.0023373857824254
  0
LINE
  5
9E35
  8
0
 10
4246.4379594922929755
 20
222.7080075205790877
 30
0.0
 11
4246.4275093425940213
 21
222.7031340166533084
 31
0.0
  0
LINE
  5
9E36
  8
0
 10
4246.4275093425940213
 20
222.7031340166533084
 30
0.0
 11
4245.7985713762927844
 21
222.9320192423791127
 31
0.0
  0
LINE
  5
9E37
  8
0
 10
4245.7985713762927844
 20
222.9320192423791127
 30
0.0
 11
4245.7936976419741768
 21
222.9424698862499952
 31
0.0
  0
ARC
  5
9E38
  8
0
 10
4245.8293783730932773
 20
222.9591098565678067
 30
0.0
 40
0.0393700798241265
 50
160.0023972561976962
 51
205.0023373953266059
  0
LINE
  5
9E39
  8
0
 10
4245.7923820362439074
 20
222.9725736689966027
 30
0.0
 11
4245.8014566102092431
 21
222.997509102176906
 31
0.0
  0
ARC
  5
9E3A
  8
0
 10
4246.3000038709660657
 20
223.3237622259935051
 30
0.0
 40
0.5988558337829907
 50
224.2999432875814136
 51
244.8513296494060114
  0
LINE
  5
9E3B
  8
0
 10
4246.0455089982942809
 20
222.7816730548790929
 30
0.0
 11
4246.0649449190150335
 21
222.8350796843940884
 31
0.0
  0
LINE
  5
9E3C
  8
0
 10
4246.0310242280938837
 20
222.8339700754791011
 30
0.0
 11
4246.0263790603939924
 21
222.8212059616791123
 31
0.0
  0
LINE
  5
9E3D
  8
0
 10
4246.0263790603939924
 20
222.8212059616791123
 30
0.0
 11
4246.0255809247928482
 21
222.8214672922790953
 31
0.0
  0
LINE
  5
9E3E
  8
0
 10
4246.0255809247928482
 20
222.8214672922790953
 30
0.0
 11
4246.0116211971107987
 21
222.8329582438908005
 31
0.0
  0
LINE
  5
9E3F
  8
0
 10
4246.0116211971107987
 20
222.8329582438908005
 30
0.0
 11
4246.0140141469919399
 21
222.8395336544762984
 31
0.0
  0
LINE
  5
9E40
  8
0
 10
4246.0140141469919399
 20
222.8395336544762984
 30
0.0
 11
4246.0303445978970558
 21
222.8345570383972074
 31
0.0
  0
LINE
  5
9E41
  8
0
 10
4246.0303445978970558
 20
222.8345570383972074
 30
0.0
 11
4246.0310242280984312
 21
222.8339700754904982
 31
0.0
  0
LINE
  5
9E42
  8
0
 10
4246.0303445977942829
 20
222.8345570382790868
 30
0.0
 11
4246.0255809247928482
 21
222.8214672922790953
 31
0.0
  0
LINE
  5
9E43
  8
0
 10
4246.0079307727501146
 20
222.8228175988467115
 30
0.0
 11
4246.0062720841942792
 21
222.8182598107790966
 31
0.0
  0
LINE
  5
9E44
  8
0
 10
4246.0062720841942792
 20
222.8182598107790966
 30
0.0
 11
4246.0206152268401638
 21
222.8078224180175937
 31
0.0
  0
LINE
  5
9E45
  8
0
 10
4246.0206152268401638
 20
222.8078224180175937
 30
0.0
 11
4246.0213970007926036
 21
222.8075161273791025
 31
0.0
  0
LINE
  5
9E46
  8
0
 10
4246.0213970007926036
 20
222.8075161273791025
 30
0.0
 11
4246.0246176600930994
 21
222.8163659396790877
 31
0.0
  0
LINE
  5
9E47
  8
0
 10
4246.0246176600930994
 20
222.8163659396790877
 30
0.0
 11
4246.023917993539726
 21
222.8168978460780068
 31
0.0
  0
LINE
  5
9E48
  8
0
 10
4246.023917993539726
 20
222.8168978460780068
 30
0.0
 11
4246.0079307728101412
 21
222.822817598823292
 31
0.0
  0
LINE
  5
9E49
  8
0
 10
4246.0028946315969733
 20
222.8089791576616108
 30
0.0
 11
4246.0038710647258995
 21
222.8116622264057014
 31
0.0
  0
LINE
  5
9E4A
  8
0
 10
4246.0038710647258995
 20
222.8116622264057014
 30
0.0
 11
4246.0195330080841813
 21
222.8048486679531948
 31
0.0
  0
LINE
  5
9E4B
  8
0
 10
4246.0195330080841813
 20
222.8048486679531948
 30
0.0
 11
4246.0202506885943876
 21
222.8043662605790871
 31
0.0
  0
LINE
  5
9E4C
  8
0
 10
4246.0202506885943876
 20
222.8043662605790871
 30
0.0
 11
4246.0183544586943754
 21
222.7991557502791125
 31
0.0
  0
LINE
  5
9E4D
  8
0
 10
4246.0183544586943754
 20
222.7991557502791125
 30
0.0
 11
4246.0175656844530749
 21
222.7994428041641868
 31
0.0
  0
LINE
  5
9E4E
  8
0
 10
4246.0175656844530749
 20
222.7994428041641868
 30
0.0
 11
4246.0028946315969733
 21
222.8089791576616108
 31
0.0
  0
LINE
  5
9E4F
  8
0
 10
4246.0013883827314203
 20
222.8048402475770047
 30
0.0
 11
4246.0017108797937908
 21
222.8057264134791069
 31
0.0
  0
LINE
  5
9E50
  8
0
 10
4246.0017108797937908
 20
222.8057264134791069
 30
0.0
 11
4246.0170548173246061
 21
222.7980390301692069
 31
0.0
  0
LINE
  5
9E51
  8
0
 10
4246.0170548173246061
 20
222.7980390301692069
 30
0.0
 11
4246.0177892129941029
 21
222.7976025531791038
 31
0.0
  0
LINE
  5
9E52
  8
0
 10
4246.0177892129941029
 20
222.7976025531791038
 30
0.0
 11
4246.0171711815455637
 21
222.7959043100242127
 31
0.0
  0
LINE
  5
9E53
  8
0
 10
4246.0164239045670911
 20
222.7963053914436955
 30
0.0
 11
4246.0170548189453257
 21
222.7980390293566018
 31
0.0
  0
LINE
  5
9E54
  8
0
 10
4246.0013883826932215
 20
222.8048402474790919
 30
0.0
 11
4246.0090126161403532
 21
222.8003576030959891
 31
0.0
  0
LINE
  5
9E55
  8
0
 10
4246.0220906688227842
 20
222.850675347645705
 30
0.0
 11
4246.0326427336785855
 21
222.8408719162131888
 31
0.0
  0
LINE
  5
9E56
  8
0
 10
4246.0326427336785855
 20
222.8408719162131888
 30
0.0
 11
4246.0334315079171574
 21
222.840584862321009
 31
0.0
  0
LINE
  5
9E57
  8
0
 10
4246.0334315079171574
 20
222.840584862321009
 30
0.0
 11
4246.0353482299942698
 21
222.8458516816791075
 31
0.0
  0
LINE
  5
9E58
  8
0
 10
4246.034559111551971
 20
222.8461377899191973
 30
0.0
 11
4246.0326427336785855
 21
222.8408719162131888
 31
0.0
  0
LINE
  5
9E59
  8
0
 10
4246.0178214005909467
 20
222.852215283670489
 30
0.0
 11
4246.0233643329856932
 21
222.8469311024558124
 31
0.0
  0
LINE
  5
9E5A
  8
0
 10
4246.0233643329856932
 20
222.8469311024558124
 30
0.0
 11
4246.0205809094941287
 21
222.8392827380791061
 31
0.0
  0
LINE
  5
9E5B
  8
0
 10
4246.0205809094941287
 20
222.8392827380791061
 30
0.0
 11
4246.0043760546541307
 21
222.8446044701614142
 31
0.0
  0
LINE
  5
9E5C
  8
0
 10
4246.0043760546541307
 20
222.8446044701614142
 30
0.0
 11
4245.9909491893931772
 21
222.8575596351790864
 31
0.0
  0
LINE
  5
9E5D
  8
0
 10
4245.9909491893931772
 20
222.8575596351790864
 30
0.0
 11
4245.9923793335938171
 21
222.8614894229791048
 31
0.0
  0
LINE
  5
9E5E
  8
0
 10
4246.0043760546541307
 20
222.8446044701614142
 30
0.0
 11
4246.0083992214931641
 21
222.8556594336791079
 31
0.0
  0
LINE
  5
9E5F
  8
0
 10
4245.9662185197712461
 20
222.871008528552295
 30
0.0
 11
4245.9819645256920921
 21
222.8644259591509922
 31
0.0
  0
LINE
  5
9E60
  8
0
 10
4245.9819645256920921
 20
222.8644259591509922
 30
0.0
 11
4245.9952481551217716
 21
222.8510772073105102
 31
0.0
  0
LINE
  5
9E61
  8
0
 10
4245.9952481551217716
 20
222.8510772073105102
 30
0.0
 11
4245.9928358374900199
 21
222.8444485775214048
 31
0.0
  0
LINE
  5
9E62
  8
0
 10
4245.9928358374900199
 20
222.8444485775214048
 30
0.0
 11
4245.9771003890373322
 21
222.8510601567876961
 31
0.0
  0
LINE
  5
9E63
  8
0
 10
4245.9771003890373322
 20
222.8510601567876961
 30
0.0
 11
4245.9637851476927608
 21
222.8643220447791009
 31
0.0
  0
LINE
  5
9E64
  8
0
 10
4245.9637851476927608
 20
222.8643220447791009
 30
0.0
 11
4245.9662185197712461
 21
222.871008528552295
 31
0.0
  0
LINE
  5
9E65
  8
0
 10
4245.9771003890373322
 20
222.8510601567876961
 30
0.0
 11
4245.9819645255938667
 21
222.8644259591791013
 31
0.0
  0
LINE
  5
9E66
  8
0
 10
4245.9376079863941413
 20
222.8737962304790869
 30
0.0
 11
4245.9397074795770095
 21
222.8795652729342009
 31
0.0
  0
LINE
  5
9E67
  8
0
 10
4245.9397074795770095
 20
222.8795652729342009
 30
0.0
 11
4245.9549561201929464
 21
222.8716160302791138
 31
0.0
  0
LINE
  5
9E68
  8
0
 10
4245.9549561201929464
 20
222.8716160302791138
 30
0.0
 11
4245.9681259049293658
 21
222.8579544528004988
 31
0.0
  0
LINE
  5
9E69
  8
0
 10
4245.9681259049293658
 20
222.8579544528004988
 30
0.0
 11
4245.9660668925926075
 21
222.8522966445790985
 31
0.0
  0
LINE
  5
9E6A
  8
0
 10
4245.9660668925926075
 20
222.8522966445790985
 30
0.0
 11
4245.9507980087946635
 21
222.8601902624434956
 31
0.0
  0
LINE
  5
9E6B
  8
0
 10
4245.9507980087946635
 20
222.8601902624434956
 30
0.0
 11
4245.937607986448711
 21
222.873796230504297
 31
0.0
  0
LINE
  5
9E6C
  8
0
 10
4245.9507980100706845
 20
222.8601902611277126
 30
0.0
 11
4245.9549561213334528
 21
222.8716160290977939
 31
0.0
  0
LINE
  5
9E6D
  8
0
 10
4245.9138982024942379
 20
222.8900503403791049
 30
0.0
 11
4245.9289409410657754
 21
222.8815353147030862
 31
0.0
  0
LINE
  5
9E6E
  8
0
 10
4245.9289409410657754
 20
222.8815353147030862
 30
0.0
 11
4245.9419821386582043
 21
222.8675204022709124
 31
0.0
  0
LINE
  5
9E6F
  8
0
 10
4245.9419821386582043
 20
222.8675204022709124
 30
0.0
 11
4245.9402645668624245
 21
222.8628008133013907
 31
0.0
  0
LINE
  5
9E70
  8
0
 10
4245.9402645668624245
 20
222.8628008133013907
 30
0.0
 11
4245.9254666875303883
 21
222.8719886695477896
 31
0.0
  0
LINE
  5
9E71
  8
0
 10
4245.9254666875303883
 20
222.8719886695477896
 30
0.0
 11
4245.9124174347762164
 21
222.8859814480312025
 31
0.0
  0
LINE
  5
9E72
  8
0
 10
4245.9124174347762164
 20
222.8859814480312025
 30
0.0
 11
4245.9139042654505829
 21
222.8900469084086069
 31
0.0
  0
LINE
  5
9E73
  8
0
 10
4245.9289409410657754
 20
222.8815353147030862
 30
0.0
 11
4245.9254666877695854
 21
222.8719886693988883
 31
0.0
  0
LINE
  5
9E74
  8
0
 10
4245.9330909130931104
 20
222.8613840976790925
 30
0.0
 11
4245.9344542260942035
 21
222.8651302450790865
 31
0.0
  0
LINE
  5
9E75
  8
0
 10
4245.9344542260942035
 20
222.8651302450790865
 30
0.0
 11
4245.9493840138111409
 21
222.8563048500465129
 31
0.0
  0
LINE
  5
9E76
  8
0
 10
4245.9493840138111409
 20
222.8563048500465129
 30
0.0
 11
4245.9629722831932668
 21
222.843793195479094
 31
0.0
  0
LINE
  5
9E77
  8
0
 10
4245.9629722831932668
 20
222.843793195479094
 30
0.0
 11
4245.9616339446647544
 21
222.8401156736370012
 31
0.0
  0
LINE
  5
9E78
  8
0
 10
4245.9616339446647544
 20
222.8401156736370012
 30
0.0
 11
4245.9466826573006983
 21
222.8488819914001908
 31
0.0
  0
LINE
  5
9E79
  8
0
 10
4245.9466826573006983
 20
222.8488819914001908
 30
0.0
 11
4245.9330909130931104
 21
222.8613840976790925
 31
0.0
  0
LINE
  5
9E7A
  8
0
 10
4245.9466826573006983
 20
222.8488819914001908
 30
0.0
 11
4245.9493840138111409
 21
222.8563048500465129
 31
0.0
  0
LINE
  5
9E7B
  8
0
 10
4245.9548558356937065
 20
222.8397858466790922
 30
0.0
 11
4245.9558540285943309
 21
222.8425287073791026
 31
0.0
  0
LINE
  5
9E7C
  8
0
 10
4245.9558540285943309
 20
222.8425287073791026
 30
0.0
 11
4245.9709321430273121
 21
222.8341108883869026
 31
0.0
  0
LINE
  5
9E7D
  8
0
 10
4245.9709321430273121
 20
222.8341108883869026
 30
0.0
 11
4245.9850262543759527
 21
222.8229891999347103
 31
0.0
  0
LINE
  5
9E7E
  8
0
 10
4245.9850262543759527
 20
222.8229891999347103
 30
0.0
 11
4245.9840426659939112
 21
222.8202864696791039
 31
0.0
  0
LINE
  5
9E7F
  8
0
 10
4245.9840426659939112
 20
222.8202864696791039
 30
0.0
 11
4245.9689505037231356
 21
222.8286656877612018
 31
0.0
  0
LINE
  5
9E80
  8
0
 10
4245.9689505037231356
 20
222.8286656877612018
 30
0.0
 11
4245.9548558356937065
 21
222.8397858466790922
 31
0.0
  0
LINE
  5
9E81
  8
0
 10
4245.9583095183688783
 20
222.8492759666372933
 30
0.0
 11
4245.960006658592647
 21
222.8539394130791038
 31
0.0
  0
LINE
  5
9E82
  8
0
 10
4245.960006658592647
 20
222.8539394130791038
 30
0.0
 11
4245.9754035949754325
 21
222.8463976617971127
 31
0.0
  0
LINE
  5
9E83
  8
0
 10
4245.9754035949754325
 20
222.8463976617971127
 30
0.0
 11
4245.9891164997534361
 21
222.8342284834859868
 31
0.0
  0
LINE
  5
9E84
  8
0
 10
4245.9891164997534361
 20
222.8342284834859868
 30
0.0
 11
4245.9874451782507094
 21
222.8296359824448132
 31
0.0
  0
LINE
  5
9E85
  8
0
 10
4245.9874451782507094
 20
222.8296359824448132
 30
0.0
 11
4245.9720353313514352
 21
222.8371422581143975
 31
0.0
  0
LINE
  5
9E86
  8
0
 10
4245.9720353313514352
 20
222.8371422581143975
 30
0.0
 11
4245.9583095183761543
 21
222.8492759666308984
 31
0.0
  0
LINE
  5
9E87
  8
0
 10
4245.9305657925942796
 20
222.8544455050790987
 30
0.0
 11
4245.931237214693283
 21
222.856290456479087
 31
0.0
  0
LINE
  5
9E88
  8
0
 10
4245.931237214693283
 20
222.856290456479087
 30
0.0
 11
4245.9458511843404267
 21
222.8465972482121913
 31
0.0
  0
LINE
  5
9E89
  8
0
 10
4245.9458511843404267
 20
222.8465972482121913
 30
0.0
 11
4245.959813646011753
 21
222.8351138093497923
 31
0.0
  0
LINE
  5
9E8A
  8
0
 10
4245.959813646011753
 20
222.8351138093497923
 30
0.0
 11
4245.9591541658937786
 21
222.8333016724791094
 31
0.0
  0
LINE
  5
9E8B
  8
0
 10
4245.9591541658937786
 20
222.8333016724791094
 30
0.0
 11
4245.9445204367930273
 21
222.8429405852791945
 31
0.0
  0
LINE
  5
9E8C
  8
0
 10
4245.9445204367930273
 20
222.8429405852791945
 30
0.0
 11
4245.9305657925870037
 21
222.8544455050594877
 31
0.0
  0
LINE
  5
9E8D
  8
0
 10
4245.9445204390012805
 20
222.8429405838253956
 30
0.0
 11
4245.9458511849361457
 21
222.8465972477220021
 31
0.0
  0
LINE
  5
9E8E
  8
0
 10
4245.8750300320898532
 20
222.9041942283380138
 30
0.0
 11
4245.8772020824062565
 21
222.9021748739677946
 31
0.0
  0
LINE
  5
9E8F
  8
0
 10
4245.8772020824062565
 20
222.9021748739677946
 30
0.0
 11
4245.8903266936067666
 21
222.8883891676167934
 31
0.0
  0
LINE
  5
9E90
  8
0
 10
4245.8903266936067666
 20
222.8883891676167934
 30
0.0
 11
4245.8899806479930703
 21
222.8874382941791055
 31
0.0
  0
LINE
  5
9E91
  8
0
 10
4245.8899806479930703
 20
222.8874382941791055
 30
0.0
 11
4245.8883924209258112
 21
222.8887859923300141
 31
0.0
  0
LINE
  5
9E92
  8
0
 10
4245.8772020823926141
 20
222.9021748739787938
 30
0.0
 11
4245.8765294523427656
 21
222.9003266034636965
 31
0.0
  0
LINE
  5
9E93
  8
0
 10
4245.8788937519648243
 20
222.9027880218253017
 30
0.0
 11
4245.8915976209318615
 21
222.8918814549853948
 31
0.0
  0
LINE
  5
9E94
  8
0
 10
4245.8915976209318615
 20
222.8918814549853948
 30
0.0
 11
4245.8926468444942657
 21
222.894764539179107
 31
0.0
  0
LINE
  5
9E95
  8
0
 10
4245.8926468444942657
 20
222.894764539179107
 30
0.0
 11
4245.8887332014992353
 21
222.8992074016966001
 31
0.0
  0
LINE
  5
9E96
  8
0
 10
4245.890155697494265
 20
222.8986895991791073
 30
0.0
 11
4245.9011195225730262
 21
222.8864913673741057
 31
0.0
  0
LINE
  5
9E97
  8
0
 10
4245.9011195225730262
 20
222.8864913673741057
 30
0.0
 11
4245.9154344396656597
 21
222.8759764144577957
 31
0.0
  0
LINE
  5
9E98
  8
0
 10
4245.9154344396656597
 20
222.8759764144577957
 30
0.0
 11
4245.9168171207620617
 21
222.8797757818738035
 31
0.0
  0
LINE
  5
9E99
  8
0
 10
4245.9168171207620617
 20
222.8797757818738035
 30
0.0
 11
4245.9045614168144311
 21
222.8934470086423971
 31
0.0
  0
LINE
  5
9E9A
  8
0
 10
4245.9037577147937554
 20
222.8937406610791072
 30
0.0
 11
4245.9011195226839845
 21
222.8864913672888974
 31
0.0
  0
LINE
  5
9E9B
  8
0
 10
4245.8856017605512534
 20
222.8937011110540141
 30
0.0
 11
4245.8863001414938481
 21
222.8956201404791102
 31
0.0
  0
LINE
  5
9E9C
  8
0
 10
4245.8863001414938481
 20
222.8956201404791102
 30
0.0
 11
4245.9002577195242338
 21
222.8841232821374092
 31
0.0
  0
LINE
  5
9E9D
  8
0
 10
4245.9002577195242338
 20
222.8841232821374092
 30
0.0
 11
4245.9135548605700023
 21
222.8708116576682983
 31
0.0
  0
LINE
  5
9E9E
  8
0
 10
4245.9135548605700023
 20
222.8708116576682983
 30
0.0
 11
4245.9128741907970834
 21
222.8689412953870885
 31
0.0
  0
LINE
  5
9E9F
  8
0
 10
4245.9128741907970834
 20
222.8689412953870885
 30
0.0
 11
4245.8988790029297888
 21
222.8803348084148865
 31
0.0
  0
LINE
  5
9EA0
  8
0
 10
4245.8988790029297888
 20
222.8803348084148865
 30
0.0
 11
4245.8856017605930901
 21
222.8937011110791104
 31
0.0
  0
LINE
  5
9EA1
  8
0
 10
4245.8988790029297888
 20
222.8803348084148865
 30
0.0
 11
4245.9002577217852377
 21
222.8841232798735064
 31
0.0
  0
LINE
  5
9EA2
  8
0
 10
4245.9098769606944188
 20
222.8790006665790884
 30
0.0
 11
4245.9088448704278562
 21
222.8761646617753911
 31
0.0
  0
LINE
  5
9EA3
  8
0
 10
4245.9088448704278562
 20
222.8761646617753911
 30
0.0
 11
4245.9222881494788453
 21
222.8632545992429925
 31
0.0
  0
LINE
  5
9EA4
  8
0
 10
4245.9222881494788453
 20
222.8632545992429925
 30
0.0
 11
4245.9367704344813319
 21
222.8531995444456015
 31
0.0
  0
LINE
  5
9EA5
  8
0
 10
4245.9367704344813319
 20
222.8531995444456015
 30
0.0
 11
4245.9377801661939884
 21
222.8559741117790907
 31
0.0
  0
LINE
  5
9EA6
  8
0
 10
4245.9377801661939884
 20
222.8559741117790907
 30
0.0
 11
4245.9243296267059122
 21
222.8688642241019124
 31
0.0
  0
LINE
  5
9EA7
  8
0
 10
4245.9243296267059122
 20
222.8688642241019124
 30
0.0
 11
4245.9098769607526265
 21
222.8790006665848011
 31
0.0
  0
LINE
  5
9EA8
  8
0
 10
4245.9243296242766519
 20
222.868864225805396
 30
0.0
 11
4245.9222881494788453
 21
222.8632545992431062
 31
0.0
  0
LINE
  5
9EA9
  8
0
 10
4245.9072539305943792
 20
222.8717930354791008
 30
0.0
 11
4245.9075944424939735
 21
222.8727287029790887
 31
0.0
  0
LINE
  5
9EAA
  8
0
 10
4245.9075944424939735
 20
222.8727287029790887
 30
0.0
 11
4245.9217282679319396
 21
222.8617161419151103
 31
0.0
  0
LINE
  5
9EAB
  8
0
 10
4245.9217282679319396
 20
222.8617161419151103
 30
0.0
 11
4245.9355467763498382
 21
222.8498371446081876
 31
0.0
  0
LINE
  5
9EAC
  8
0
 10
4245.9355467763498382
 20
222.8498371446081876
 30
0.0
 11
4245.9352134944410864
 21
222.8489213436619139
 31
0.0
  0
LINE
  5
9EAD
  8
0
 10
4245.9352134944410864
 20
222.8489213436619139
 30
0.0
 11
4245.9211074774575536
 21
222.8600103174875926
 31
0.0
  0
LINE
  5
9EAE
  8
0
 10
4245.9211074774575536
 20
222.8600103174875926
 30
0.0
 11
4245.9072539305943792
 21
222.8717930354791008
 31
0.0
  0
LINE
  5
9EAF
  8
0
 10
4245.9217282698018607
 20
222.861716140306811
 30
0.0
 11
4245.9211074774575536
 21
222.8600103174875926
 31
0.0
  0
LINE
  5
9EB0
  8
0
 10
4245.9754035950691105
 20
222.8463976617105118
 30
0.0
 11
4245.9720353313177839
 21
222.8371422581440982
 31
0.0
  0
LINE
  5
9EB1
  8
0
 10
4245.9709321430800628
 20
222.8341108883429058
 30
0.0
 11
4245.9689505025662584
 21
222.8286656886737092
 31
0.0
  0
LINE
  5
9EB2
  8
0
 10
4245.9533164539798236
 20
222.8355558931272071
 30
0.0
 11
4245.9536460010940573
 21
222.8364614312791048
 31
0.0
  0
LINE
  5
9EB3
  8
0
 10
4245.9536460010940573
 20
222.8364614312791048
 30
0.0
 11
4245.9684068176329674
 21
222.8271717328869954
 31
0.0
  0
LINE
  5
9EB4
  8
0
 10
4245.9684068176329674
 20
222.8271717328869954
 30
0.0
 11
4245.9828503352673579
 21
222.8170101520067021
 31
0.0
  0
LINE
  5
9EB5
  8
0
 10
4245.9828503352673579
 20
222.8170101520067021
 30
0.0
 11
4245.9825255189771269
 21
222.8161176133471884
 31
0.0
  0
LINE
  5
9EB6
  8
0
 10
4245.9825255189771269
 20
222.8161176133471884
 30
0.0
 11
4245.9799303595409583
 21
222.8176187118203018
 31
0.0
  0
LINE
  5
9EB7
  8
0
 10
4245.9533164539761856
 20
222.8355558931297082
 30
0.0
 11
4245.9572470926341339
 21
222.8326959366154085
 31
0.0
  0
LINE
  5
9EB8
  8
0
 10
4245.9684068176657092
 20
222.8271717327586998
 30
0.0
 11
4245.9677976664479502
 21
222.8254978911911053
 31
0.0
  0
LINE
  5
9EB9
  8
0
 10
4245.9865247779116544
 20
222.8454021208299878
 30
0.0
 11
4245.9844861969941121
 21
222.8398004548791107
 31
0.0
  0
LINE
  5
9EBA
  8
0
 10
4245.9844861969941121
 20
222.8398004548791107
 30
0.0
 11
4245.9983340676981243
 21
222.82800213959149
 31
0.0
  0
LINE
  5
9EBB
  8
0
 10
4245.9983340676981243
 20
222.82800213959149
 30
0.0
 11
4246.0143539449345553
 21
222.8221721212763953
 31
0.0
  0
LINE
  5
9EBC
  8
0
 10
4246.0143539449345553
 20
222.8221721212763953
 30
0.0
 11
4246.0162125726856175
 21
222.8272793073288085
 31
0.0
  0
LINE
  5
9EBD
  8
0
 10
4246.0162125726856175
 20
222.8272793073288085
 30
0.0
 11
4246.002386199036664
 21
222.8391366925511079
 31
0.0
  0
LINE
  5
9EBE
  8
0
 10
4246.002386199036664
 20
222.8391366925511079
 30
0.0
 11
4245.9863663218184229
 21
222.8449667110315033
 31
0.0
  0
LINE
  5
9EBF
  8
0
 10
4245.9814214782027193
 20
222.8313791398952901
 30
0.0
 11
4245.9800957725929038
 21
222.8277363312791124
 31
0.0
  0
LINE
  5
9EC0
  8
0
 10
4245.9800957725929038
 20
222.8277363312791124
 30
0.0
 11
4245.9943192309965525
 21
222.816970065987789
 31
0.0
  0
LINE
  5
9EC1
  8
0
 10
4245.9943192309965525
 20
222.816970065987789
 30
0.0
 11
4246.009860571793979
 21
222.8098251124791034
 31
0.0
  0
LINE
  5
9EC2
  8
0
 10
4246.009860571793979
 20
222.8098251124791034
 30
0.0
 11
4246.0111708117046874
 21
222.8134254240100915
 31
0.0
  0
LINE
  5
9EC3
  8
0
 10
4246.0111708117046874
 20
222.8134254240100915
 30
0.0
 11
4245.9969550857586
 21
222.8242129367887969
 31
0.0
  0
LINE
  5
9EC4
  8
0
 10
4245.9969550857586
 20
222.8242129367887969
 30
0.0
 11
4245.9814214781936244
 21
222.8313791398790897
 31
0.0
  0
LINE
  5
9EC5
  8
0
 10
4245.9776389482940431
 20
222.8209854046791918
 30
0.0
 11
4245.9782923803986705
 21
222.8227809226482918
 31
0.0
  0
LINE
  5
9EC6
  8
0
 10
4245.9782923803986705
 20
222.8227809226482918
 30
0.0
 11
4245.9935075614530433
 21
222.8147397390837909
 31
0.0
  0
LINE
  5
9EC7
  8
0
 10
4245.9935075614530433
 20
222.8147397390837909
 30
0.0
 11
4246.0080778874853422
 21
222.8049266056142983
 31
0.0
  0
LINE
  5
9EC8
  8
0
 10
4246.0080778874853422
 20
222.8049266056142983
 30
0.0
 11
4246.0072353004206889
 21
222.8032501860116952
 31
0.0
  0
LINE
  5
9EC9
  8
0
 10
4246.0072353004206889
 20
222.8032501860116952
 30
0.0
 11
4245.9922081662271012
 21
222.8111692266735986
 31
0.0
  0
LINE
  5
9ECA
  8
0
 10
4245.9922081662271012
 20
222.8111692266735986
 30
0.0
 11
4245.9776389482940431
 21
222.8209854046791918
 31
0.0
  0
LINE
  5
9ECB
  8
0
 10
4245.9922081652675843
 20
222.8111692271793913
 30
0.0
 11
4245.9935075615339883
 21
222.8147397391329037
 31
0.0
  0
LINE
  5
9ECC
  8
0
 10
4245.9943192309847291
 20
222.8169700659748003
 30
0.0
 11
4245.9969550856931164
 21
222.8242129367791051
 31
0.0
  0
LINE
  5
9ECD
  8
0
 10
4246.002386199036664
 20
222.8391366925511079
 30
0.0
 11
4245.9983340676981243
 21
222.82800213959149
 31
0.0
  0
LINE
  5
9ECE
  8
0
 10
4246.0175656844530749
 20
222.7994428041641868
 30
0.0
 11
4246.0195605213993986
 21
222.8048301742034027
 31
0.0
  0
LINE
  5
9ECF
  8
0
 10
4246.0206617422345516
 20
222.8078041937853015
 30
0.0
 11
4246.0240155647143183
 21
222.8168617173953123
 31
0.0
  0
ARC
  5
9ED0
  8
0
 10
4246.2951641959225526
 20
223.3255254435908057
 30
0.0
 40
0.5988558337829907
 50
255.1514624455691944
 51
275.7028488073586914
  0
LINE
  5
9ED1
  8
0
 10
4246.1416985846917669
 20
222.7466674162427012
 30
0.0
 11
4246.1611363228357732
 21
222.8000733843196883
 31
0.0
  0
LINE
  5
9ED2
  8
0
 10
4246.1864089406799394
 20
222.7774208062793093
 30
0.0
 11
4246.1817633533828484
 21
222.7646568451885969
 31
0.0
  0
LINE
  5
9ED3
  8
0
 10
4246.1817633533828484
 20
222.7646568451885969
 30
0.0
 11
4246.1825427560406752
 21
222.7643440423489096
 31
0.0
  0
LINE
  5
9ED4
  8
0
 10
4246.1825427560406752
 20
222.7643440423489096
 30
0.0
 11
4246.200622777467288
 21
222.7641743630501026
 31
0.0
  0
LINE
  5
9ED5
  8
0
 10
4246.200622777467288
 20
222.7641743630501026
 30
0.0
 11
4246.2030159435407768
 21
222.7707496949543895
 31
0.0
  0
LINE
  5
9ED6
  8
0
 10
4246.2030159435407768
 20
222.7707496949543895
 30
0.0
 11
4246.1873068594832148
 21
222.7774336318481971
 31
0.0
  0
LINE
  5
9ED7
  8
0
 10
4246.1873068594832148
 20
222.7774336318481971
 30
0.0
 11
4246.1864089406835774
 21
222.7774208062907064
 31
0.0
  0
LINE
  5
9ED8
  8
0
 10
4246.1873068594859433
 20
222.7774336316913946
 30
0.0
 11
4246.1825427560406752
 21
222.7643440423489096
 31
0.0
  0
LINE
  5
9ED9
  8
0
 10
4246.1969320197104025
 20
222.7540338393434922
 30
0.0
 11
4246.1952731812671118
 21
222.7494761058262043
 31
0.0
  0
LINE
  5
9EDA
  8
0
 10
4246.1952731812671118
 20
222.7494761058262043
 30
0.0
 11
4246.1775766101709451
 21
222.750699331103192
 31
0.0
  0
LINE
  5
9EDB
  8
0
 10
4246.1775766101709451
 20
222.750699331103192
 30
0.0
 11
4246.1767808436970881
 21
222.7509671746940967
 31
0.0
  0
LINE
  5
9EDC
  8
0
 10
4246.1767808436970881
 20
222.7509671746940967
 30
0.0
 11
4246.1800017939785903
 21
222.7598168810937125
 31
0.0
  0
LINE
  5
9EDD
  8
0
 10
4246.1800017939785903
 20
222.7598168810937125
 30
0.0
 11
4246.1808796745563086
 21
222.7597746508234877
 31
0.0
  0
LINE
  5
9EDE
  8
0
 10
4246.1808796745563086
 20
222.7597746508234877
 30
0.0
 11
4246.1969320196485569
 21
222.7540338393638137
 31
0.0
  0
LINE
  5
9EDF
  8
0
 10
4246.1918954234743069
 20
222.7401955637828905
 30
0.0
 11
4246.1928719448997072
 21
222.7428786003914922
 31
0.0
  0
LINE
  5
9EE0
  8
0
 10
4246.1928719448997072
 20
222.7428786003914922
 30
0.0
 11
4246.1764942930512916
 21
222.747725616837613
 31
0.0
  0
LINE
  5
9EE1
  8
0
 10
4246.1764942930512916
 20
222.747725616837613
 30
0.0
 11
4246.1756344279301629
 21
222.7478173455864123
 31
0.0
  0
LINE
  5
9EE2
  8
0
 10
4246.1756344279301629
 20
222.7478173455864123
 30
0.0
 11
4246.1737380267568369
 21
222.7426068976201918
 31
0.0
  0
LINE
  5
9EE3
  8
0
 10
4246.1737380267568369
 20
222.7426068976201918
 30
0.0
 11
4246.1745267915521254
 21
222.7423198177822883
 31
0.0
  0
LINE
  5
9EE4
  8
0
 10
4246.1745267915521254
 20
222.7423198177822883
 30
0.0
 11
4246.1918954234743069
 21
222.7401955637828905
 31
0.0
  0
LINE
  5
9EE5
  8
0
 10
4246.1903890386183775
 20
222.7360567031905987
 30
0.0
 11
4246.1907115648136823
 21
222.736942858489499
 31
0.0
  0
LINE
  5
9EE6
  8
0
 10
4246.1907115648136823
 20
222.736942858489499
 30
0.0
 11
4246.1740158783532024
 21
222.740916060554099
 31
0.0
  0
LINE
  5
9EE7
  8
0
 10
4246.1740158783532024
 20
222.740916060554099
 30
0.0
 11
4246.1731727299202248
 21
222.741053719130889
 31
0.0
  0
LINE
  5
9EE8
  8
0
 10
4246.1731727299202248
 20
222.741053719130889
 30
0.0
 11
4246.1725546425741413
 21
222.7393554963198028
 31
0.0
  0
LINE
  5
9EE9
  8
0
 10
4246.1733849085521797
 20
222.7391824425893105
 30
0.0
 11
4246.1740158765869637
 21
222.7409160609740013
 31
0.0
  0
LINE
  5
9EEA
  8
0
 10
4246.1903890385838167
 20
222.7360567030912932
 30
0.0
 11
4246.1816670771795543
 21
222.7375231360331043
 31
0.0
  0
LINE
  5
9EEB
  8
0
 10
4246.2039900422805658
 20
222.7844762627412081
 30
0.0
 11
4246.1896052028287158
 21
222.7837484341224012
 31
0.0
  0
LINE
  5
9EEC
  8
0
 10
4246.1896052028287158
 20
222.7837484341224012
 30
0.0
 11
4246.1888164380306989
 21
222.7840355139533983
 31
0.0
  0
LINE
  5
9EED
  8
0
 10
4246.1888164380306989
 20
222.7840355139533983
 30
0.0
 11
4246.1907333333074348
 21
222.7893022702768917
 31
0.0
  0
LINE
  5
9EEE
  8
0
 10
4246.1915217539726655
 20
222.7890142447677988
 30
0.0
 11
4246.1896052028287158
 21
222.7837484341224012
 31
0.0
  0
LINE
  5
9EEF
  8
0
 10
4246.2082504195223009
 20
222.7829118970651905
 30
0.0
 11
4246.2006077043943151
 21
222.782426535234805
 31
0.0
  0
LINE
  5
9EF0
  8
0
 10
4246.2006077043943151
 20
222.782426535234805
 30
0.0
 11
4246.1978240293419731
 21
222.7747782624105923
 31
0.0
  0
LINE
  5
9EF1
  8
0
 10
4246.1978240293419731
 20
222.7747782624105923
 30
0.0
 11
4246.2136587207069169
 21
222.7684394374290946
 31
0.0
  0
LINE
  5
9EF2
  8
0
 10
4246.2136587207069169
 20
222.7684394374290946
 30
0.0
 11
4246.2322716527205557
 21
222.7697339540073074
 31
0.0
  0
LINE
  5
9EF3
  8
0
 10
4246.2322716527205557
 20
222.7697339540073074
 30
0.0
 11
4246.23370192611128
 21
222.7736636947896045
 31
0.0
  0
LINE
  5
9EF4
  8
0
 10
4246.2136587207069169
 20
222.7684394374290946
 30
0.0
 11
4246.2176822509691192
 21
222.7794942686817024
 31
0.0
  0
LINE
  5
9EF5
  8
0
 10
4246.25986149936125
 20
222.7641411805095117
 30
0.0
 11
4246.2435679174950565
 21
222.7692191833068875
 31
0.0
  0
LINE
  5
9EF6
  8
0
 10
4246.2435679174950565
 20
222.7692191833068875
 30
0.0
 11
4246.2248117369390457
 21
222.7675310845320951
 31
0.0
  0
LINE
  5
9EF7
  8
0
 10
4246.2248117369390457
 20
222.7675310845320951
 30
0.0
 11
4246.2223992013732641
 21
222.7609025340578057
 31
0.0
  0
LINE
  5
9EF8
  8
0
 10
4246.2223992013732641
 20
222.7609025340578057
 30
0.0
 11
4246.2387033415170663
 21
222.7558535408317084
 31
0.0
  0
LINE
  5
9EF9
  8
0
 10
4246.2387033415170663
 20
222.7558535408317084
 30
0.0
 11
4246.2574279074306105
 21
222.7574547767507909
 31
0.0
  0
LINE
  5
9EFA
  8
0
 10
4246.2574279074306105
 20
222.7574547767507909
 30
0.0
 11
4246.25986149936125
 21
222.7641411805095117
 31
0.0
  0
LINE
  5
9EFB
  8
0
 10
4246.2387033415170663
 20
222.7558535408317084
 30
0.0
 11
4246.2435679175887344
 21
222.769219183264795
 31
0.0
  0
LINE
  5
9EFC
  8
0
 10
4246.2835711318248286
 20
222.7478873430995918
 30
0.0
 11
4246.2856708146209712
 21
222.7536563165465111
 31
0.0
  0
LINE
  5
9EFD
  8
0
 10
4246.2856708146209712
 20
222.7536563165465111
 30
0.0
 11
4246.2688798226481595
 21
222.7573676623948131
 31
0.0
  0
LINE
  5
9EFE
  8
0
 10
4246.2688798226481595
 20
222.7573676623948131
 30
0.0
 11
4246.2500097869869933
 21
222.7553667417705014
 31
0.0
  0
LINE
  5
9EFF
  8
0
 10
4246.2500097869869933
 20
222.7553667417705014
 30
0.0
 11
4246.2479505886285551
 21
222.7497090012508068
 31
0.0
  0
LINE
  5
9F00
  8
0
 10
4246.2479505886285551
 20
222.7497090012508068
 30
0.0
 11
4246.2647213355621716
 21
222.7459420312875977
 31
0.0
  0
LINE
  5
9F01
  8
0
 10
4246.2647213355621716
 20
222.7459420312875977
 30
0.0
 11
4246.2835711317993628
 21
222.747887343153991
 31
0.0
  0
LINE
  5
9F02
  8
0
 10
4246.2647213337404537
 20
222.7459420310995029
 30
0.0
 11
4246.2688798210156165
 21
222.7573676622216965
 31
0.0
  0
LINE
  5
9F03
  8
0
 10
4246.3121819563557438
 20
222.7450997525851051
 30
0.0
 11
4246.2951850437548273
 21
222.7482453221759044
 31
0.0
  0
LINE
  5
9F04
  8
0
 10
4246.2951850437548273
 20
222.7482453221759044
 30
0.0
 11
4246.2761864094482007
 21
222.7458910707838129
 31
0.0
  0
LINE
  5
9F05
  8
0
 10
4246.2761864094482007
 20
222.7458910707838129
 30
0.0
 11
4246.274468682452607
 21
222.7411715382982038
 31
0.0
  0
LINE
  5
9F06
  8
0
 10
4246.274468682452607
 20
222.7411715382982038
 30
0.0
 11
4246.2917104763600946
 21
222.7386987912472875
 31
0.0
  0
LINE
  5
9F07
  8
0
 10
4246.2917104763600946
 20
222.7386987912472875
 30
0.0
 11
4246.3107010549292681
 21
222.741030908899603
 31
0.0
  0
LINE
  5
9F08
  8
0
 10
4246.3107010549292681
 20
222.741030908899603
 30
0.0
 11
4246.3121751057706206
 21
222.7451010204030126
 31
0.0
  0
LINE
  5
9F09
  8
0
 10
4246.2951850437548273
 20
222.7482453221759044
 30
0.0
 11
4246.2917104760808797
 21
222.7386987912873906
 31
0.0
  0
LINE
  5
9F0A
  8
0
 10
4246.2790536503980547
 20
222.7354753588344067
 30
0.0
 11
4246.2804170866320419
 21
222.7392214613842043
 31
0.0
  0
LINE
  5
9F0B
  8
0
 10
4246.2804170866320419
 20
222.7392214613842043
 30
0.0
 11
4246.263307212953805
 21
222.7420566653389926
 31
0.0
  0
LINE
  5
9F0C
  8
0
 10
4246.263307212953805
 20
222.7420566653389926
 30
0.0
 11
4246.2448556996168918
 21
222.7412056539133118
 31
0.0
  0
LINE
  5
9F0D
  8
0
 10
4246.2448556996168918
 20
222.7412056539133118
 30
0.0
 11
4246.243517240141955
 21
222.7375281760884889
 31
0.0
  0
LINE
  5
9F0E
  8
0
 10
4246.243517240141955
 20
222.7375281760884889
 30
0.0
 11
4246.2606056122467635
 21
222.7346338955659064
 31
0.0
  0
LINE
  5
9F0F
  8
0
 10
4246.2606056122467635
 20
222.7346338955659064
 30
0.0
 11
4246.2790536503980547
 21
222.7354753588344067
 31
0.0
  0
LINE
  5
9F10
  8
0
 10
4246.2606056122467635
 20
222.7346338955659064
 30
0.0
 11
4246.263307212953805
 21
222.7420566653389926
 31
0.0
  0
LINE
  5
9F11
  8
0
 10
4246.2484977887961577
 20
222.7329188722193862
 30
0.0
 11
4246.2494960718850052
 21
222.7356617000959886
 31
0.0
  0
LINE
  5
9F12
  8
0
 10
4246.2494960718850052
 20
222.7356617000959886
 30
0.0
 11
4246.2325345383169406
 21
222.7389044752160885
 31
0.0
  0
LINE
  5
9F13
  8
0
 10
4246.2325345383169406
 20
222.7389044752160885
 30
0.0
 11
4246.2145889128178169
 21
222.7394434132116032
 31
0.0
  0
LINE
  5
9F14
  8
0
 10
4246.2145889128178169
 20
222.7394434132116032
 30
0.0
 11
4246.213605235416253
 21
222.7367407153539887
 31
0.0
  0
LINE
  5
9F15
  8
0
 10
4246.213605235416253
 20
222.7367407153539887
 30
0.0
 11
4246.2305527199450808
 21
222.733459339760401
 31
0.0
  0
LINE
  5
9F16
  8
0
 10
4246.2305527199450808
 20
222.733459339760401
 30
0.0
 11
4246.2484977887961577
 21
222.7329188722193862
 31
0.0
  0
LINE
  5
9F17
  8
0
 10
4246.2519517834425642
 20
222.7424088786382015
 30
0.0
 11
4246.2536490769443844
 21
222.7470722692958134
 31
0.0
  0
LINE
  5
9F18
  8
0
 10
4246.2536490769443844
 20
222.7470722692958134
 30
0.0
 11
4246.2370063943726564
 21
222.7511911015540136
 31
0.0
  0
LINE
  5
9F19
  8
0
 10
4246.2370063943726564
 20
222.7511911015540136
 30
0.0
 11
4246.2186795275911209
 21
222.7506825623239024
 31
0.0
  0
LINE
  5
9F1A
  8
0
 10
4246.2186795275911209
 20
222.7506825623239024
 30
0.0
 11
4246.2170080551668434
 21
222.7460901162095865
 31
0.0
  0
LINE
  5
9F1B
  8
0
 10
4246.2170080551668434
 20
222.7460901162095865
 30
0.0
 11
4246.2336378262143626
 21
222.741935808704909
 31
0.0
  0
LINE
  5
9F1C
  8
0
 10
4246.2336378262143626
 20
222.741935808704909
 30
0.0
 11
4246.2519517834316503
 21
222.7424088786378036
 31
0.0
  0
LINE
  5
9F1D
  8
0
 10
4246.2765283016924514
 20
222.7285368492881048
 30
0.0
 11
4246.2771997845193255
 21
222.7303817785870024
 31
0.0
  0
LINE
  5
9F1E
  8
0
 10
4246.2771997845193255
 20
222.7303817785870024
 30
0.0
 11
4246.2597740642122517
 21
222.732349179700293
 31
0.0
  0
LINE
  5
9F1F
  8
0
 10
4246.2597740642122517
 20
222.732349179700293
 30
0.0
 11
4246.2416967771632699
 21
222.7325263716070083
 31
0.0
  0
LINE
  5
9F20
  8
0
 10
4246.2416967771632699
 20
222.7325263716070083
 30
0.0
 11
4246.2410372374206418
 21
222.73071425643559
 31
0.0
  0
LINE
  5
9F21
  8
0
 10
4246.2410372374206418
 20
222.73071425643559
 30
0.0
 11
4246.2584431965397016
 21
222.7286925604865075
 31
0.0
  0
LINE
  5
9F22
  8
0
 10
4246.2584431965397016
 20
222.7286925604865075
 30
0.0
 11
4246.2765283016851754
 21
222.7285368492684938
 31
0.0
  0
LINE
  5
9F23
  8
0
 10
4246.2584431939148999
 20
222.7286925607915009
 30
0.0
 11
4246.2597740634419097
 21
222.7323491797077963
 31
0.0
  0
LINE
  5
9F24
  8
0
 10
4246.3510489076998056
 20
222.730952515031305
 30
0.0
 11
4246.3480870120056352
 21
222.7308016225310041
 31
0.0
  0
LINE
  5
9F25
  8
0
 10
4246.3480870120056352
 20
222.7308016225310041
 30
0.0
 11
4246.3291717988267919
 21
222.7286765744844956
 31
0.0
  0
LINE
  5
9F26
  8
0
 10
4246.3291717988267919
 20
222.7286765744844956
 30
0.0
 11
4246.3288257218191575
 21
222.7277257124725907
 31
0.0
  0
LINE
  5
9F27
  8
0
 10
4246.3288257218191575
 20
222.7277257124725907
 30
0.0
 11
4246.3309086574481626
 21
222.7277373179759081
 31
0.0
  0
LINE
  5
9F28
  8
0
 10
4246.3480870120220061
 20
222.7308016225317999
 30
0.0
 11
4246.347414321215183
 21
222.7289533741281957
 31
0.0
  0
LINE
  5
9F29
  8
0
 10
4246.3471851659096501
 20
222.7323586613258897
 30
0.0
 11
4246.3304428408819149
 21
222.7321688200979111
 31
0.0
  0
LINE
  5
9F2A
  8
0
 10
4246.3304428408819149
 20
222.7321688200979111
 30
0.0
 11
4246.331492159307345
 21
222.7350518697666075
 31
0.0
  0
LINE
  5
9F2B
  8
0
 10
4246.331492159307345
 20
222.7350518697666075
 30
0.0
 11
4246.3373459574841036
 21
222.7359399439480114
 31
0.0
  0
LINE
  5
9F2C
  8
0
 10
4246.3359234000627112
 20
222.7364575776844902
 30
0.0
 11
4246.3196838624744487
 21
222.7341598095345034
 31
0.0
  0
LINE
  5
9F2D
  8
0
 10
4246.3196838624744487
 20
222.7341598095345034
 30
0.0
 11
4246.3019590624799093
 21
222.7353054758742132
 31
0.0
  0
LINE
  5
9F2E
  8
0
 10
4246.3019590624799093
 20
222.7353054758742132
 30
0.0
 11
4246.3033418684653952
 21
222.739104797837598
 31
0.0
  0
LINE
  5
9F2F
  8
0
 10
4246.3033418684653952
 20
222.739104797837598
 30
0.0
 11
4246.3215178510708938
 21
222.7417006362298082
 31
0.0
  0
LINE
  5
9F30
  8
0
 10
4246.3223222928972973
 20
222.7414090165478058
 30
0.0
 11
4246.319683862335296
 21
222.7341598095406141
 31
0.0
  0
LINE
  5
9F31
  8
0
 10
4246.3362057086624191
 20
222.7297089735835982
 30
0.0
 11
4246.3369041526439105
 21
222.7316279800662926
 31
0.0
  0
LINE
  5
9F32
  8
0
 10
4246.3369041526439105
 20
222.7316279800662926
 30
0.0
 11
4246.3188219814601325
 21
222.7317917526729047
 31
0.0
  0
LINE
  5
9F33
  8
0
 10
4246.3188219814601325
 20
222.7317917526729047
 30
0.0
 11
4246.300079313610695
 21
222.7301407808724889
 31
0.0
  0
LINE
  5
9F34
  8
0
 10
4246.300079313610695
 20
222.7301407808724889
 30
0.0
 11
4246.2993985823513867
 21
222.7282704409684868
 31
0.0
  0
LINE
  5
9F35
  8
0
 10
4246.2993985823513867
 20
222.7282704409684868
 30
0.0
 11
4246.3174431402912887
 21
222.728003324288693
 31
0.0
  0
LINE
  5
9F36
  8
0
 10
4246.3174431402912887
 20
222.728003324288693
 30
0.0
 11
4246.3362057086460482
 21
222.7297089736306077
 31
0.0
  0
LINE
  5
9F37
  8
0
 10
4246.3174431402912887
 20
222.728003324288693
 30
0.0
 11
4246.3188219782723536
 21
222.7317917523920983
 31
0.0
  0
LINE
  5
9F38
  8
0
 10
4246.3081603513337541
 20
222.7340502109767044
 30
0.0
 11
4246.3071281677966908
 21
222.7312142401189021
 31
0.0
  0
LINE
  5
9F39
  8
0
 10
4246.3071281677966908
 20
222.7312142401189021
 30
0.0
 11
4246.2885316512101781
 21
222.7299648254299882
 31
0.0
  0
LINE
  5
9F3A
  8
0
 10
4246.2885316512101781
 20
222.7299648254299882
 30
0.0
 11
4246.270974234361347
 21
222.7315703843435131
 31
0.0
  0
LINE
  5
9F3B
  8
0
 10
4246.270974234361347
 20
222.7315703843435131
 30
0.0
 11
4246.2719840572926842
 21
222.7343449184782003
 31
0.0
  0
LINE
  5
9F3C
  8
0
 10
4246.2719840572926842
 20
222.7343449184782003
 30
0.0
 11
4246.2905733129209693
 21
222.7355743831473092
 31
0.0
  0
LINE
  5
9F3D
  8
0
 10
4246.2905733129209693
 20
222.7355743831473092
 30
0.0
 11
4246.3081603512928268
 21
222.7340502110191949
 31
0.0
  0
LINE
  5
9F3E
  8
0
 10
4246.2905733158768271
 20
222.7355743828912011
 30
0.0
 11
4246.2885316512110876
 21
222.7299648254299882
 31
0.0
  0
LINE
  5
9F3F
  8
0
 10
4246.3055370842303091
 20
222.7268426661327965
 30
0.0
 11
4246.3058776268617294
 21
222.727778322448188
 31
0.0
  0
LINE
  5
9F40
  8
0
 10
4246.3058776268617294
 20
222.727778322448188
 30
0.0
 11
4246.2879717190207884
 21
222.7284263865329876
 31
0.0
  0
LINE
  5
9F41
  8
0
 10
4246.2879717190207884
 20
222.7284263865329876
 30
0.0
 11
4246.2697504657689933
 21
222.7282080247072997
 31
0.0
  0
LINE
  5
9F42
  8
0
 10
4246.2697504657689933
 20
222.7282080247072997
 30
0.0
 11
4246.2694171536486465
 21
222.7272922347565896
 31
0.0
  0
LINE
  5
9F43
  8
0
 10
4246.2694171536486465
 20
222.7272922347565896
 30
0.0
 11
4246.2873508724305793
 21
222.7267205825284009
 31
0.0
  0
LINE
  5
9F44
  8
0
 10
4246.2873508724305793
 20
222.7267205825284009
 30
0.0
 11
4246.3055370842303091
 21
222.7268426661327965
 31
0.0
  0
LINE
  5
9F45
  8
0
 10
4246.2879717165542388
 20
222.7284263865034859
 30
0.0
 11
4246.2873508724305793
 21
222.7267205825284009
 31
0.0
  0
LINE
  5
9F46
  8
0
 10
4246.2370063942462366
 20
222.7511911015479029
 30
0.0
 11
4246.2336378262589278
 21
222.7419358087061028
 31
0.0
  0
LINE
  5
9F47
  8
0
 10
4246.232534538247819
 20
222.738904475216799
 30
0.0
 11
4246.2305527214175527
 21
222.7334593397160916
 31
0.0
  0
LINE
  5
9F48
  8
0
 10
4246.2469582679977975
 20
222.728688969285912
 30
0.0
 11
4246.2472878448397751
 21
222.7295944966190007
 31
0.0
  0
LINE
  5
9F49
  8
0
 10
4246.2472878448397751
 20
222.7295944966190007
 30
0.0
 11
4246.230008984772212
 21
222.7319654027500917
 31
0.0
  0
LINE
  5
9F4A
  8
0
 10
4246.230008984772212
 20
222.7319654027500917
 30
0.0
 11
4246.212412796992794
 21
222.7334644368766874
 31
0.0
  0
LINE
  5
9F4B
  8
0
 10
4246.212412796992794
 20
222.7334644368766874
 30
0.0
 11
4246.2120879514095577
 21
222.7325719088779863
 31
0.0
  0
LINE
  5
9F4C
  8
0
 10
4246.2120879514095577
 20
222.7325719088779863
 30
0.0
 11
4246.2150408716252059
 21
222.7320538245899968
 31
0.0
  0
LINE
  5
9F4D
  8
0
 10
4246.246958268002345
 20
222.7286889692855993
 30
0.0
 11
4246.2421088631353996
 21
222.729024445000988
 31
0.0
  0
LINE
  5
9F4E
  8
0
 10
4246.2300089846639821
 20
222.731965402673211
 30
0.0
 11
4246.2293997785145621
 21
222.7302915810971911
 31
0.0
  0
LINE
  5
9F4F
  8
0
 10
4246.2278468414006056
 20
222.7575765851763947
 30
0.0
 11
4246.2258080764895567
 21
222.7519749861887135
 31
0.0
  0
LINE
  5
9F50
  8
0
 10
4246.2258080764895567
 20
222.7519749861887135
 30
0.0
 11
4246.2076161878931089
 21
222.7518373055202119
 31
0.0
  0
LINE
  5
9F51
  8
0
 10
4246.2076161878931089
 20
222.7518373055202119
 30
0.0
 11
4246.1915965022699311
 21
222.757667850330904
 31
0.0
  0
LINE
  5
9F52
  8
0
 10
4246.1915965022699311
 20
222.757667850330904
 30
0.0
 11
4246.1934552978509601
 21
222.762774975302591
 31
0.0
  0
LINE
  5
9F53
  8
0
 10
4246.1934552978509601
 20
222.762774975302591
 30
0.0
 11
4246.2116686852914427
 21
222.7629717252549995
 31
0.0
  0
LINE
  5
9F54
  8
0
 10
4246.2116686852914427
 20
222.7629717252549995
 30
0.0
 11
4246.2276883710046604
 21
222.7571411805828916
 31
0.0
  0
LINE
  5
9F55
  8
0
 10
4246.2227430807315613
 20
222.7435537720049865
 30
0.0
 11
4246.2214172554186007
 21
222.7399110069536903
 31
0.0
  0
LINE
  5
9F56
  8
0
 10
4246.2214172554186007
 20
222.7399110069536903
 30
0.0
 11
4246.2036009886132888
 21
222.7408053638746139
 31
0.0
  0
LINE
  5
9F57
  8
0
 10
4246.2036009886132888
 20
222.7408053638746139
 30
0.0
 11
4246.1871027231964035
 21
222.7453209892694019
 31
0.0
  0
LINE
  5
9F58
  8
0
 10
4246.1871027231964035
 20
222.7453209892694019
 30
0.0
 11
4246.1884130813941738
 21
222.7489212577515048
 31
0.0
  0
LINE
  5
9F59
  8
0
 10
4246.1884130813941738
 20
222.7489212577515048
 30
0.0
 11
4246.2062370813810048
 21
222.7480481480546928
 31
0.0
  0
LINE
  5
9F5A
  8
0
 10
4246.2062370813810048
 20
222.7480481480546928
 30
0.0
 11
4246.2227430807288329
 21
222.7435537719863134
 31
0.0
  0
LINE
  5
9F5B
  8
0
 10
4246.2189602090247718
 20
222.7331601611836902
 30
0.0
 11
4246.2196137001992611
 21
222.7349556576544956
 31
0.0
  0
LINE
  5
9F5C
  8
0
 10
4246.2196137001992611
 20
222.7349556576544956
 30
0.0
 11
4246.2027892457408598
 21
222.7385750636574926
 31
0.0
  0
LINE
  5
9F5D
  8
0
 10
4246.2027892457408598
 20
222.7385750636574926
 30
0.0
 11
4246.1853198777916987
 21
222.7404225410340075
 31
0.0
  0
LINE
  5
9F5E
  8
0
 10
4246.1853198777916987
 20
222.7404225410340075
 30
0.0
 11
4246.1848878441560373
 21
222.7385967035332044
 31
0.0
  0
LINE
  5
9F5F
  8
0
 10
4246.1848878441560373
 20
222.7385967035332044
 30
0.0
 11
4246.2014897330873282
 21
222.7350045939849963
 31
0.0
  0
LINE
  5
9F60
  8
0
 10
4246.2014897330873282
 20
222.7350045939849963
 30
0.0
 11
4246.2189602090247718
 21
222.7331601611836902
 31
0.0
  0
LINE
  5
9F61
  8
0
 10
4246.20148973414598
 20
222.735004593755491
 30
0.0
 11
4246.2027892457099369
 21
222.7385750637469926
 31
0.0
  0
LINE
  5
9F62
  8
0
 10
4246.2036009886132888
 20
222.7408053638567083
 30
0.0
 11
4246.2062370814255701
 21
222.7480481480052958
 31
0.0
  0
LINE
  5
9F63
  8
0
 10
4246.2116686852914427
 20
222.7629717252549995
 30
0.0
 11
4246.2076161878931089
 21
222.7518373055202119
 31
0.0
  0
LINE
  5
9F64
  8
0
 10
4246.1745267915521254
 20
222.7423198177822883
 30
0.0
 11
4246.1764613289042245
 21
222.7477291334149925
 31
0.0
  0
LINE
  5
9F65
  8
0
 10
4246.1775292622232882
 20
222.7507152677438
 30
0.0
 11
4246.1807817059216177
 21
222.7598096874145028
 31
0.0
  0
ARC
  5
9F66
  8
0
 10
4246.6795328233083637
 20
222.7164206475013088
 30
0.0
 40
0.009833074420429
 50
246.9119300348831985
 51
268.1007504550838121
  0
ARC
  5
9F67
  8
0
 10
4251.0056752830159894
 20
353.177767348937607
 30
0.0
 40
130.5428882433469937
 50
268.1007484785520774
 51
269.2004074188515119
  0
ENDSEC
  0
EOF
