  0
SECTION
  2
HEADER
  9
$ACADVER
  1
AC1009
  9
$INSBASE
 10
3515.5320341565388844
 20
156.2549102184563878
 30
0.0
  9
$EXTMIN
 10
3513.9315803225008494
 20
153.0842752621773002
 30
-0.0000000349181948
  9
$EXTMAX
 10
3520.9161351026227749
 20
157.642430742699986
 30
0.0000000814935746
  9
$LIMMIN
 10
0.0
 20
0.0
  9
$LIMMAX
 10
11.6929133858000007
 20
8.2677165353999982
  9
$ORTHOMODE
 70
     0
  9
$REGENMODE
 70
     1
  9
$FILLMODE
 70
     1
  9
$QTEXTMODE
 70
     0
  9
$MIRRTEXT
 70
     0
  9
$DRAGMODE
 70
     2
  9
$LTSCALE
 40
0.6431102362
  9
$OSMODE
 70
  3839
  9
$ATTMODE
 70
     1
  9
$TEXTSIZE
 40
0.2
  9
$TRACEWID
 40
0.05
  9
$TEXTSTYLE
  7
STANDARD
  9
$CLAYER
  8
0
  9
$CELTYPE
  6
BYLAYER
  9
$CECOLOR
 62
   256
  9
$DIMSCALE
 40
1.0
  9
$DIMASZ
 40
0.1875
  9
$DIMEXO
 40
0.0625
  9
$DIMDLI
 40
0.4443307087
  9
$DIMRND
 40
0.0
  9
$DIMDLE
 40
0.0
  9
$DIMEXE
 40
0.125
  9
$DIMTP
 40
0.01
  9
$DIMTM
 40
0.01
  9
$DIMTXT
 40
2.0
  9
$DIMCEN
 40
0.1052362205
  9
$DIMTSZ
 40
0.0
  9
$DIMTOL
 70
     1
  9
$DIMLIM
 70
     0
  9
$DIMTIH
 70
     1
  9
$DIMTOH
 70
     1
  9
$DIMSE1
 70
     0
  9
$DIMSE2
 70
     0
  9
$DIMTAD
 70
     0
  9
$DIMZIN
 70
     0
  9
$DIMBLK
  1

  9
$DIMASO
 70
     1
  9
$DIMSHO
 70
     1
  9
$DIMPOST
  1
\X
  9
$DIMAPOST
  1

  9
$DIMALT
 70
     1
  9
$DIMALTD
 70
     2
  9
$DIMALTF
 40
25.3999999999999986
  9
$DIMLFAC
 40
1.0
  9
$DIMTOFL
 70
     0
  9
$DIMTVP
 40
0.0
  9
$DIMTIX
 70
     0
  9
$DIMSOXD
 70
     0
  9
$DIMSAH
 70
     0
  9
$DIMBLK1
  1

  9
$DIMBLK2
  1

  9
$DIMSTYLE
  2
STANDARD
  9
$DIMCLRD
 70
     0
  9
$DIMCLRE
 70
     0
  9
$DIMCLRT
 70
     0
  9
$DIMTFAC
 40
1.0
  9
$DIMGAP
 40
0.09
  9
$LUNITS
 70
     2
  9
$LUPREC
 70
     4
  9
$SKETCHINC
 40
0.1
  9
$FILLETRAD
 40
0.0
  9
$AUNITS
 70
     0
  9
$AUPREC
 70
     0
  9
$MENU
  1
.
  9
$ELEVATION
 40
0.0
  9
$PELEVATION
 40
0.0
  9
$THICKNESS
 40
0.0
  9
$LIMCHECK
 70
     0
  9
$BLIPMODE
 70
     0
  9
$CHAMFERA
 40
0.0
  9
$CHAMFERB
 40
0.0
  9
$SKPOLY
 70
     0
  9
$TDCREATE
 40
2458060.468368056230247
  9
$TDUPDATE
 40
2459203.0023263888433576
  9
$TDINDWG
 40
0.5816621528
  9
$TDUSRTIMER
 40
0.5816621528
  9
$USRTIMER
 70
     1
  9
$ANGBASE
 50
0.0
  9
$ANGDIR
 70
     0
  9
$PDMODE
 70
     0
  9
$PDSIZE
 40
0.3125
  9
$PLINEWID
 40
0.0
  9
$COORDS
 70
     1
  9
$SPLFRAME
 70
     0
  9
$SPLINETYPE
 70
     6
  9
$SPLINESEGS
 70
     8
  9
$ATTDIA
 70
     1
  9
$ATTREQ
 70
     1
  9
$HANDLING
 70
     1
  9
$HANDSEED
  5
13D1C
  9
$SURFTAB1
 70
     6
  9
$SURFTAB2
 70
     6
  9
$SURFTYPE
 70
     6
  9
$SURFU
 70
     6
  9
$SURFV
 70
     6
  9
$UCSNAME
  2

  9
$UCSORG
 10
0.0
 20
0.0
 30
0.0
  9
$UCSXDIR
 10
1.0
 20
0.0
 30
0.0
  9
$UCSYDIR
 10
0.0
 20
1.0
 30
0.0
  9
$PUCSNAME
  2

  9
$PUCSORG
 10
0.0
 20
0.0
 30
0.0
  9
$PUCSXDIR
 10
1.0
 20
0.0
 30
0.0
  9
$PUCSYDIR
 10
0.0
 20
1.0
 30
0.0
  9
$USERI1
 70
     0
  9
$USERI2
 70
     0
  9
$USERI3
 70
     0
  9
$USERI4
 70
     0
  9
$USERI5
 70
     0
  9
$USERR1
 40
0.0
  9
$USERR2
 40
0.0
  9
$USERR3
 40
0.0
  9
$USERR4
 40
0.0
  9
$USERR5
 40
0.0
  9
$WORLDVIEW
 70
     1
  9
$SHADEDGE
 70
     3
  9
$SHADEDIF
 70
    70
  9
$TILEMODE
 70
     1
  9
$MAXACTVP
 70
    64
  9
$PLIMCHECK
 70
     0
  9
$PEXTMIN
 10
1.0000000000000000E+20
 20
1.0000000000000000E+20
 30
1.0000000000000000E+20
  9
$PEXTMAX
 10
-1.0000000000000000E+20
 20
-1.0000000000000000E+20
 30
-1.0000000000000000E+20
  9
$PLIMMIN
 10
0.0
 20
0.0
  9
$PLIMMAX
 10
12.0
 20
9.0
  9
$UNITMODE
 70
     0
  9
$VISRETAIN
 70
     1
  9
$PLINEGEN
 70
     0
  9
$PSLTSCALE
 70
     1
  0
ENDSEC
  0
SECTION
  2
TABLES
  0
TABLE
  2
VPORT
 70
     1
  0
VPORT
  2
*ACTIVE
 70
     0
 10
0.0
 20
0.0
 11
1.0
 21
1.0
 12
1.924590134436585
 22
-5.318585168948033
 13
0.0
 23
0.0
 14
1.0
 24
1.0
 15
0.0
 25
0.0
 16
0.0
 26
0.0
 36
20.9203132949307395
 17
3515.499267578125
 27
160.6819381713866903
 37
0.0
 40
4.6086147662849006
 41
3.1182994454713491
 42
50.0
 43
0.0
 44
0.0
 50
0.0
 51
0.0
 71
     0
 72
   100
 73
     1
 74
     1
 75
     0
 76
     0
 77
     0
 78
     0
  0
ENDTAB
  0
TABLE
  2
LTYPE
 70
     2
  0
LTYPE
  2
CONTINUOUS
 70
     0
  3
Solid line
 72
    65
 73
     0
 40
0.0
  0
LTYPE
  2
PHANTOM2
 70
     0
  3
___ _ _ ___ _ _ ___ _ _ ___ _ _
 72
    65
 73
     6
 40
1.25
 49
0.625
 49
-0.125
 49
0.125
 49
-0.125
 49
0.125
 49
-0.125
  0
ENDTAB
  0
TABLE
  2
LAYER
 70
     2
  0
LAYER
  2
0
 70
     0
 62
   255
  6
CONTINUOUS
  0
LAYER
  2
DEFPOINTS
 70
     0
 62
     7
  6
CONTINUOUS
  0
ENDTAB
  0
TABLE
  2
STYLE
 70
     1
  0
STYLE
  2
STANDARD
 70
     0
 40
0.0
 41
0.8
 50
0.0
 71
     0
 42
0.2
  3
txt
  4

  0
ENDTAB
  0
TABLE
  2
VIEW
 70
     0
  0
ENDTAB
  0
TABLE
  2
UCS
 70
     0
  0
ENDTAB
  0
TABLE
  2
APPID
 70
     9
  0
APPID
  2
ACAD
 70
     0
  0
APPID
  2
ACAD_MLEADERVER
 70
     0
  0
APPID
  2
ACAD_EXEMPT_FROM_CAD_STANDARDS
 70
     0
  0
APPID
  2
ACAD_NAV_VCDISPLAY
 70
     0
  0
APPID
  2
ACAECLAYERSTANDARD
 70
     0
  0
APPID
  2
ACCMTRANSPARENCY
 70
     0
  0
APPID
  2
ACAD_DSTYLE_DIMJAG
 70
     0
  0
APPID
  2
ACAD_DSTYLE_DIMTALN
 70
     0
  0
APPID
  2
ACDBATTR
 70
     0
  0
ENDTAB
  0
TABLE
  2
DIMSTYLE
 70
     1
  0
DIMSTYLE
  2
STANDARD
 70
     0
  3

  4

  5

  6

  7

 40
1.0
 41
0.1875
 42
0.0625
 43
0.38
 44
0.125
 45
0.0
 46
0.0
 47
0.01
 48
0.01
140
0.15625
141
0.09
142
0.0
143
25.3999999999999986
144
1.0
145
0.0
146
1.0
147
0.09
 71
     1
 72
     0
 73
     1
 74
     1
 75
     0
 76
     0
 77
     0
 78
     4
170
     0
171
     2
172
     0
173
     0
174
     0
175
     0
176
     0
177
     0
178
     0
  0
ENDTAB
  0
ENDSEC
  0
SECTION
  2
BLOCKS
  0
BLOCK
  8
0
  2
$MODEL_SPACE
 70
     0
 10
0.0
 20
0.0
 30
0.0
  3
$MODEL_SPACE
  1

  0
ENDBLK
  5
21
  8
0
  0
BLOCK
 67
     1
  8
0
  2
$PAPER_SPACE
 70
     0
 10
0.0
 20
0.0
 30
0.0
  3
$PAPER_SPACE
  1

  0
ENDBLK
  5
1D
 67
     1
  8
0
  0
BLOCK
  8
0
  2
_FILLED
 70
     0
 10
0.0
 20
0.0
 30
0.0
  3
_FILLED
  1

  0
SOLID
  5
13356
  8
0
  6
BYBLOCK
 62
     0
 10
0.0
 20
0.0
 30
0.0
 11
-1.0
 21
0.1666666667
 31
0.0
 12
-1.0
 22
-0.1666666667
 32
0.0
 13
-1.0
 23
-0.1666666667
 33
0.0
  0
ENDBLK
  5
13357
  8
0
  6
BYBLOCK
 62
     0
  0
ENDSEC
  0
SECTION
  2
ENTITIES
  0
ATTDEF
  5
12BEB
  8
DEFPOINTS
 10
3515.5323799194311505
 20
156.2535754429983967
 30
0.0
 40
0.001
  1
K-99450IN-4ND
  3

  2
MODELNUMBER
 70
     0
1001
ACDBATTR
1070
     0
1070
     1
  0
ATTDEF
  5
12BEC
  8
DEFPOINTS
 10
3515.5323799194311505
 20
156.2519087763317032
 30
0.0
 40
0.001
  1
KUMIN
  3

  2
TRADENAME
 70
     0
1001
ACDBATTR
1070
     0
1070
     1
  0
ATTDEF
  5
12BED
  8
DEFPOINTS
 10
3515.5323799194311505
 20
156.2502421096650096
 30
0.0
 40
0.001
  1
BATHROOM SINK FAUCET
  3

  2
PRODUCT
 70
     0
1001
ACDBATTR
1070
     0
1070
     1
  0
CIRCLE
  5
13AD6
  8
0
 10
3515.5320341565388844
 20
156.2549102184563878
 30
0.0
 40
1.3779527558999991
  0
LINE
  5
13AD7
  8
0
 10
3514.6122714604671273
 20
156.342592456417691
 30
0.0
 11
3516.4517968526120058
 21
156.342592456417691
 31
0.0
  0
ARC
  5
13AD8
  8
0
 10
3515.6554643718031912
 20
155.8855569450919916
 30
0.0
 40
0.9203064943585385
 50
47.4600956693472824
 51
77.5890753277290344
  0
ARC
  5
13AD9
  8
0
 10
3515.6859894464378158
 20
155.9188226751975037
 30
0.0
 40
0.8751579729989408
 50
29.0437785259305912
 51
47.4600956693472824
  0
ARC
  5
13ADA
  8
0
 10
3515.5902358011630895
 20
156.5900164186658969
 30
0.0
 40
0.8937267999936173
 50
287.6169816927380793
 51
322.9720624735560932
  0
ARC
  5
13ADB
  8
0
 10
3515.3333528866878623
 20
156.791538527740812
 30
0.0
 40
1.220180394663027
 50
322.6815138848351125
 51
336.3548515700342136
  0
ARC
  5
13ADC
  8
0
 10
3516.4197426447071848
 20
156.322925986119202
 30
0.0
 40
0.0376064129949622
 50
326.4816376505261246
 51
33.5183623494765897
  0
ARC
  5
13ADD
  8
0
 10
3515.6607329015992036
 20
155.3406099177070985
 30
0.0
 40
0.7361471965112388
 50
66.8375271567731062
 51
84.6606395245255641
  0
ARC
  5
13ADE
  8
0
 10
3515.8986425975240309
 20
155.8967004494489004
 30
0.0
 40
0.1313020073033152
 50
36.8622899498472805
 51
66.8375271567731062
  0
ARC
  5
13ADF
  8
0
 10
3515.9714218568137767
 20
155.9536169233041107
 30
0.0
 40
0.0389742313745743
 50
312.3501821532120175
 51
34.1005478474012307
  0
ARC
  5
13AE0
  8
0
 10
3515.8594839277429855
 20
156.0664997745485039
 30
0.0
 40
0.1979202696048109
 50
295.062126267375902
 51
314.2849429987962822
  0
ARC
  5
13AE1
  8
0
 10
3515.6868322693558184
 20
156.4275719923969064
 30
0.0
 40
0.5981424736143292
 50
283.9923377064798728
 51
295.3922071009017145
  0
ARC
  5
13AE2
  8
0
 10
3515.7475121139927978
 20
156.2629016171520107
 30
0.0
 40
0.4164133730094567
 50
282.1067640140142885
 51
299.2596688809322245
  0
ARC
  5
13AE3
  8
0
 10
3515.8868461717647733
 20
156.0142012091463926
 30
0.0
 40
0.1313416757171272
 50
299.2596688809322245
 51
338.0481756481141815
  0
ARC
  5
13AE4
  8
0
 10
3515.9365238260529622
 20
155.9853047471428908
 30
0.0
 40
0.0508010596049429
 50
311.468696623881101
 51
10.1411065932392006
  0
ARC
  5
13AE5
  8
0
 10
3515.8158172978678522
 20
156.1163859789699018
 30
0.0
 40
0.2289846979017722
 50
280.127141487712322
 51
312.3805564093347016
  0
ARC
  5
13AE6
  8
0
 10
3515.7980843683799321
 20
156.1247073658747979
 30
0.0
 40
0.2408261303146321
 50
279.946647248427098
 51
309.3854069443394792
  0
ARC
  5
13AE7
  8
0
 10
3515.9123553897247803
 20
155.9855192847458909
 30
0.0
 40
0.060739517132553
 50
309.3854069443394792
 51
21.3165585513466702
  0
ARC
  5
13AE8
  8
0
 10
3515.6199857223041363
 20
155.6376983577956139
 30
0.0
 40
0.4210618264607632
 50
62.4454350552348103
 51
83.8346857869019857
  0
ARC
  5
13AE9
  8
0
 10
3515.7859697886719914
 20
155.9558107470099912
 30
0.0
 40
0.0622496158830387
 50
11.3837196748036007
 51
62.4454350552340571
  0
LINE
  5
13AEA
  8
0
 10
3515.8469947864391543
 20
155.9680975010564055
 30
0.0
 11
3515.8381318797401036
 21
155.8704097591563027
 31
0.0
  0
ARC
  5
13AEB
  8
0
 10
3515.7610345002080976
 20
155.8799814573054903
 30
0.0
 40
0.0776892742656867
 50
311.7463762484484278
 51
352.9228980163408096
  0
ARC
  5
13AEC
  8
0
 10
3515.6684848895938558
 20
155.9999137663967872
 30
0.0
 40
0.2290483726088824
 50
282.8794454962834948
 51
309.0428218147191046
  0
ARC
  5
13AED
  8
0
 10
3515.5817626861280587
 20
155.4685003638113017
 30
0.0
 40
0.4474280111271307
 50
69.0552410710973561
 51
83.8429571963098255
  0
ARC
  5
13AEE
  8
0
 10
3515.6995088308981394
 20
155.7761257342818055
 30
0.0
 40
0.1180383889996849
 50
44.3051492029297904
 51
69.0552410710973561
  0
ARC
  5
13AEF
  8
0
 10
3515.761349127450103
 20
155.8383352338601924
 30
0.0
 40
0.030360471172651
 50
302.5771082302280774
 51
41.8042216383364433
  0
ARC
  5
13AF0
  8
0
 10
3515.6504620517089279
 20
155.9888319841851114
 30
0.0
 40
0.2172392554404528
 50
280.8722723244547979
 51
305.8515325458051279
  0
ARC
  5
13AF1
  8
0
 10
3515.5347804683801769
 20
156.2869876373563045
 30
0.0
 40
0.5103584192678401
 50
282.1142095775107919
 51
294.6004550776644919
  0
ARC
  5
13AF2
  8
0
 10
3515.709850206675128
 20
155.9156718111300108
 30
0.0
 40
0.0999725635431624
 50
291.9604288618892838
 51
321.283618568484826
  0
LINE
  5
13AF3
  8
0
 10
3515.6757350850180046
 20
155.7061383027021009
 30
0.0
 11
3515.6757345520391027
 21
155.7027330688563893
 31
0.0
  0
LINE
  5
13AF4
  8
0
 10
3515.6757345520391027
 20
155.7027330688563893
 30
0.0
 11
3515.6107420000739694
 21
155.7027330688563893
 31
0.0
  0
LINE
  5
13AF5
  8
0
 10
3515.5540756133391369
 20
155.8928043310563112
 30
0.0
 11
3515.5768059389029077
 21
155.8943034389641014
 31
0.0
  0
LINE
  5
13AF6
  8
0
 10
3515.5768059389029077
 20
155.8943034389641014
 30
0.0
 11
3515.5881711017282214
 21
155.8825030423334965
 31
0.0
  0
LINE
  5
13AF7
  8
0
 10
3515.5881711017282214
 20
155.8825030423334965
 30
0.0
 11
3515.5768059388319671
 21
155.8693094431723978
 31
0.0
  0
LINE
  5
13AF8
  8
0
 10
3515.5768059388319671
 20
155.8693094431723978
 30
0.0
 11
3515.5540756133391369
 21
155.867851092956812
 31
0.0
  0
LINE
  5
13AF9
  8
0
 10
3515.5540756133391369
 20
155.867851092956812
 30
0.0
 11
3515.5427104505120042
 21
155.8795464155745094
 31
0.0
  0
LINE
  5
13AFA
  8
0
 10
3515.5427104505120042
 20
155.8795464155745094
 30
0.0
 11
3515.5540756132500064
 21
155.8928043310573912
 31
0.0
  0
LINE
  5
13AFB
  8
0
 10
3515.5427104504938143
 20
155.7799191573948008
 30
0.0
 11
3515.5540756133391369
 21
155.7830303629563957
 31
0.0
  0
LINE
  5
13AFC
  8
0
 10
3515.5540756133391369
 20
155.7830303629563957
 30
0.0
 11
3515.5768059388387883
 21
155.7844454418182067
 31
0.0
  0
LINE
  5
13AFD
  8
0
 10
3515.5768059388387883
 20
155.7844454418182067
 30
0.0
 11
3515.5881711016540976
 21
155.7827710100916931
 31
0.0
  0
LINE
  5
13AFE
  8
0
 10
3515.5881711016540976
 20
155.7827710100916931
 30
0.0
 11
3515.5768059388387883
 21
155.7796961052191875
 31
0.0
  0
LINE
  5
13AFF
  8
0
 10
3515.5768059388387883
 20
155.7796961052191875
 30
0.0
 11
3515.5540756128839348
 21
155.778259087636286
 31
0.0
  0
LINE
  5
13B00
  8
0
 10
3515.5540756128839348
 20
155.778259087636286
 30
0.0
 11
3515.5427104504929048
 21
155.7799191573948008
 31
0.0
  0
LINE
  5
13B01
  8
0
 10
3515.5540756133800642
 20
155.8523876851600107
 30
0.0
 11
3515.5768059388387883
 21
155.8538247028591002
 31
0.0
  0
LINE
  5
13B02
  8
0
 10
3515.5768059388387883
 20
155.8538247028591002
 30
0.0
 11
3515.5881711016791087
 21
155.8447297598515036
 31
0.0
  0
LINE
  5
13B03
  8
0
 10
3515.5881711016791087
 20
155.8447297598515036
 30
0.0
 11
3515.5783401383928322
 21
155.8343427343795895
 31
0.0
  0
LINE
  5
13B04
  8
0
 10
3515.5783401383928322
 20
155.8343427343795895
 30
0.0
 11
3515.5556098129009115
 21
155.83288438416389
 31
0.0
  0
LINE
  5
13B05
  8
0
 10
3515.5556098129009115
 20
155.83288438416389
 30
0.0
 11
3515.5427104505101852
 21
155.8418779070863138
 31
0.0
  0
LINE
  5
13B06
  8
0
 10
3515.5427104505101852
 20
155.8418779070863138
 30
0.0
 11
3515.5540756132900242
 21
155.8523876851610055
 31
0.0
  0
LINE
  5
13B07
  8
0
 10
3515.5877714343491789
 20
155.8739455182941924
 30
0.0
 11
3515.610212558468902
 21
155.8768621860768064
 31
0.0
  0
LINE
  5
13B08
  8
0
 10
3515.610212558468902
 20
155.8768621860768064
 30
0.0
 11
3515.6215777212460125
 21
155.8671481057625101
 31
0.0
  0
LINE
  5
13B09
  8
0
 10
3515.6215777212460125
 20
155.8671481057625101
 30
0.0
 11
3515.610005149999779
 21
155.85452821651009
 31
0.0
  0
LINE
  5
13B0A
  8
0
 10
3515.610005149999779
 20
155.85452821651009
 30
0.0
 11
3515.5874822284617949
 21
155.8516738466117886
 31
0.0
  0
LINE
  5
13B0B
  8
0
 10
3515.5874822284617949
 20
155.8516738466117886
 30
0.0
 11
3515.5761170701048286
 21
155.8613160263390967
 31
0.0
  0
LINE
  5
13B0C
  8
0
 10
3515.5761170701048286
 20
155.8613160263390967
 30
0.0
 11
3515.5877714342600484
 21
155.8739455182951872
 31
0.0
  0
LINE
  5
13B0D
  8
0
 10
3515.5874822285600203
 20
155.9163058388398895
 30
0.0
 11
3515.5949898376948113
 21
155.9168009798439982
 31
0.0
  0
LINE
  5
13B0E
  8
0
 10
3515.6126917004357892
 20
155.9152308604589052
 30
0.0
 11
3515.6215777169491048
 21
155.9060045501171032
 31
0.0
  0
LINE
  5
13B0F
  8
0
 10
3515.6215777169491048
 20
155.9060045501171032
 30
0.0
 11
3515.610212554051941
 21
155.8928109509558908
 31
0.0
  0
LINE
  5
13B10
  8
0
 10
3515.610212554051941
 20
155.8928109509558908
 30
0.0
 11
3515.5874822285600203
 21
155.891352600740305
 31
0.0
  0
LINE
  5
13B11
  8
0
 10
3515.5874822285600203
 20
155.891352600740305
 30
0.0
 11
3515.5761170657319781
 21
155.9030479233580877
 31
0.0
  0
LINE
  5
13B12
  8
0
 10
3515.5761170657319781
 20
155.9030479233580877
 30
0.0
 11
3515.5874822284699803
 21
155.9163058388409127
 31
0.0
  0
LINE
  5
13B13
  8
0
 10
3515.6208888479918642
 20
155.8999626135054086
 30
0.0
 11
3515.6436191780549052
 21
155.9047517031546022
 31
0.0
  0
LINE
  5
13B14
  8
0
 10
3515.6436191780549052
 20
155.9047517031546022
 30
0.0
 11
3515.6549843408361085
 21
155.8943387700250867
 31
0.0
  0
LINE
  5
13B15
  8
0
 10
3515.6549843408361085
 20
155.8943387700250867
 30
0.0
 11
3515.6436191780139779
 21
155.8794663628044077
 31
0.0
  0
LINE
  5
13B16
  8
0
 10
3515.6436191780139779
 20
155.8794663628044077
 30
0.0
 11
3515.6208888479918642
 21
155.8750093754057957
 31
0.0
  0
LINE
  5
13B17
  8
0
 10
3515.6208888479918642
 20
155.8750093754057957
 30
0.0
 11
3515.6095236897472205
 21
155.8852977601999044
 31
0.0
  0
LINE
  5
13B18
  8
0
 10
3515.6095236897472205
 20
155.8852977601999044
 30
0.0
 11
3515.6208888479018242
 21
155.8999626135064034
 31
0.0
  0
LINE
  5
13B19
  8
0
 10
3515.6542954721658134
 20
155.8855458877187914
 30
0.0
 11
3515.6770257976390894
 21
155.8916132007846045
 31
0.0
  0
LINE
  5
13B1A
  8
0
 10
3515.6770257976390894
 20
155.8916132007846045
 30
0.0
 11
3515.6883909604189284
 21
155.8832980360544127
 31
0.0
  0
LINE
  5
13B1B
  8
0
 10
3515.6883909604189284
 20
155.8832980360544127
 30
0.0
 11
3515.6770257975740606
 21
155.8689851682343885
 31
0.0
  0
LINE
  5
13B1C
  8
0
 10
3515.6770257975740606
 20
155.8689851682343885
 30
0.0
 11
3515.6542954676119734
 21
155.8630539612306052
 31
0.0
  0
LINE
  5
13B1D
  8
0
 10
3515.6542954676119734
 20
155.8630539612306052
 30
0.0
 11
3515.6429303092968439
 21
155.8713010603750888
 31
0.0
  0
LINE
  5
13B1E
  8
0
 10
3515.6429303092968439
 20
155.8713010603750888
 30
0.0
 11
3515.6542954720757734
 21
155.8855458877197862
 31
0.0
  0
LINE
  5
13B1F
  8
0
 10
3515.6208888525288785
 20
155.8594400014767984
 30
0.0
 11
3515.643619178038989
 21
155.8638293821960872
 31
0.0
  0
LINE
  5
13B20
  8
0
 10
3515.643619178038989
 20
155.8638293821960872
 30
0.0
 11
3515.6549843408620291
 21
155.8561330651403978
 31
0.0
  0
LINE
  5
13B21
  8
0
 10
3515.6549843408620291
 20
155.8561330651403978
 30
0.0
 11
3515.6430401567681656
 21
155.8439598863041056
 31
0.0
  0
LINE
  5
13B22
  8
0
 10
3515.6430401567681656
 20
155.8439598863041056
 30
0.0
 11
3515.6208888479618508
 21
155.8397626617691003
 31
0.0
  0
LINE
  5
13B23
  8
0
 10
3515.6208888479618508
 20
155.8397626617691003
 30
0.0
 11
3515.6095236896630922
 21
155.8474242696227918
 31
0.0
  0
LINE
  5
13B24
  8
0
 10
3515.6095236896630922
 20
155.8474242696227918
 30
0.0
 11
3515.6208888524402028
 21
155.8594400014777932
 31
0.0
  0
LINE
  5
13B25
  8
0
 10
3515.6877020917049776
 20
155.8753756568657991
 30
0.0
 11
3515.7104324172400993
 21
155.8829752799331061
 31
0.0
  0
LINE
  5
13B26
  8
0
 10
3515.7104324172400993
 20
155.8829752799331061
 30
0.0
 11
3515.7217975799549095
 21
155.8767400485457983
 31
0.0
  0
LINE
  5
13B27
  8
0
 10
3515.7217975799549095
 20
155.8767400485457983
 30
0.0
 11
3515.7104324172400993
 21
155.8629102542097939
 31
0.0
  0
LINE
  5
13B28
  8
0
 10
3515.7104324172400993
 20
155.8629102542097939
 30
0.0
 11
3515.6877020871629611
 21
155.8554400853691106
 31
0.0
  0
LINE
  5
13B29
  8
0
 10
3515.6877020871629611
 20
155.8554400853691106
 30
0.0
 11
3515.6763369288391914
 21
155.8616703805564043
 31
0.0
  0
LINE
  5
13B2A
  8
0
 10
3515.6763369288391914
 20
155.8616703805564043
 30
0.0
 11
3515.6877020916140282
 21
155.8753756568667939
 31
0.0
  0
LINE
  5
13B2B
  8
0
 10
3515.7211087112559653
 20
155.8696591638162943
 30
0.0
 11
3515.7438390323268322
 21
155.878697517176505
 31
0.0
  0
LINE
  5
13B2C
  8
0
 10
3515.7438390323268322
 20
155.878697517176505
 30
0.0
 11
3515.7552041995659238
 21
155.8747800145337123
 31
0.0
  0
LINE
  5
13B2D
  8
0
 10
3515.7552041995659238
 20
155.8747800145337123
 30
0.0
 11
3515.7438390368211003
 21
155.8613672843113136
 31
0.0
  0
LINE
  5
13B2E
  8
0
 10
3515.7438390368211003
 20
155.8613672843113136
 30
0.0
 11
3515.721108706762152
 21
155.8522451711691019
 31
0.0
  0
LINE
  5
13B2F
  8
0
 10
3515.721108706762152
 20
155.8522451711691019
 30
0.0
 11
3515.7097435483879053
 21
155.8564256101194871
 31
0.0
  0
LINE
  5
13B30
  8
0
 10
3515.7097435483879053
 20
155.8564256101194871
 30
0.0
 11
3515.7211087111668348
 21
155.8696591638174027
 31
0.0
  0
LINE
  5
13B31
  8
0
 10
3515.7438390367378815
 20
155.8510337444041909
 30
0.0
 11
3515.7552041994999854
 21
155.8495610991012938
 31
0.0
  0
LINE
  5
13B32
  8
0
 10
3515.7552041994999854
 20
155.8495610991012938
 30
0.0
 11
3515.7438390368320142
 21
155.8388638966933115
 31
0.0
  0
LINE
  5
13B33
  8
0
 10
3515.7438390368320142
 20
155.8388638966933115
 30
0.0
 11
3515.7293848954709574
 21
155.8329466669156886
 31
0.0
  0
LINE
  5
13B34
  8
0
 10
3515.7293848954709574
 20
155.8329466669156886
 30
0.0
 11
3515.7211087112050336
 21
155.8373803828741018
 31
0.0
  0
LINE
  5
13B35
  8
0
 10
3515.7211087112050336
 20
155.8373803828741018
 30
0.0
 11
3515.7210845657141363
 21
155.8491733903786951
 31
0.0
  0
LINE
  5
13B36
  8
0
 10
3515.7210845657141363
 20
155.8491733903786951
 30
0.0
 11
3515.7293848954859641
 21
155.8451165147262998
 31
0.0
  0
LINE
  5
13B37
  8
0
 10
3515.7293848954859641
 20
155.8451165147262998
 30
0.0
 11
3515.743839036781992
 21
155.8510337444230913
 31
0.0
  0
LINE
  5
13B38
  8
0
 10
3515.7552041993649254
 20
155.8334741812788877
 30
0.0
 11
3515.7438390367851753
 21
155.8322312988595968
 31
0.0
  0
LINE
  5
13B39
  8
0
 10
3515.7438390367851753
 20
155.8322312988595968
 30
0.0
 11
3515.7211087112400492
 21
155.8231091860963033
 31
0.0
  0
LINE
  5
13B3A
  8
0
 10
3515.7211087112400492
 20
155.8231091860963033
 30
0.0
 11
3515.7103767932248957
 21
155.8155378881214972
 31
0.0
  0
LINE
  5
13B3B
  8
0
 10
3515.7103767932248957
 20
155.8155378881214972
 30
0.0
 11
3515.7211087112309542
 21
155.8161834827101018
 31
0.0
  0
LINE
  5
13B3C
  8
0
 10
3515.7211087112309542
 20
155.8161834827101018
 30
0.0
 11
3515.7438390367219654
 21
155.8254138576446906
 31
0.0
  0
LINE
  5
13B3D
  8
0
 10
3515.7438390367219654
 20
155.8254138576446906
 30
0.0
 11
3515.7552041995659238
 21
155.8334741813110895
 31
0.0
  0
LINE
  5
13B3E
  8
0
 10
3515.7217975799389933
 20
155.8147812987562872
 30
0.0
 11
3515.7104324172400993
 21
155.8131213522248117
 31
0.0
  0
LINE
  5
13B3F
  8
0
 10
3515.7104324172400993
 20
155.8131213522248117
 30
0.0
 11
3515.6877020916499532
 21
155.8056511837075107
 31
0.0
  0
LINE
  5
13B40
  8
0
 10
3515.6877020916499532
 20
155.8056511837075107
 30
0.0
 11
3515.6769797809402007
 21
155.8000187265062948
 31
0.0
  0
LINE
  5
13B41
  8
0
 10
3515.6769797809402007
 20
155.8000187265062948
 30
0.0
 11
3515.6877020916390393
 21
155.8012470592562977
 31
0.0
  0
LINE
  5
13B42
  8
0
 10
3515.6877020916390393
 20
155.8012470592562977
 30
0.0
 11
3515.7104324169049505
 21
155.8088466820962879
 31
0.0
  0
LINE
  5
13B43
  8
0
 10
3515.7104324169049505
 20
155.8088466820962879
 30
0.0
 11
3515.7217975798412226
 21
155.8147812987421048
 31
0.0
  0
LINE
  5
13B44
  8
0
 10
3515.6812584133390374
 20
155.8039467101563105
 30
0.0
 11
3515.6498163187661703
 21
155.7959313480714911
 31
0.0
  0
LINE
  5
13B45
  8
0
 10
3515.6498163187661703
 20
155.7959313480714911
 30
0.0
 11
3515.6542954720389389
 21
155.795788860425688
 31
0.0
  0
LINE
  5
13B46
  8
0
 10
3515.6542954720389389
 20
155.795788860425688
 30
0.0
 11
3515.6770257976390894
 21
155.8016524621563974
 31
0.0
  0
LINE
  5
13B47
  8
0
 10
3515.6770257976390894
 20
155.8016524621563974
 30
0.0
 11
3515.6810118757389318
 21
155.8038068705562864
 31
0.0
  0
LINE
  5
13B48
  8
0
 10
3515.6436191780271656
 20
155.7942937281673039
 30
0.0
 11
3515.6549843408220113
 21
155.7941743153087089
 31
0.0
  0
LINE
  5
13B49
  8
0
 10
3515.6549843408220113
 20
155.7941743153087089
 30
0.0
 11
3515.643619178038989
 21
155.7897007845564019
 31
0.0
  0
LINE
  5
13B4A
  8
0
 10
3515.643619178038989
 20
155.7897007845564019
 30
0.0
 11
3515.6208888524938629
 21
155.785311403930109
 31
0.0
  0
LINE
  5
13B4B
  8
0
 10
3515.6208888524938629
 20
155.785311403930109
 30
0.0
 11
3515.6095236897431278
 21
155.7854655198410967
 31
0.0
  0
LINE
  5
13B4C
  8
0
 10
3515.6095236897431278
 20
155.7854655198410967
 30
0.0
 11
3515.6208888524402028
 21
155.7899737600340018
 31
0.0
  0
LINE
  5
13B4D
  8
0
 10
3515.6208888524402028
 20
155.7899737600340018
 30
0.0
 11
3515.6436191780271656
 21
155.7942937281673039
 31
0.0
  0
LINE
  5
13B4E
  8
0
 10
3515.5830030795591483
 20
155.785287197871213
 30
0.0
 11
3515.6146917117180237
 21
155.7892571280368941
 31
0.0
  0
LINE
  5
13B4F
  8
0
 10
3515.6146917117180237
 20
155.7892571280368941
 30
0.0
 11
3515.6102125584397982
 21
155.7873879037564109
 31
0.0
  0
LINE
  5
13B50
  8
0
 10
3515.6102125584397982
 20
155.7873879037564109
 30
0.0
 11
3515.5877301736891241
 21
155.7845601888064095
 31
0.0
  0
LINE
  5
13B51
  8
0
 10
3515.5877301736891241
 20
155.7845601888064095
 30
0.0
 11
3515.5830030795591483
 21
155.785287197871213
 31
0.0
  0
LINE
  5
13B52
  8
0
 10
3515.5433993192268645
 20
155.9163642347209873
 30
0.0
 11
3515.5547644820221649
 21
155.902342189313714
 31
0.0
  0
LINE
  5
13B53
  8
0
 10
3515.5547644820221649
 20
155.902342189313714
 30
0.0
 11
3515.5433993193241804
 21
155.8884566648050054
 31
0.0
  0
LINE
  5
13B54
  8
0
 10
3515.5433993193241804
 20
155.8884566648050054
 30
0.0
 11
3515.5206689937390365
 21
155.8884566648050054
 31
0.0
  0
LINE
  5
13B55
  8
0
 10
3515.5206689937390365
 20
155.8884566648050054
 30
0.0
 11
3515.5093038310128577
 21
155.9023421893961086
 31
0.0
  0
LINE
  5
13B56
  8
0
 10
3515.5093038310128577
 20
155.9023421893961086
 30
0.0
 11
3515.5206689936908333
 21
155.9163642347247105
 31
0.0
  0
LINE
  5
13B57
  8
0
 10
3515.5206689936908333
 20
155.9163642347247105
 30
0.0
 11
3515.5433993192268645
 21
155.9163642347209873
 31
0.0
  0
LINE
  5
13B58
  8
0
 10
3515.5206689937390365
 20
155.8710735434144965
 30
0.0
 11
3515.5433993192232265
 21
155.8710736149122909
 31
0.0
  0
LINE
  5
13B59
  8
0
 10
3515.5433993192232265
 20
155.8710736149122909
 30
0.0
 11
3515.5547644820908317
 21
155.8599567563512949
 31
0.0
  0
LINE
  5
13B5A
  8
0
 10
3515.5547644820908317
 20
155.8599567563512949
 30
0.0
 11
3515.5433993179208301
 21
155.848892676245498
 31
0.0
  0
LINE
  5
13B5B
  8
0
 10
3515.5433993179208301
 20
155.848892676245498
 30
0.0
 11
3515.5206689937590454
 21
155.8488926131709889
 31
0.0
  0
LINE
  5
13B5C
  8
0
 10
3515.5206689937590454
 20
155.8488926131709889
 30
0.0
 11
3515.5093038309191797
 21
155.8599567563047117
 31
0.0
  0
LINE
  5
13B5D
  8
0
 10
3515.5093038309191797
 20
155.8599567563047117
 30
0.0
 11
3515.5206689937390365
 21
155.8710735434144965
 31
0.0
  0
LINE
  5
13B5E
  8
0
 10
3515.5161898404758176
 20
155.8317803469446119
 30
0.0
 11
3515.5206689925121282
 21
155.8352579075692006
 31
0.0
  0
LINE
  5
13B5F
  8
0
 10
3515.5206689925121282
 20
155.8352579075692006
 30
0.0
 11
3515.5433993192677917
 21
155.8352579642618991
 31
0.0
  0
LINE
  5
13B60
  8
0
 10
3515.5433993192677917
 20
155.8352579642618991
 30
0.0
 11
3515.5478782924660663
 21
155.8317804837984113
 31
0.0
  0
LINE
  5
13B61
  8
0
 10
3515.5478782924660663
 20
155.8317804837984113
 30
0.0
 11
3515.5161898404758176
 21
155.8317803469446119
 31
0.0
  0
LINE
  5
13B62
  8
0
 10
3515.5830030795791572
 20
155.8339665891060974
 30
0.0
 11
3515.5874822328901246
 21
155.8380095142589141
 31
0.0
  0
LINE
  5
13B63
  8
0
 10
3515.5874822328901246
 20
155.8380095142589141
 30
0.0
 11
3515.6102125584529858
 21
155.8408635847054029
 31
0.0
  0
LINE
  5
13B64
  8
0
 10
3515.6102125584529858
 20
155.8408635847054029
 30
0.0
 11
3515.6146917116911936
 21
155.8379365191987063
 31
0.0
  0
LINE
  5
13B65
  8
0
 10
3515.6146917116911936
 20
155.8379365191987063
 30
0.0
 11
3515.5830030799111228
 21
155.8339665894067139
 31
0.0
  0
LINE
  5
13B66
  8
0
 10
3515.649816318772082
 20
155.8446107393230022
 30
0.0
 11
3515.6542954720448506
 21
155.8492645415211086
 31
0.0
  0
LINE
  5
13B67
  8
0
 10
3515.6542954720448506
 20
155.8492645415211086
 30
0.0
 11
3515.6770257976018002
 21
155.8551281431653024
 31
0.0
  0
LINE
  5
13B68
  8
0
 10
3515.6770257976018002
 20
155.8551281431653024
 30
0.0
 11
3515.6815049509018536
 21
155.8527659410758872
 31
0.0
  0
LINE
  5
13B69
  8
0
 10
3515.6815049509018536
 20
155.8527659410758872
 30
0.0
 11
3515.6498163249498248
 21
155.8446107457425001
 31
0.0
  0
LINE
  5
13B6A
  8
0
 10
3515.5161898404398926
 20
155.7831009556562947
 30
0.0
 11
3515.5478784723600256
 21
155.7831009556545894
 31
0.0
  0
LINE
  5
13B6B
  8
0
 10
3515.5478784723600256
 20
155.7831009556545894
 30
0.0
 11
3515.5433993192391426
 21
155.7817822832213892
 31
0.0
  0
LINE
  5
13B6C
  8
0
 10
3515.5433993192391426
 20
155.7817822832213892
 30
0.0
 11
3515.5206689937390365
 21
155.7817822832190018
 31
0.0
  0
LINE
  5
13B6D
  8
0
 10
3515.5206689937390365
 20
155.7817822832190018
 30
0.0
 11
3515.5161898404398926
 21
155.7831009556562947
 31
0.0
  0
LINE
  5
13B6E
  8
0
 10
3515.5093038310710654
 20
155.7773450899254044
 30
0.0
 11
3515.5206689937390365
 21
155.778450794656294
 31
0.0
  0
LINE
  5
13B6F
  8
0
 10
3515.5206689937390365
 20
155.778450794656294
 30
0.0
 11
3515.5433993192627895
 21
155.7784507946543044
 31
0.0
  0
LINE
  5
13B70
  8
0
 10
3515.5433993192627895
 20
155.7784507946543044
 30
0.0
 11
3515.5547644821290305
 21
155.7773450899609884
 31
0.0
  0
LINE
  5
13B71
  8
0
 10
3515.5547644821290305
 20
155.7773450899609884
 30
0.0
 11
3515.5433993192509661
 21
155.7762921007077921
 31
0.0
  0
LINE
  5
13B72
  8
0
 10
3515.5433993192509661
 20
155.7762921007077921
 30
0.0
 11
3515.5206689936840121
 21
155.7762921006770114
 31
0.0
  0
LINE
  5
13B73
  8
0
 10
3515.5206689936840121
 20
155.7762921006770114
 30
0.0
 11
3515.5093038310719749
 21
155.7773450899254044
 31
0.0
  0
LINE
  5
13B74
  8
0
 10
3515.7091995108398805
 20
155.8448764066880869
 30
0.0
 11
3515.7091995108398805
 21
155.8205367110880957
 31
0.0
  0
ARC
  5
13B75
  8
0
 10
3515.4086039412759419
 20
155.8855569450919916
 30
0.0
 40
0.9203064943585385
 50
102.4109246722708946
 51
132.5399043306526892
  0
ARC
  5
13B76
  8
0
 10
3515.378078866639953
 20
155.9188226751975037
 30
0.0
 40
0.8751579729989408
 50
132.5399043306526892
 51
150.9562214740693946
  0
ARC
  5
13B77
  8
0
 10
3515.4738325119169531
 20
156.5900164186658969
 30
0.0
 40
0.8937267999936173
 50
217.0279375264439068
 51
252.3830183072618922
  0
ARC
  5
13B78
  8
0
 10
3515.730715426390816
 20
156.791538527740812
 30
0.0
 40
1.220180394663027
 50
203.6451484299659
 51
217.3184861151648875
  0
ARC
  5
13B79
  8
0
 10
3514.6443256683710388
 20
156.322925986119202
 30
0.0
 40
0.0376064129949622
 50
146.4816376505233961
 51
213.5183623494739038
  0
ARC
  5
13B7A
  8
0
 10
3515.40333541147902
 20
155.3406099177070985
 30
0.0
 40
0.7361471965112388
 50
95.3393604754744359
 51
113.1624728432268938
  0
ARC
  5
13B7B
  8
0
 10
3515.1654257155541927
 20
155.8967004494489004
 30
0.0
 40
0.1313020073033152
 50
113.1624728432268938
 51
143.1377100501526911
  0
ARC
  5
13B7C
  8
0
 10
3515.0926464562649016
 20
155.9536169233041107
 30
0.0
 40
0.0389742313745743
 50
145.8994521525987125
 51
227.6498178467880109
  0
ARC
  5
13B7D
  8
0
 10
3515.2045843853361475
 20
156.0664997745485039
 30
0.0
 40
0.1979202696048109
 50
225.7150570012036042
 51
244.937873732624098
  0
ARC
  5
13B7E
  8
0
 10
3515.3772360437242241
 20
156.4275719923969064
 30
0.0
 40
0.5981424736143292
 50
244.6077928990983139
 51
256.0076622935201272
  0
ARC
  5
13B7F
  8
0
 10
3515.316556199084971
 20
156.2629016171520107
 30
0.0
 40
0.4164133730094567
 50
240.7403311190678039
 51
257.8932359859857115
  0
ARC
  5
13B80
  8
0
 10
3515.1772221413148145
 20
156.0142012091463926
 30
0.0
 40
0.1313416757171272
 50
201.9518243518857901
 51
240.7403311190678039
  0
ARC
  5
13B81
  8
0
 10
3515.1275444870270803
 20
155.9853047471428908
 30
0.0
 40
0.0508010596049429
 50
169.8588934067608136
 51
228.5313033761177905
  0
ARC
  5
13B82
  8
0
 10
3515.2482510152099167
 20
156.1163859789699018
 30
0.0
 40
0.2289846979017722
 50
227.6194435906652984
 51
263.9912211496716736
  0
ARC
  5
13B83
  8
0
 10
3515.2659839446978367
 20
156.1247073658747979
 30
0.0
 40
0.2408261303146321
 50
230.6145930556604924
 51
256.0649928038167786
  0
ARC
  5
13B84
  8
0
 10
3515.1517129233548076
 20
155.9855192847458909
 30
0.0
 40
0.060739517132553
 50
158.6834414486532978
 51
230.6145930556604924
  0
ARC
  5
13B85
  8
0
 10
3515.4440825907749968
 20
155.6376983577956139
 30
0.0
 40
0.4210618264607632
 50
96.1653142130980143
 51
117.5545649447652039
  0
ARC
  5
13B86
  8
0
 10
3515.2780985244071417
 20
155.9558107470099912
 30
0.0
 40
0.0622496158830387
 50
117.5545649447659002
 51
168.6162803251964135
  0
LINE
  5
13B87
  8
0
 10
3515.2170735266390693
 20
155.9680975010564055
 30
0.0
 11
3515.2259364333390295
 21
155.8704097591563027
 31
0.0
  0
ARC
  5
13B88
  8
0
 10
3515.303033812870126
 20
155.8799814573054903
 30
0.0
 40
0.0776892742656867
 50
187.0771019836591904
 51
228.2536237515516007
  0
ARC
  5
13B89
  8
0
 10
3515.3955834234839131
 20
155.9999137663967872
 30
0.0
 40
0.2290483726088824
 50
230.9571781852808954
 51
257.1205545037165052
  0
ARC
  5
13B8A
  8
0
 10
3515.4823056269501649
 20
155.4685003638113017
 30
0.0
 40
0.4474280111271307
 50
96.1570428036901887
 51
110.9447589289026013
  0
ARC
  5
13B8B
  8
0
 10
3515.3645594821800842
 20
155.7761257342818055
 30
0.0
 40
0.1180383889996849
 50
110.9447589289026013
 51
135.6948507970701883
  0
ARC
  5
13B8C
  8
0
 10
3515.3027191856281206
 20
155.8383352338601924
 30
0.0
 40
0.030360471172651
 50
138.195778361663514
 51
237.4228917697718941
  0
ARC
  5
13B8D
  8
0
 10
3515.4136062613702052
 20
155.9888319841851114
 30
0.0
 40
0.2172392554404528
 50
234.1484674541949005
 51
259.1277276755452021
  0
ARC
  5
13B8E
  8
0
 10
3515.5292878446989562
 20
156.2869876373563045
 30
0.0
 40
0.5103584192678401
 50
245.3995449223353944
 51
257.8857904224892081
  0
ARC
  5
13B8F
  8
0
 10
3515.3542181064030956
 20
155.9156718111300108
 30
0.0
 40
0.0999725635431624
 50
218.7163814315152024
 51
248.0395711381106878
  0
LINE
  5
13B90
  8
0
 10
3515.3883332281639014
 20
155.7061376421177954
 30
0.0
 11
3515.3883337610400304
 21
155.7027330688563893
 31
0.0
  0
LINE
  5
13B91
  8
0
 10
3515.3883337610400304
 20
155.7027330688563893
 30
0.0
 11
3515.4533165636289596
 21
155.7027330688563893
 31
0.0
  0
LINE
  5
13B92
  8
0
 10
3515.5099926997390867
 20
155.8928043310563112
 30
0.0
 11
3515.4872623741748612
 21
155.8943034389641014
 31
0.0
  0
LINE
  5
13B93
  8
0
 10
3515.4872623741748612
 20
155.8943034389641014
 30
0.0
 11
3515.4758972113500022
 21
155.8825030423334965
 31
0.0
  0
LINE
  5
13B94
  8
0
 10
3515.4758972113500022
 20
155.8825030423334965
 30
0.0
 11
3515.487262374247166
 21
155.8693094431723978
 31
0.0
  0
LINE
  5
13B95
  8
0
 10
3515.487262374247166
 20
155.8693094431723978
 30
0.0
 11
3515.5099926997390867
 21
155.867851092956812
 31
0.0
  0
LINE
  5
13B96
  8
0
 10
3515.5099926997390867
 20
155.867851092956812
 30
0.0
 11
3515.5213578625671289
 21
155.8795464155745094
 31
0.0
  0
LINE
  5
13B97
  8
0
 10
3515.5213578625671289
 20
155.8795464155745094
 30
0.0
 11
3515.5099926998291267
 21
155.8928043310573912
 31
0.0
  0
LINE
  5
13B98
  8
0
 10
3515.5213578625848641
 20
155.7799191573948008
 30
0.0
 11
3515.5099926997390867
 21
155.7830303629563957
 31
0.0
  0
LINE
  5
13B99
  8
0
 10
3515.5099926997390867
 20
155.7830303629563957
 30
0.0
 11
3515.4872623742389806
 21
155.7844454418182067
 31
0.0
  0
LINE
  5
13B9A
  8
0
 10
3515.4872623742389806
 20
155.7844454418182067
 30
0.0
 11
3515.4758972114250355
 21
155.7827710100916931
 31
0.0
  0
LINE
  5
13B9B
  8
0
 10
3515.4758972114250355
 20
155.7827710100916931
 30
0.0
 11
3515.4872623742389806
 21
155.7796961052191875
 31
0.0
  0
LINE
  5
13B9C
  8
0
 10
3515.4872623742389806
 20
155.7796961052191875
 30
0.0
 11
3515.5099927001951983
 21
155.778259087636286
 31
0.0
  0
LINE
  5
13B9D
  8
0
 10
3515.5099927001951983
 20
155.778259087636286
 30
0.0
 11
3515.5213578625848641
 21
155.7799191573948008
 31
0.0
  0
LINE
  5
13B9E
  8
0
 10
3515.5099926996990689
 20
155.8523876851600107
 30
0.0
 11
3515.4872623742389806
 21
155.8538247028591002
 31
0.0
  0
LINE
  5
13B9F
  8
0
 10
3515.4872623742389806
 20
155.8538247028591002
 30
0.0
 11
3515.4758972114000244
 21
155.8447297598515036
 31
0.0
  0
LINE
  5
13BA0
  8
0
 10
3515.4758972114000244
 20
155.8447297598515036
 30
0.0
 11
3515.4857281746849367
 21
155.8343427343795895
 31
0.0
  0
LINE
  5
13BA1
  8
0
 10
3515.4857281746849367
 20
155.8343427343795895
 30
0.0
 11
3515.5084585001768573
 21
155.83288438416389
 31
0.0
  0
LINE
  5
13BA2
  8
0
 10
3515.5084585001768573
 20
155.83288438416389
 30
0.0
 11
3515.5213578625689479
 21
155.8418779070863138
 31
0.0
  0
LINE
  5
13BA3
  8
0
 10
3515.5213578625689479
 20
155.8418779070863138
 30
0.0
 11
3515.5099926997891089
 21
155.8523876851610055
 31
0.0
  0
LINE
  5
13BA4
  8
0
 10
3515.4762968787290447
 20
155.8739455182941924
 30
0.0
 11
3515.4538557546097763
 21
155.8768621860768064
 31
0.0
  0
LINE
  5
13BA5
  8
0
 10
3515.4538557546097763
 20
155.8768621860768064
 30
0.0
 11
3515.4424905918331206
 21
155.8671481057625101
 31
0.0
  0
LINE
  5
13BA6
  8
0
 10
3515.4424905918331206
 20
155.8671481057625101
 30
0.0
 11
3515.4540631630770804
 21
155.85452821651009
 31
0.0
  0
LINE
  5
13BA7
  8
0
 10
3515.4540631630770804
 20
155.85452821651009
 30
0.0
 11
3515.476586084615974
 21
155.8516738466117886
 31
0.0
  0
LINE
  5
13BA8
  8
0
 10
3515.476586084615974
 20
155.8516738466117886
 30
0.0
 11
3515.4879512429738497
 21
155.8613160263390967
 31
0.0
  0
LINE
  5
13BA9
  8
0
 10
3515.4879512429738497
 20
155.8613160263390967
 30
0.0
 11
3515.4762968788190847
 21
155.8739455182951872
 31
0.0
  0
LINE
  5
13BAA
  8
0
 10
3515.4765860845200223
 20
155.9163058388398895
 30
0.0
 11
3515.469078475383867
 21
155.9168009798439982
 31
0.0
  0
LINE
  5
13BAB
  8
0
 10
3515.4513766126419796
 20
155.9152308604589052
 30
0.0
 11
3515.4424905961300283
 21
155.9060045501171032
 31
0.0
  0
LINE
  5
13BAC
  8
0
 10
3515.4424905961300283
 20
155.9060045501171032
 30
0.0
 11
3515.4538557590271921
 21
155.8928109509558908
 31
0.0
  0
LINE
  5
13BAD
  8
0
 10
3515.4538557590271921
 20
155.8928109509558908
 30
0.0
 11
3515.4765860845200223
 21
155.891352600740305
 31
0.0
  0
LINE
  5
13BAE
  8
0
 10
3515.4765860845200223
 20
155.891352600740305
 30
0.0
 11
3515.487951247347155
 21
155.9030479233580877
 31
0.0
  0
LINE
  5
13BAF
  8
0
 10
3515.487951247347155
 20
155.9030479233580877
 30
0.0
 11
3515.4765860846091527
 21
155.9163058388409127
 31
0.0
  0
LINE
  5
13BB0
  8
0
 10
3515.4431794650859047
 20
155.8999626135054086
 30
0.0
 11
3515.4204491350237731
 21
155.9047517031546022
 31
0.0
  0
LINE
  5
13BB1
  8
0
 10
3515.4204491350237731
 20
155.9047517031546022
 30
0.0
 11
3515.4090839722430246
 21
155.8943387700250867
 31
0.0
  0
LINE
  5
13BB2
  8
0
 10
3515.4090839722430246
 20
155.8943387700250867
 30
0.0
 11
3515.4204491350651551
 21
155.8794663628044077
 31
0.0
  0
LINE
  5
13BB3
  8
0
 10
3515.4204491350651551
 20
155.8794663628044077
 30
0.0
 11
3515.4431794650859047
 21
155.8750093754057957
 31
0.0
  0
LINE
  5
13BB4
  8
0
 10
3515.4431794650859047
 20
155.8750093754057957
 30
0.0
 11
3515.4545446233319126
 21
155.8852977601999044
 31
0.0
  0
LINE
  5
13BB5
  8
0
 10
3515.4545446233319126
 20
155.8852977601999044
 30
0.0
 11
3515.4431794651759446
 21
155.8999626135064034
 31
0.0
  0
LINE
  5
13BB6
  8
0
 10
3515.4097728409128649
 20
155.8855458877187914
 30
0.0
 11
3515.3870425154400436
 21
155.8916132007846045
 31
0.0
  0
LINE
  5
13BB7
  8
0
 10
3515.3870425154400436
 20
155.8916132007846045
 30
0.0
 11
3515.3756773526602046
 21
155.8832980360544127
 31
0.0
  0
LINE
  5
13BB8
  8
0
 10
3515.3756773526602046
 20
155.8832980360544127
 30
0.0
 11
3515.3870425155050725
 21
155.8689851682343885
 31
0.0
  0
LINE
  5
13BB9
  8
0
 10
3515.3870425155050725
 20
155.8689851682343885
 30
0.0
 11
3515.4097728454671596
 21
155.8630539612306052
 31
0.0
  0
LINE
  5
13BBA
  8
0
 10
3515.4097728454671596
 20
155.8630539612306052
 30
0.0
 11
3515.4211380037818344
 21
155.8713010603750888
 31
0.0
  0
LINE
  5
13BBB
  8
0
 10
3515.4211380037818344
 20
155.8713010603750888
 30
0.0
 11
3515.4097728410019954
 21
155.8855458877197862
 31
0.0
  0
LINE
  5
13BBC
  8
0
 10
3515.4431794605488903
 20
155.8594400014767984
 30
0.0
 11
3515.4204491350387798
 21
155.8638293821960872
 31
0.0
  0
LINE
  5
13BBD
  8
0
 10
3515.4204491350387798
 20
155.8638293821960872
 30
0.0
 11
3515.409083972217104
 21
155.8561330651403978
 31
0.0
  0
LINE
  5
13BBE
  8
0
 10
3515.409083972217104
 20
155.8561330651403978
 30
0.0
 11
3515.421028156310058
 21
155.8439598863041056
 31
0.0
  0
LINE
  5
13BBF
  8
0
 10
3515.421028156310058
 20
155.8439598863041056
 30
0.0
 11
3515.443179465115918
 21
155.8397626617691003
 31
0.0
  0
LINE
  5
13BC0
  8
0
 10
3515.443179465115918
 20
155.8397626617691003
 30
0.0
 11
3515.4545446234160408
 21
155.8474242696227918
 31
0.0
  0
LINE
  5
13BC1
  8
0
 10
3515.4545446234160408
 20
155.8474242696227918
 30
0.0
 11
3515.4431794606389303
 21
155.8594400014777932
 31
0.0
  0
LINE
  5
13BC2
  8
0
 10
3515.3763662213750649
 20
155.8753756568657991
 30
0.0
 11
3515.3536358958390338
 21
155.8829752799331061
 31
0.0
  0
LINE
  5
13BC3
  8
0
 10
3515.3536358958390338
 20
155.8829752799331061
 30
0.0
 11
3515.3422707331242236
 21
155.8767400485457983
 31
0.0
  0
LINE
  5
13BC4
  8
0
 10
3515.3422707331242236
 20
155.8767400485457983
 30
0.0
 11
3515.3536358958390338
 21
155.8629102542097939
 31
0.0
  0
LINE
  5
13BC5
  8
0
 10
3515.3536358958390338
 20
155.8629102542097939
 30
0.0
 11
3515.376366225916172
 21
155.8554400853691106
 31
0.0
  0
LINE
  5
13BC6
  8
0
 10
3515.376366225916172
 20
155.8554400853691106
 30
0.0
 11
3515.3877313842390322
 21
155.8616703805564043
 31
0.0
  0
LINE
  5
13BC7
  8
0
 10
3515.3877313842390322
 20
155.8616703805564043
 30
0.0
 11
3515.3763662214641954
 21
155.8753756568667939
 31
0.0
  0
LINE
  5
13BC8
  8
0
 10
3515.3429596018218035
 20
155.8696591638162943
 30
0.0
 11
3515.3202292807518461
 21
155.878697517176505
 31
0.0
  0
LINE
  5
13BC9
  8
0
 10
3515.3202292807518461
 20
155.878697517176505
 30
0.0
 11
3515.3088641135118451
 21
155.8747800145337123
 31
0.0
  0
LINE
  5
13BCA
  8
0
 10
3515.3088641135118451
 20
155.8747800145337123
 30
0.0
 11
3515.3202292762580328
 21
155.8613672843113136
 31
0.0
  0
LINE
  5
13BCB
  8
0
 10
3515.3202292762580328
 20
155.8613672843113136
 30
0.0
 11
3515.3429596063169811
 21
155.8522451711691019
 31
0.0
  0
LINE
  5
13BCC
  8
0
 10
3515.3429596063169811
 20
155.8522451711691019
 30
0.0
 11
3515.3543247646898635
 21
155.8564256101194871
 31
0.0
  0
LINE
  5
13BCD
  8
0
 10
3515.3543247646898635
 20
155.8564256101194871
 30
0.0
 11
3515.3429596019118435
 21
155.8696591638174027
 31
0.0
  0
LINE
  5
13BCE
  8
0
 10
3515.3202292763407968
 20
155.8510337444041909
 30
0.0
 11
3515.3088641135791477
 21
155.8495610991012938
 31
0.0
  0
LINE
  5
13BCF
  8
0
 10
3515.3088641135791477
 20
155.8495610991012938
 30
0.0
 11
3515.3202292762471188
 21
155.8388638966933115
 31
0.0
  0
LINE
  5
13BD0
  8
0
 10
3515.3202292762471188
 20
155.8388638966933115
 30
0.0
 11
3515.3346834176081757
 21
155.8329466669156886
 31
0.0
  0
LINE
  5
13BD1
  8
0
 10
3515.3346834176081757
 20
155.8329466669156886
 30
0.0
 11
3515.34295960187319
 21
155.8373803828741018
 31
0.0
  0
LINE
  5
13BD2
  8
0
 10
3515.34295960187319
 20
155.8373803828741018
 30
0.0
 11
3515.3429837473649968
 21
155.8491733903786951
 31
0.0
  0
LINE
  5
13BD3
  8
0
 10
3515.3429837473649968
 20
155.8491733903786951
 30
0.0
 11
3515.334683417593169
 21
155.8451165147262998
 31
0.0
  0
LINE
  5
13BD4
  8
0
 10
3515.334683417593169
 20
155.8451165147262998
 30
0.0
 11
3515.320229276297141
 21
155.8510337444230913
 31
0.0
  0
LINE
  5
13BD5
  8
0
 10
3515.3088641137128434
 20
155.8334741812788877
 30
0.0
 11
3515.3202292762939578
 21
155.8322312988595968
 31
0.0
  0
LINE
  5
13BD6
  8
0
 10
3515.3202292762939578
 20
155.8322312988595968
 30
0.0
 11
3515.3429596018390839
 21
155.8231091860963033
 31
0.0
  0
LINE
  5
13BD7
  8
0
 10
3515.3429596018390839
 20
155.8231091860963033
 30
0.0
 11
3515.3536915198537827
 21
155.8155378881214972
 31
0.0
  0
LINE
  5
13BD8
  8
0
 10
3515.3536915198537827
 20
155.8155378881214972
 30
0.0
 11
3515.3429596018481789
 21
155.8161834827101018
 31
0.0
  0
LINE
  5
13BD9
  8
0
 10
3515.3429596018481789
 20
155.8161834827101018
 30
0.0
 11
3515.3202292763571677
 21
155.8254138576446906
 31
0.0
  0
LINE
  5
13BDA
  8
0
 10
3515.3202292763571677
 20
155.8254138576446906
 30
0.0
 11
3515.3088641135141188
 21
155.8334741813110895
 31
0.0
  0
LINE
  5
13BDB
  8
0
 10
3515.3422707331387755
 20
155.8147812987562872
 30
0.0
 11
3515.3536358958390338
 21
155.8131213522248117
 31
0.0
  0
LINE
  5
13BDC
  8
0
 10
3515.3536358958390338
 20
155.8131213522248117
 30
0.0
 11
3515.3763662214278156
 21
155.8056511837075107
 31
0.0
  0
LINE
  5
13BDD
  8
0
 10
3515.3763662214278156
 20
155.8056511837075107
 30
0.0
 11
3515.3870885321398418
 21
155.8000187265062948
 31
0.0
  0
LINE
  5
13BDE
  8
0
 10
3515.3870885321398418
 20
155.8000187265062948
 30
0.0
 11
3515.3763662214400938
 21
155.8012470592562977
 31
0.0
  0
LINE
  5
13BDF
  8
0
 10
3515.3763662214400938
 20
155.8012470592562977
 30
0.0
 11
3515.3536358961728183
 21
155.8088466820962879
 31
0.0
  0
LINE
  5
13BE0
  8
0
 10
3515.3536358961728183
 20
155.8088466820962879
 30
0.0
 11
3515.342270733237001
 21
155.8147812987421048
 31
0.0
  0
LINE
  5
13BE1
  8
0
 10
3515.3828098997391862
 20
155.8039467101563105
 30
0.0
 11
3515.4142519943129628
 21
155.7959313480714911
 31
0.0
  0
LINE
  5
13BE2
  8
0
 10
3515.4142519943129628
 20
155.7959313480714911
 30
0.0
 11
3515.4097728410388299
 21
155.795788860425688
 31
0.0
  0
LINE
  5
13BE3
  8
0
 10
3515.4097728410388299
 20
155.795788860425688
 30
0.0
 11
3515.3870425154400436
 21
155.8016524621563974
 31
0.0
  0
LINE
  5
13BE4
  8
0
 10
3515.3870425154400436
 20
155.8016524621563974
 30
0.0
 11
3515.3830564373402012
 21
155.8038068705562864
 31
0.0
  0
LINE
  5
13BE5
  8
0
 10
3515.4204491350519675
 20
155.7942937281673039
 30
0.0
 11
3515.4090839722571218
 21
155.7941743153087089
 31
0.0
  0
LINE
  5
13BE6
  8
0
 10
3515.4090839722571218
 20
155.7941743153087089
 30
0.0
 11
3515.4204491350387798
 21
155.7897007845564019
 31
0.0
  0
LINE
  5
13BE7
  8
0
 10
3515.4204491350387798
 20
155.7897007845564019
 30
0.0
 11
3515.4431794605839059
 21
155.785311403930109
 31
0.0
  0
LINE
  5
13BE8
  8
0
 10
3515.4431794605839059
 20
155.785311403930109
 30
0.0
 11
3515.4545446233350958
 21
155.7854655198410967
 31
0.0
  0
LINE
  5
13BE9
  8
0
 10
3515.4545446233350958
 20
155.7854655198410967
 30
0.0
 11
3515.4431794606389303
 21
155.7899737600340018
 31
0.0
  0
LINE
  5
13BEA
  8
0
 10
3515.4431794606389303
 20
155.7899737600340018
 30
0.0
 11
3515.4204491350519675
 21
155.7942937281673039
 31
0.0
  0
LINE
  5
13BEB
  8
0
 10
3515.4810652335199848
 20
155.785287197871213
 30
0.0
 11
3515.4493766013601999
 21
155.7892571280368941
 31
0.0
  0
LINE
  5
13BEC
  8
0
 10
3515.4493766013601999
 20
155.7892571280368941
 30
0.0
 11
3515.4538557546388802
 21
155.7873879037564109
 31
0.0
  0
LINE
  5
13BED
  8
0
 10
3515.4538557546388802
 20
155.7873879037564109
 30
0.0
 11
3515.4763381393890995
 21
155.7845601888064095
 31
0.0
  0
LINE
  5
13BEE
  8
0
 10
3515.4763381393890995
 20
155.7845601888064095
 30
0.0
 11
3515.4810652335199848
 21
155.785287197871213
 31
0.0
  0
LINE
  5
13BEF
  8
0
 10
3515.4810652334999759
 20
155.8339665891060974
 30
0.0
 11
3515.4765860801890085
 21
155.8380095142589141
 31
0.0
  0
LINE
  5
13BF0
  8
0
 10
3515.4765860801890085
 20
155.8380095142589141
 30
0.0
 11
3515.4538557546270567
 21
155.8408635847054029
 31
0.0
  0
LINE
  5
13BF1
  8
0
 10
3515.4538557546270567
 20
155.8408635847054029
 30
0.0
 11
3515.4493766013879394
 21
155.8379365191987063
 31
0.0
  0
LINE
  5
13BF2
  8
0
 10
3515.4493766013879394
 20
155.8379365191987063
 30
0.0
 11
3515.4810652331671008
 21
155.8339665894067139
 31
0.0
  0
LINE
  5
13BF3
  8
0
 10
3515.4142519943070511
 20
155.8446107393230022
 30
0.0
 11
3515.4097728410338277
 21
155.8492645415211086
 31
0.0
  0
LINE
  5
13BF4
  8
0
 10
3515.4097728410338277
 20
155.8492645415211086
 30
0.0
 11
3515.3870425154759687
 21
155.8551281431653024
 31
0.0
  0
LINE
  5
13BF5
  8
0
 10
3515.3870425154759687
 20
155.8551281431653024
 30
0.0
 11
3515.3825633621768247
 21
155.8527659410758872
 31
0.0
  0
LINE
  5
13BF6
  8
0
 10
3515.3825633621768247
 20
155.8527659410758872
 30
0.0
 11
3515.4142519881279441
 21
155.8446107457425001
 31
0.0
  0
LINE
  5
13BF7
  8
0
 10
3515.3548688022387978
 20
155.8448764066880869
 30
0.0
 11
3515.3548688022387978
 21
155.8205367110880957
 31
0.0
  0
ARC
  5
13BF8
  8
0
 10
3515.5320341565388844
 20
156.8406905601536039
 30
0.0
 40
1.1504402405834939
 50
253.3988149531759007
 51
286.6011850468241278
  0
ARC
  5
13BF9
  8
0
 10
3515.5320341565388844
 20
156.5585969934278978
 30
0.0
 40
0.8041355252424297
 50
256.5158271371329874
 51
283.4841728628670126
  0
ARC
  5
13BFA
  8
0
 10
3515.5320341565388844
 20
156.5192873593761078
 30
0.0
 40
0.7606844447800781
 50
257.9038493336080933
 51
282.096150666366384
  0
ARC
  5
13BFB
  8
0
 10
3515.5320341565388844
 20
156.2833249731388037
 30
0.0
 40
0.5073654177383009
 50
257.4957559552757971
 51
282.5042440447242029
  0
ARC
  5
13BFC
  8
0
 10
3515.5320341565388844
 20
156.3564313320563883
 30
0.0
 40
0.5413649457000016
 50
250.8976418808526034
 51
289.1023581191474818
  0
ARC
  5
13BFD
  8
0
 10
3515.5320341565388844
 20
156.3377211429080944
 30
0.0
 40
0.5466875700811098
 50
251.0907245270136059
 51
288.9092754729865078
  0
ARC
  5
13BFE
  8
0
 10
3515.5320341565388844
 20
155.106452767874714
 30
0.0
 40
0.8127900358835802
 50
83.0949632465619743
 51
96.9050367534380257
  0
ARC
  5
13BFF
  8
0
 10
3515.5320341565388844
 20
155.0897667859551063
 30
0.0
 40
0.9756891836567643
 50
82.1551682453985848
 51
97.844831754601401
  0
ARC
  5
13C00
  8
0
 10
3515.5320341565388844
 20
154.4229414115143015
 30
0.0
 40
1.662359660142037
 50
83.187134430450584
 51
96.812865569549416
  0
ARC
  5
13C01
  8
0
 10
3515.5320319895308785
 20
156.649618788919696
 30
0.0
 40
0.9555681214841429
 50
260.5143520979909795
 51
261.3510369231751724
  0
ARC
  5
13C02
  8
0
 10
3515.5320319895308785
 20
156.649618788919696
 30
0.0
 40
0.9555681214841429
 50
262.2704160043317074
 51
277.7295839956682926
  0
ARC
  5
13C03
  8
0
 10
3515.5320319895308785
 20
156.649618788919696
 30
0.0
 40
0.9555681214841429
 50
278.6492259395802762
 51
279.4859114333532943
  0
ARC
  5
13C04
  8
0
 10
3515.5320292818510097
 20
157.8270014931125047
 30
0.0
 40
2.1257262359724649
 50
265.7515925515273807
 51
274.2486709798142215
  0
ARC
  5
13C05
  8
0
 10
3515.5320341565388844
 20
155.4508192880606998
 30
0.0
 40
1.371680671921691
 50
76.4565481828913818
 51
103.543451817108604
  0
ARC
  5
13C06
  8
0
 10
3519.5320282666889398
 20
156.2549102184563878
 30
0.0
 40
1.3779527558999991
 50
312.9255979998653174
 51
227.074402000134711
  0
ARC
  5
13C07
  8
0
 10
3443.4367035154268706
 20
156.8990768758646936
 30
0.0
 40
77.0515132912421876
 50
358.5559806385944057
 51
359.236298518005583
  0
ARC
  5
13C08
  8
0
 10
3600.6372171177167729
 20
152.9056491879578914
 30
0.0
 40
80.1997183265758906
 50
178.5340686652259024
 51
179.2340103557056068
  0
ARC
  5
13C09
  8
0
 10
3519.5668958000837847
 20
153.9845368039864013
 30
0.0
 40
0.8777957534278543
 50
334.8880632548102767
 51
359.5609605288539115
  0
ARC
  5
13C0A
  8
0
 10
3519.5320282666889398
 20
156.2549102184563878
 30
0.0
 40
0.9654332412500004
 50
356.8572528494281073
 51
183.1427471509489067
  0
ARC
  5
13C0B
  8
0
 10
3519.5320282666889398
 20
156.2549102184563878
 30
0.0
 40
0.9744153386500009
 50
349.6347534872548977
 51
190.3652465127769915
  0
ARC
  5
13C0C
  8
0
 10
3189.556238572698021
 20
170.9249365672770864
 30
0.0
 40
331.2671088615400095
 50
357.3955780666984765
 51
357.4526865894530943
  0
ARC
  5
13C0D
  8
0
 10
3519.5320282666889398
 20
156.2549102184563878
 30
0.0
 40
0.9842578583500012
 50
346.1983490187010943
 51
193.8016509813178914
  0
ARC
  5
13C0E
  8
0
 10
3595.627353017951009
 20
156.8990768758646936
 30
0.0
 40
77.0515132912421876
 50
180.7637014819943033
 51
181.444019361405708
  0
ARC
  5
13C0F
  8
0
 10
3438.4268394156629256
 20
152.9056491879578914
 30
0.0
 40
80.1997183265758906
 50
0.765989644294428
 51
1.465931334774131
  0
ARC
  5
13C10
  8
0
 10
3519.4971607332940948
 20
153.9845368039864013
 30
0.0
 40
0.8777957534278543
 50
180.4390394711460033
 51
205.1119367451896096
  0
ARC
  5
13C11
  8
0
 10
3849.5078179606812228
 20
170.9249365672770864
 30
0.0
 40
331.2671088615400095
 50
182.5473134105469057
 51
182.6044219333014098
  0
ARC
  5
13C12
  8
0
 10
3519.5320282666889398
 20
154.0040824035671108
 30
0.0
 40
0.9176671258172321
 50
205.2930518910858098
 51
334.7069481089142187
  0
ENDSEC
  0
EOF
