  0
SECTION
  2
HEADER
  9
$ACADVER
  1
AC1009
  9
$INSBASE
 10
982.6194107525083155
 20
136.7222801242704122
 30
0.0
  9
$EXTMIN
 10
978.014392693713944
 20
136.7136354040729032
 30
-0.0000000000112498
  9
$EXTMAX
 10
983.6540994184473448
 20
142.2519612664108877
 30
0.0000000000002956
  9
$LIMMIN
 10
0.0
 20
0.0
  9
$LIMMAX
 10
11.6929133858000007
 20
8.2677165353999982
  9
$ORTHOMODE
 70
     0
  9
$REGENMODE
 70
     1
  9
$FILLMODE
 70
     1
  9
$QTEXTMODE
 70
     0
  9
$MIRRTEXT
 70
     0
  9
$DRAGMODE
 70
     2
  9
$LTSCALE
 40
0.6431102362
  9
$OSMODE
 70
  4095
  9
$ATTMODE
 70
     1
  9
$TEXTSIZE
 40
0.2
  9
$TRACEWID
 40
0.05
  9
$TEXTSTYLE
  7
STANDARD
  9
$CLAYER
  8
0
  9
$CELTYPE
  6
BYLAYER
  9
$CECOLOR
 62
   256
  9
$DIMSCALE
 40
1.0
  9
$DIMASZ
 40
0.1875
  9
$DIMEXO
 40
0.0625
  9
$DIMDLI
 40
0.4443307087
  9
$DIMRND
 40
0.0
  9
$DIMDLE
 40
0.0
  9
$DIMEXE
 40
0.125
  9
$DIMTP
 40
0.01
  9
$DIMTM
 40
0.01
  9
$DIMTXT
 40
1.0
  9
$DIMCEN
 40
0.1052362205
  9
$DIMTSZ
 40
0.0
  9
$DIMTOL
 70
     1
  9
$DIMLIM
 70
     0
  9
$DIMTIH
 70
     0
  9
$DIMTOH
 70
     1
  9
$DIMSE1
 70
     0
  9
$DIMSE2
 70
     0
  9
$DIMTAD
 70
     0
  9
$DIMZIN
 70
     0
  9
$DIMBLK
  1

  9
$DIMASO
 70
     1
  9
$DIMSHO
 70
     1
  9
$DIMPOST
  1
\X
  9
$DIMAPOST
  1

  9
$DIMALT
 70
     1
  9
$DIMALTD
 70
     2
  9
$DIMALTF
 40
25.3999999999999986
  9
$DIMLFAC
 40
1.0
  9
$DIMTOFL
 70
     0
  9
$DIMTVP
 40
0.0
  9
$DIMTIX
 70
     0
  9
$DIMSOXD
 70
     0
  9
$DIMSAH
 70
     0
  9
$DIMBLK1
  1

  9
$DIMBLK2
  1

  9
$DIMSTYLE
  2
STANDARD
  9
$DIMCLRD
 70
     0
  9
$DIMCLRE
 70
     0
  9
$DIMCLRT
 70
     0
  9
$DIMTFAC
 40
1.0
  9
$DIMGAP
 40
0.09
  9
$LUNITS
 70
     2
  9
$LUPREC
 70
     4
  9
$SKETCHINC
 40
0.1
  9
$FILLETRAD
 40
0.0
  9
$AUNITS
 70
     0
  9
$AUPREC
 70
     0
  9
$MENU
  1
.
  9
$ELEVATION
 40
0.0
  9
$PELEVATION
 40
0.0
  9
$THICKNESS
 40
0.0
  9
$LIMCHECK
 70
     0
  9
$BLIPMODE
 70
     0
  9
$CHAMFERA
 40
0.0
  9
$CHAMFERB
 40
0.0
  9
$SKPOLY
 70
     0
  9
$TDCREATE
 40
2458172.5207638889551163
  9
$TDUPDATE
 40
2459195.6556365741416812
  9
$TDINDWG
 40
0.4487159954
  9
$TDUSRTIMER
 40
0.4487159954
  9
$USRTIMER
 70
     1
  9
$ANGBASE
 50
0.0
  9
$ANGDIR
 70
     0
  9
$PDMODE
 70
     0
  9
$PDSIZE
 40
0.3125
  9
$PLINEWID
 40
0.0
  9
$COORDS
 70
     1
  9
$SPLFRAME
 70
     0
  9
$SPLINETYPE
 70
     6
  9
$SPLINESEGS
 70
     8
  9
$ATTDIA
 70
     1
  9
$ATTREQ
 70
     1
  9
$HANDLING
 70
     1
  9
$HANDSEED
  5
C4F9
  9
$SURFTAB1
 70
     6
  9
$SURFTAB2
 70
     6
  9
$SURFTYPE
 70
     6
  9
$SURFU
 70
     6
  9
$SURFV
 70
     6
  9
$UCSNAME
  2

  9
$UCSORG
 10
0.0
 20
0.0
 30
0.0
  9
$UCSXDIR
 10
1.0
 20
0.0
 30
0.0
  9
$UCSYDIR
 10
0.0
 20
1.0
 30
0.0
  9
$PUCSNAME
  2

  9
$PUCSORG
 10
0.0
 20
0.0
 30
0.0
  9
$PUCSXDIR
 10
1.0
 20
0.0
 30
0.0
  9
$PUCSYDIR
 10
0.0
 20
1.0
 30
0.0
  9
$USERI1
 70
     0
  9
$USERI2
 70
     0
  9
$USERI3
 70
     0
  9
$USERI4
 70
     0
  9
$USERI5
 70
     0
  9
$USERR1
 40
0.0
  9
$USERR2
 40
0.0
  9
$USERR3
 40
0.0
  9
$USERR4
 40
0.0
  9
$USERR5
 40
0.0
  9
$WORLDVIEW
 70
     1
  9
$SHADEDGE
 70
     3
  9
$SHADEDIF
 70
    70
  9
$TILEMODE
 70
     1
  9
$MAXACTVP
 70
    64
  9
$PLIMCHECK
 70
     0
  9
$PEXTMIN
 10
1.0000000000000000E+20
 20
1.0000000000000000E+20
 30
1.0000000000000000E+20
  9
$PEXTMAX
 10
-1.0000000000000000E+20
 20
-1.0000000000000000E+20
 30
-1.0000000000000000E+20
  9
$PLIMMIN
 10
0.0
 20
0.0
  9
$PLIMMAX
 10
12.0
 20
9.0
  9
$UNITMODE
 70
     0
  9
$VISRETAIN
 70
     1
  9
$PLINEGEN
 70
     0
  9
$PSLTSCALE
 70
     1
  0
ENDSEC
  0
SECTION
  2
TABLES
  0
TABLE
  2
VPORT
 70
     1
  0
VPORT
  2
*ACTIVE
 70
     0
 10
0.0
 20
0.0
 11
1.0
 21
1.0
 12
514.0920443482506244
 22
50.34965121531215
 13
0.0
 23
0.0
 14
1.0
 24
1.0
 15
0.0
 25
0.0
 16
0.0
 26
0.0
 36
24.1179433675886514
 17
466.74220170783002
 27
89.133147119929788
 37
0.0
 40
5.6088777841512316
 41
2.887234042553191
 42
50.0
 43
0.0
 44
0.0
 50
0.0
 51
0.0
 71
     0
 72
   100
 73
     1
 74
     1
 75
     0
 76
     0
 77
     0
 78
     0
  0
ENDTAB
  0
TABLE
  2
LTYPE
 70
     2
  0
LTYPE
  2
CONTINUOUS
 70
     0
  3
Solid line
 72
    65
 73
     0
 40
0.0
  0
LTYPE
  2
PHANTOM2
 70
     0
  3
___ _ _ ___ _ _ ___ _ _ ___ _ _
 72
    65
 73
     6
 40
1.25
 49
0.625
 49
-0.125
 49
0.125
 49
-0.125
 49
0.125
 49
-0.125
  0
ENDTAB
  0
TABLE
  2
LAYER
 70
     2
  0
LAYER
  2
0
 70
     0
 62
   255
  6
CONTINUOUS
  0
LAYER
  2
DEFPOINTS
 70
     0
 62
     7
  6
CONTINUOUS
  0
ENDTAB
  0
TABLE
  2
STYLE
 70
     1
  0
STYLE
  2
STANDARD
 70
     0
 40
0.0
 41
0.8
 50
0.0
 71
     0
 42
0.2
  3
txt
  4

  0
ENDTAB
  0
TABLE
  2
VIEW
 70
     0
  0
ENDTAB
  0
TABLE
  2
UCS
 70
     0
  0
ENDTAB
  0
TABLE
  2
APPID
 70
    11
  0
APPID
  2
ACAD
 70
     0
  0
APPID
  2
ACAD_MLEADERVER
 70
     0
  0
APPID
  2
ACAD_EXEMPT_FROM_CAD_STANDARDS
 70
     0
  0
APPID
  2
ACAD_DSTYLE_DIMJAG
 70
     0
  0
APPID
  2
ACAD_DSTYLE_DIMTALN
 70
     0
  0
APPID
  2
ACAD_NAV_VCDISPLAY
 70
     0
  0
APPID
  2
ACAECLAYERSTANDARD
 70
     0
  0
APPID
  2
ACCMTRANSPARENCY
 70
     0
  0
APPID
  2
DCO15
 70
     0
  0
APPID
  2
ACDBATTR
 70
     0
  0
APPID
  2
ACADANNOTATIVE
 70
     0
  0
ENDTAB
  0
TABLE
  2
DIMSTYLE
 70
     1
  0
DIMSTYLE
  2
STANDARD
 70
     0
  3

  4

  5

  6

  7

 40
1.0
 41
0.1875
 42
0.0625
 43
0.38
 44
0.125
 45
0.0
 46
0.0
 47
0.01
 48
0.01
140
0.15625
141
0.09
142
0.0
143
25.3999999999999986
144
1.0
145
0.0
146
1.0
147
0.09
 71
     1
 72
     0
 73
     1
 74
     1
 75
     0
 76
     0
 77
     0
 78
     4
170
     0
171
     2
172
     0
173
     0
174
     0
175
     0
176
     0
177
     0
178
     0
  0
ENDTAB
  0
ENDSEC
  0
SECTION
  2
BLOCKS
  0
BLOCK
  8
0
  2
$MODEL_SPACE
 70
     0
 10
0.0
 20
0.0
 30
0.0
  3
$MODEL_SPACE
  1

  0
ENDBLK
  5
21
  8
0
  0
BLOCK
 67
     1
  8
0
  2
$PAPER_SPACE
 70
     0
 10
0.0
 20
0.0
 30
0.0
  3
$PAPER_SPACE
  1

  0
ENDBLK
  5
1D
 67
     1
  8
0
  0
ENDSEC
  0
SECTION
  2
ENTITIES
  0
ATTDEF
  5
829
  8
DEFPOINTS
 10
982.6155586558334107
 20
136.7264912499641127
 30
0.0
 40
0.001
  1
K-99452IN-4
  3

  2
MODELNUMBER
 70
     0
1001
ACDBATTR
1070
     0
1070
     1
  0
ATTDEF
  5
82A
  8
DEFPOINTS
 10
982.6155586558334107
 20
136.7248245832973907
 30
0.0
 40
0.001
  1
 KUMIN
  3

  2
TRADENAME
 70
     0
1001
ACDBATTR
1070
     0
1070
     1
  0
ATTDEF
  5
82B
  8
DEFPOINTS
 10
982.6155586558334107
 20
136.7231579166308109
 30
0.0
 40
0.001
  1
BATHROOM SINK FAUCET
  3

  2
PRODUCT
 70
     0
1001
ACDBATTR
1070
     0
1070
     1
  0
LINE
  5
C2DC
  8
0
 10
983.3083485850584111
 20
136.8404269132149125
 30
0.0
 11
983.3082206372559995
 21
140.1054286927729891
 31
0.0
  0
LINE
  5
C2DD
  8
0
 10
981.9303963084751103
 20
136.8404269132149125
 30
0.0
 11
981.9302678813561442
 21
138.8617250757382067
 31
0.0
  0
LINE
  5
C2DE
  8
0
 10
978.8359844984245228
 20
140.5976661497093119
 30
0.0
 11
981.5021102623412617
 21
140.5976661497093119
 31
0.0
  0
LINE
  5
C2DF
  8
0
 10
979.1689915825561457
 20
139.6256761430362872
 30
0.0
 11
981.4543697579564423
 21
139.5830879708202872
 31
0.0
  0
ARC
  5
C2E0
  8
0
 10
978.9115153341625728
 20
139.4876808553802903
 30
0.0
 40
1.112552138451866
 50
93.8927877626962868
 51
113.4685911853515989
  0
ARC
  5
C2E1
  8
0
 10
978.9588778210348892
 20
139.5964506917499079
 30
0.0
 40
1.035283771465233
 50
118.2758923700000935
 51
148.0336466109598916
  0
ARC
  5
C2E2
  8
0
 10
978.1052626262630838
 20
140.124794101434901
 30
0.0
 40
0.0316122572338689
 50
141.3176583087889071
 51
218.6704092985222871
  0
ARC
  5
C2E3
  8
0
 10
979.4419542782732151
 20
140.9908612599620881
 30
0.0
 40
1.624196149280243
 50
213.0512939873111975
 51
222.6930362473298999
  0
ARC
  5
C2E4
  8
0
 10
978.0278639405772765
 20
137.9747137530916063
 30
0.0
 40
2.0069502007523981
 50
55.3481842295436621
 51
61.4249951568471673
  0
LINE
  5
C2E5
  8
0
 10
978.468272399895568
 20
139.8503420706391864
 30
0.0
 11
978.2481749591689777
 21
139.8895420198612101
 31
0.0
  0
ARC
  5
C2E6
  8
0
 10
980.6960528020205174
 20
154.9629348294083115
 30
0.0
 40
15.2759112792819902
 50
261.614297037581423
 51
262.6246152382370269
  0
ARC
  5
C2E7
  8
0
 10
978.6314255603738275
 20
139.0125368290318875
 30
0.0
 40
0.8075548277909598
 50
63.8126410166229618
 51
82.6246152382369843
  0
ARC
  5
C2E8
  8
0
 10
980.7165907924716066
 20
138.8698001675307125
 30
0.0
 40
1.2137039520371911
 50
359.6187932884164979
 51
16.3857053748326287
  0
ARC
  5
C2E9
  8
0
 10
981.311460065540814
 20
139.0447184587926017
 30
0.0
 40
0.5936508408766059
 50
16.3857053748326287
 51
53.774426234462851
  0
ARC
  5
C2EA
  8
0
 10
981.422647413319396
 20
139.0790129098051864
 30
0.0
 40
0.5050722466009886
 50
61.6753635572539167
 51
86.39902294913243
  0
LINE
  5
C2EB
  8
0
 10
982.0174373757595276
 20
141.246987310936305
 30
0.0
 11
983.2212695560556313
 21
141.246987310936305
 31
0.0
  0
LINE
  5
C2EC
  8
0
 10
982.0208717560560672
 20
141.2902943975362859
 30
0.0
 11
983.223769904556093
 21
141.2902943975362859
 31
0.0
  0
ARC
  5
C2ED
  8
0
 10
981.5027363494848487
 20
141.0776772938345118
 30
0.0
 40
0.4800115524333727
 50
269.9252681296429728
 51
286.2346560306805259
  0
ARC
  5
C2EE
  8
0
 10
981.5256498050754317
 20
140.9989863523360043
 30
0.0
 40
0.3980524728813866
 50
286.2346560306805259
 51
311.1523690930428074
  0
ARC
  5
C2EF
  8
0
 10
981.3448464938209099
 20
141.2058630669044135
 30
0.0
 40
0.6728029276420197
 50
311.1523690930428074
 51
1.438533034230957
  0
ARC
  5
C2F0
  8
0
 10
983.1617651861043896
 20
140.1079990294907134
 30
0.0
 40
0.146478004501905
 50
358.9945451966246992
 51
14.4180289304257503
  0
ARC
  5
C2F1
  8
0
 10
985.2647646024154255
 20
140.6486629254588934
 30
0.0
 40
2.0249095687810441
 50
183.5119968053919024
 51
194.4180289304256917
  0
ARC
  5
C2F2
  8
0
 10
1007.2332684991340557
 20
141.9969312989911998
 30
0.0
 40
24.0347480749407509
 50
182.6071044379640114
 51
183.5119968053919024
  0
ARC
  5
C2F3
  8
0
 10
998.5218073773291962
 20
141.1701722756293975
 30
0.0
 40
15.3007306417005609
 50
179.7123538792145894
 51
180.9980207698334027
  0
LINE
  5
C2F4
  8
0
 10
983.223769904556093
 20
141.2902943975362859
 30
0.0
 11
983.223769904556093
 21
142.0289384228956067
 31
0.0
  0
LINE
  5
C2F5
  8
0
 10
982.0208717560560672
 20
141.2902943975362859
 30
0.0
 11
982.0208717560560672
 21
141.4528908865702022
 31
0.0
  0
LINE
  5
C2F6
  8
0
 10
983.1408978025559691
 20
141.246987310936305
 30
0.0
 11
983.1408978025559691
 21
141.2902943975362859
 31
0.0
  0
LINE
  5
C2F7
  8
0
 10
982.0975907159562439
 20
141.246987310936305
 30
0.0
 11
982.0975907159562439
 21
141.2902943975362859
 31
0.0
  0
LINE
  5
C2F8
  8
0
 10
982.5028432481607297
 20
142.2415692608583129
 30
0.0
 11
980.9509473108303155
 21
142.2415692608583129
 31
0.0
  0
ARC
  5
C2F9
  8
0
 10
982.6565566107417453
 20
141.2804019605628127
 30
0.0
 40
0.9508605784858373
 50
54.2729887033176013
 51
85.4464304332840214
  0
ARC
  5
C2FA
  8
0
 10
982.4662794713633502
 20
139.6314124323353099
 30
0.0
 40
2.610412913555797
 50
84.1565720446150465
 51
89.1974378493332267
  0
ARC
  5
C2FB
  8
0
 10
983.1949699045561601
 20
142.0289384228956067
 30
0.0
 40
0.0288
 50
359.9999999999715214
 51
54.2729887033908582
  0
LINE
  5
C2FC
  8
0
 10
980.4183733611581602
 20
141.926083644825809
 30
0.0
 11
981.8569820442520495
 21
141.926083644825809
 31
0.0
  0
ARC
  5
C2FD
  8
0
 10
981.5278508069477539
 20
141.5658686123792052
 30
0.0
 40
0.5057999829861494
 50
347.0932805072525866
 51
17.1854934424870116
  0
ARC
  5
C2FE
  8
0
 10
981.455962448654077
 20
141.6639444945568016
 30
0.0
 40
0.5574779199350736
 50
5.287236375314901
 51
26.0330105416660302
  0
ARC
  5
C2FF
  8
0
 10
981.8127761098712654
 20
141.378899255730289
 30
0.0
 40
0.5489671395487783
 50
74.7816078090972098
 51
85.3812193981441538
  0
ARC
  5
C300
  8
0
 10
980.9400485512682053
 20
140.1884523712091095
 30
0.0
 40
2.053145816916798
 50
89.6958541120759349
 51
99.9700686026360756
  0
ARC
  5
C301
  8
0
 10
980.7588768531926462
 20
141.3200904534143945
 30
0.0
 40
0.9073989867272032
 50
101.0744409603724989
 51
122.3623196842785035
  0
LINE
  5
C302
  8
0
 10
980.3349019043256476
 20
141.9481663796719033
 30
0.0
 11
980.2726955395002051
 21
141.9835572785601983
 31
0.0
  0
ARC
  5
C303
  8
0
 10
980.4183733611581602
 20
142.0948836448258987
 30
0.0
 40
0.1688
 50
240.3632707335137866
 51
270.0
  0
ARC
  5
C304
  8
0
 10
980.3022736617576811
 20
142.0306110581092014
 30
0.0
 40
0.0555780845848471
 50
197.5728631168304048
 51
237.8464298476646945
  0
ARC
  5
C305
  8
0
 10
980.3173464370081547
 20
142.0353845679844085
 30
0.0
 40
0.0713886807239925
 50
158.1156704437746896
 51
197.5728631168304048
  0
ARC
  5
C306
  8
0
 10
980.2957641642167346
 20
142.0440537301033999
 30
0.0
 40
0.0481303731611383
 50
117.9948837298450002
 51
158.115670443773098
  0
LINE
  5
C307
  8
0
 10
978.3843446236199952
 20
139.8652898344907953
 30
0.0
 11
979.019181110838872
 21
139.6342282494281903
 31
0.0
  0
LINE
  5
C308
  8
0
 10
979.0499934507880653
 20
139.6613292528062118
 30
0.0
 11
979.062119501963366
 21
139.6946453046487875
 31
0.0
  0
LINE
  5
C309
  8
0
 10
979.0296207210767534
 20
139.6390963196450059
 30
0.0
 11
979.019181110838872
 21
139.6342282494281903
 31
0.0
  0
ARC
  5
C30A
  8
0
 10
979.0129695615223682
 20
139.6748048464349097
 30
0.0
 40
0.0394
 50
295.0000000667182007
 51
340.0000000284695147
  0
ARC
  5
C30B
  8
0
 10
978.8871384294886866
 20
140.2590934200104016
 30
0.0
 40
0.6013126047042316
 50
255.1840151155606975
 51
275.6580093867307255
  0
LINE
  5
C30C
  8
0
 10
978.7333734875505797
 20
139.6777732060087942
 30
0.0
 11
978.7528115490666778
 21
139.7311788412650913
 31
0.0
  0
LINE
  5
C30D
  8
0
 10
978.7780837279885873
 20
139.708525255332404
 30
0.0
 11
978.7734381016646239
 21
139.6957615014729868
 31
0.0
  0
LINE
  5
C30E
  8
0
 10
978.7716765318560874
 20
139.6909216280363069
 30
0.0
 11
978.7684555735561389
 21
139.6820721175361939
 31
0.0
  0
LINE
  5
C30F
  8
0
 10
978.7673091607484821
 20
139.6789223741263868
 30
0.0
 11
978.7654127803027677
 21
139.6737121114956892
 31
0.0
  0
LINE
  5
C310
  8
0
 10
978.7648474991377725
 20
139.6721590142066134
 30
0.0
 11
978.7642346126335724
 21
139.6704751223178107
 31
0.0
  0
LINE
  5
C311
  8
0
 10
978.7805181560165693
 20
139.7152137915971082
 30
0.0
 11
978.7824081666866505
 21
139.720406553412289
 31
0.0
  0
LINE
  5
C312
  8
0
 10
978.7673091606561684
 20
139.678922374136306
 30
0.0
 11
978.7681690242807235
 21
139.6788306365039034
 31
0.0
  0
LINE
  5
C313
  8
0
 10
978.7681690242807235
 20
139.6788306365039034
 30
0.0
 11
978.7845466537030461
 21
139.6739835339647016
 31
0.0
  0
LINE
  5
C314
  8
0
 10
978.7845466537030461
 20
139.6739835339647016
 30
0.0
 11
978.7835701427368349
 21
139.6713005922040907
 31
0.0
  0
LINE
  5
C315
  8
0
 10
978.7835701427368349
 20
139.6713005922040907
 30
0.0
 11
978.7662243177377377
 21
139.6734875992046909
 31
0.0
  0
LINE
  5
C316
  8
0
 10
978.7662243177377377
 20
139.6734875992046909
 30
0.0
 11
978.7654127803027677
 21
139.6737121114956892
 31
0.0
  0
LINE
  5
C317
  8
0
 10
978.7648474991377725
 20
139.6721590142066134
 30
0.0
 11
978.7656906455561057
 21
139.6720213468362886
 31
0.0
  0
LINE
  5
C318
  8
0
 10
978.7656906455561057
 20
139.6720213468362886
 30
0.0
 11
978.78238631635611
 21
139.6680480560362128
 31
0.0
  0
LINE
  5
C319
  8
0
 10
978.78238631635611
 20
139.6680480560362128
 30
0.0
 11
978.7820195326607973
 21
139.6670403260181104
 31
0.0
  0
LINE
  5
C31A
  8
0
 10
978.7716765318560874
 20
139.6909216280363069
 30
0.0
 11
978.7725544113560545
 21
139.6908793885363025
 31
0.0
  0
LINE
  5
C31B
  8
0
 10
978.7725544113560545
 20
139.6908793885363025
 30
0.0
 11
978.7885740507955461
 21
139.6850487167949098
 31
0.0
  0
LINE
  5
C31C
  8
0
 10
978.7885740507955461
 20
139.6850487167949098
 30
0.0
 11
978.7869478841395221
 21
139.6805808604906929
 31
0.0
  0
LINE
  5
C31D
  8
0
 10
978.7869478841395221
 20
139.6805808604906929
 30
0.0
 11
978.7692513383532287
 21
139.6818042698440934
 31
0.0
  0
LINE
  5
C31E
  8
0
 10
978.7692513383532287
 20
139.6818042698440934
 30
0.0
 11
978.7684555735561389
 21
139.6820721175361939
 31
0.0
  0
LINE
  5
C31F
  8
0
 10
978.7780837279885873
 20
139.708525255332404
 30
0.0
 11
978.7789808980560338
 21
139.7085360156362128
 31
0.0
  0
LINE
  5
C320
  8
0
 10
978.7789808980560338
 20
139.7085360156362128
 30
0.0
 11
978.7946891334561315
 21
139.7018497681362135
 31
0.0
  0
LINE
  5
C321
  8
0
 10
978.7946891334561315
 20
139.7018497681362135
 30
0.0
 11
978.7922975068988762
 21
139.6952788283118139
 31
0.0
  0
LINE
  5
C322
  8
0
 10
978.7922975068988762
 20
139.6952788283118139
 30
0.0
 11
978.7742175027226494
 21
139.6954486946497127
 31
0.0
  0
LINE
  5
C323
  8
0
 10
978.7742175027226494
 20
139.6954486946497127
 30
0.0
 11
978.7734381016646239
 21
139.6957615014729868
 31
0.0
  0
LINE
  5
C324
  8
0
 10
978.7805181563561518
 20
139.7152137914362129
 30
0.0
 11
978.7812800135766338
 21
139.7148527833925868
 31
0.0
  0
LINE
  5
C325
  8
0
 10
978.7812800135766338
 20
139.7148527833925868
 30
0.0
 11
978.7957057946392752
 21
139.7155666126494111
 31
0.0
  0
LINE
  5
C326
  8
0
 10
978.785130029435436
 20
139.693879533560704
 30
0.0
 11
978.7831518290493023
 21
139.6883339557375052
 31
0.0
  0
LINE
  5
C327
  8
0
 10
978.7831518290493023
 20
139.6883339557375052
 30
0.0
 11
978.7992908804560557
 21
139.6829418824362108
 31
0.0
  0
LINE
  5
C328
  8
0
 10
978.7992908804560557
 20
139.6829418824362108
 30
0.0
 11
978.8174827541638479
 21
139.6830793754052138
 31
0.0
  0
LINE
  5
C329
  8
0
 10
978.8174827541638479
 20
139.6830793754052138
 30
0.0
 11
978.8195215317560951
 21
139.6886808707361922
 31
0.0
  0
LINE
  5
C32A
  8
0
 10
978.8195215317560951
 20
139.6886808707361922
 30
0.0
 11
978.8033434025703627
 21
139.6940760954757934
 31
0.0
  0
LINE
  5
C32B
  8
0
 10
978.8033434025703627
 20
139.6940760954757934
 30
0.0
 11
978.7851300279784255
 21
139.6938795294763054
 31
0.0
  0
LINE
  5
C32C
  8
0
 10
978.7999702164078144
 20
139.7140144900585881
 30
0.0
 11
978.7922825017559489
 21
139.7135307897362111
 31
0.0
  0
LINE
  5
C32D
  8
0
 10
978.7922825017559489
 20
139.7135307897362111
 30
0.0
 11
978.7894987979559573
 21
139.7058826263362903
 31
0.0
  0
LINE
  5
C32E
  8
0
 10
978.7894987979559573
 20
139.7058826263362903
 30
0.0
 11
978.8053334549479132
 21
139.6995437194136116
 31
0.0
  0
LINE
  5
C32F
  8
0
 10
978.8053334549479132
 20
139.6995437194136116
 30
0.0
 11
978.8239463813007433
 21
139.7008380449007916
 31
0.0
  0
LINE
  5
C330
  8
0
 10
978.8239463813007433
 20
139.7008380449007916
 30
0.0
 11
978.8253765306402556
 21
139.7047673479121102
 31
0.0
  0
LINE
  5
C331
  8
0
 10
978.7800877931053947
 20
139.6800261029927981
 30
0.0
 11
978.797911770237647
 21
139.6791528083288085
 31
0.0
  0
LINE
  5
C332
  8
0
 10
978.797911770237647
 20
139.6791528083288085
 30
0.0
 11
978.814417749856716
 21
139.674658345138198
 31
0.0
  0
LINE
  5
C333
  8
0
 10
978.814417749856716
 20
139.674658345138198
 30
0.0
 11
978.8130919273266954
 21
139.6710156778555074
 31
0.0
  0
LINE
  5
C334
  8
0
 10
978.8130919273266954
 20
139.6710156778555074
 30
0.0
 11
978.7952756835561559
 21
139.6719102197363043
 31
0.0
  0
LINE
  5
C335
  8
0
 10
978.7952756835561559
 20
139.6719102197363043
 30
0.0
 11
978.7787774380987003
 21
139.6764259322602015
 31
0.0
  0
LINE
  5
C336
  8
0
 10
978.7787774380987003
 20
139.6764259322602015
 30
0.0
 11
978.7800877930412753
 21
139.6800261029958961
 31
0.0
  0
LINE
  5
C337
  8
0
 10
978.7769946119559563
 20
139.6715276578362079
 30
0.0
 11
978.7944639493938439
 21
139.6696799983716062
 31
0.0
  0
LINE
  5
C338
  8
0
 10
978.7944639493938439
 20
139.6696799983716062
 30
0.0
 11
978.8112883910559958
 21
139.6660605026362987
 31
0.0
  0
LINE
  5
C339
  8
0
 10
978.8112883910559958
 20
139.6660605026362987
 30
0.0
 11
978.8106349174562411
 21
139.6642650986362071
 31
0.0
  0
LINE
  5
C33A
  8
0
 10
978.8106349174562411
 20
139.6642650986362071
 30
0.0
 11
978.7931644719748192
 21
139.6661097134982867
 31
0.0
  0
LINE
  5
C33B
  8
0
 10
978.7931644719748192
 20
139.6661097134982867
 30
0.0
 11
978.7764069780436103
 21
139.6697387650119992
 31
0.0
  0
LINE
  5
C33C
  8
0
 10
978.7764069780436103
 20
139.6697387650119992
 30
0.0
 11
978.7769946119549331
 21
139.67152765783311
 31
0.0
  0
LINE
  5
C33D
  8
0
 10
978.816486461198906
 20
139.6986352707739911
 30
0.0
 11
978.8352426393073529
 21
139.7003231771224137
 31
0.0
  0
LINE
  5
C33E
  8
0
 10
978.8352426393073529
 20
139.7003231771224137
 30
0.0
 11
978.8514923133827779
 21
139.6951245202216967
 31
0.0
  0
LINE
  5
C33F
  8
0
 10
978.8514923133827779
 20
139.6951245202216967
 30
0.0
 11
978.8491025836140125
 21
139.6885587916800944
 31
0.0
  0
LINE
  5
C340
  8
0
 10
978.8491025836140125
 20
139.6885587916800944
 30
0.0
 11
978.8303780209693059
 21
139.6869577478495899
 31
0.0
  0
LINE
  5
C341
  8
0
 10
978.8303780209693059
 20
139.6869577478495899
 30
0.0
 11
978.8140739049274544
 21
139.6920068267359056
 31
0.0
  0
LINE
  5
C342
  8
0
 10
978.8140739049274544
 20
139.6920068267359056
 30
0.0
 11
978.816486461272234
 21
139.6986352707806986
 31
0.0
  0
LINE
  5
C343
  8
0
 10
978.810354208256058
 20
139.6817870441363141
 30
0.0
 11
978.8286810629822412
 21
139.682295394497487
 31
0.0
  0
LINE
  5
C344
  8
0
 10
978.8286810629822412
 20
139.682295394497487
 30
0.0
 11
978.8453237289797926
 21
139.6781764739820062
 31
0.0
  0
LINE
  5
C345
  8
0
 10
978.8453237289797926
 20
139.6781764739820062
 30
0.0
 11
978.8436264302786185
 21
139.6735131840069073
 31
0.0
  0
LINE
  5
C346
  8
0
 10
978.8436264302786185
 20
139.6735131840069073
 30
0.0
 11
978.8253124851986513
 21
139.6730403028670082
 31
0.0
  0
LINE
  5
C347
  8
0
 10
978.8253124851986513
 20
139.6730403028670082
 30
0.0
 11
978.8086827311402658
 21
139.6771946986496005
 31
0.0
  0
LINE
  5
C348
  8
0
 10
978.8086827311402658
 20
139.6771946986496005
 30
0.0
 11
978.8103542101144967
 21
139.6817870441877858
 31
0.0
  0
LINE
  5
C349
  8
0
 10
978.8062635941967073
 20
139.6705481745291024
 30
0.0
 11
978.8242091996243062
 21
139.6700090505837863
 31
0.0
  0
LINE
  5
C34A
  8
0
 10
978.8242091996243062
 20
139.6700090505837863
 30
0.0
 11
978.8411707233198058
 21
139.6667661846448141
 31
0.0
  0
LINE
  5
C34B
  8
0
 10
978.8411707233198058
 20
139.6667661846448141
 30
0.0
 11
978.8401724503511332
 21
139.6640234520224908
 31
0.0
  0
LINE
  5
C34C
  8
0
 10
978.8401724503511332
 20
139.6640234520224908
 30
0.0
 11
978.8222274016560505
 21
139.6645641055361864
 31
0.0
  0
LINE
  5
C34D
  8
0
 10
978.8222274016560505
 20
139.6645641055361864
 30
0.0
 11
978.8052799272561515
 21
139.6678455717363079
 31
0.0
  0
LINE
  5
C34E
  8
0
 10
978.8052799272561515
 20
139.6678455717363079
 30
0.0
 11
978.8062635941967073
 21
139.6705481745291024
 31
0.0
  0
LINE
  5
C34F
  8
0
 10
978.8037412730407141
 20
139.6635921497577044
 30
0.0
 11
978.8040875209999285
 21
139.6645694624448026
 31
0.0
  0
LINE
  5
C350
  8
0
 10
978.8040875209999285
 20
139.6645694624448026
 30
0.0
 11
978.8216836809202732
 21
139.6630702451045067
 31
0.0
  0
LINE
  5
C351
  8
0
 10
978.8216836809202732
 20
139.6630702451045067
 30
0.0
 11
978.8389625381562382
 21
139.6606992457361969
 31
0.0
  0
LINE
  5
C352
  8
0
 10
978.8389625381562382
 20
139.6606992457361969
 30
0.0
 11
978.8386364124386319
 21
139.6597400994070881
 31
0.0
  0
LINE
  5
C353
  8
0
 10
978.8333714487674797
 20
139.6636310415674984
 30
0.0
 11
978.8514487185251483
 21
139.663453662622004
 31
0.0
  0
LINE
  5
C354
  8
0
 10
978.8514487185251483
 20
139.663453662622004
 30
0.0
 11
978.8688744391494083
 21
139.6614861670180119
 31
0.0
  0
LINE
  5
C355
  8
0
 10
978.8688744391494083
 20
139.6614861670180119
 30
0.0
 11
978.8682029735133483
 21
139.6596413304430939
 31
0.0
  0
LINE
  5
C356
  8
0
 10
978.8682029735133483
 20
139.6596413304430939
 30
0.0
 11
978.8501178854561431
 21
139.6597972287362097
 31
0.0
  0
LINE
  5
C357
  8
0
 10
978.8501178854561431
 20
139.6597972287362097
 30
0.0
 11
978.8327119264324665
 21
139.6618190188715971
 31
0.0
  0
LINE
  5
C358
  8
0
 10
978.8327119264324665
 20
139.6618190188715971
 30
0.0
 11
978.8333714487562247
 21
139.6636310415362061
 31
0.0
  0
LINE
  5
C359
  8
0
 10
978.8610497356697806
 20
139.6583470270699081
 30
0.0
 11
978.8614251480258872
 21
139.6593125958276005
 31
0.0
  0
LINE
  5
C35A
  8
0
 10
978.8614251480258872
 20
139.6593125958276005
 30
0.0
 11
978.8796463871869946
 21
139.6595307695787085
 31
0.0
  0
LINE
  5
C35B
  8
0
 10
978.8796463871869946
 20
139.6595307695787085
 30
0.0
 11
978.8975523058561521
 21
139.6588826071362064
 31
0.0
  0
LINE
  5
C35C
  8
0
 10
978.8975523058561521
 20
139.6588826071362064
 30
0.0
 11
978.8971907072888143
 21
139.6578648442697101
 31
0.0
  0
LINE
  5
C35D
  8
0
 10
978.8351918933071829
 20
139.6686326718761961
 30
0.0
 11
978.8365303501559538
 21
139.6723100517363036
 31
0.0
  0
LINE
  5
C35E
  8
0
 10
978.8365303501559538
 20
139.6723100517363036
 30
0.0
 11
978.8544814999402206
 21
139.6731281791280992
 31
0.0
  0
LINE
  5
C35F
  8
0
 10
978.8544814999402206
 20
139.6731281791280992
 30
0.0
 11
978.8720917213561279
 21
139.6703255773362002
 31
0.0
  0
LINE
  5
C360
  8
0
 10
978.8720917213561279
 20
139.6703255773362002
 30
0.0
 11
978.8707282872561564
 21
139.6665795729362003
 31
0.0
  0
LINE
  5
C361
  8
0
 10
978.8707282872561564
 20
139.6665795729362003
 30
0.0
 11
978.8522802583967177
 21
139.6657382995026921
 31
0.0
  0
LINE
  5
C362
  8
0
 10
978.8522802583967177
 20
139.6657382995026921
 30
0.0
 11
978.8351918933559546
 21
139.6686326719361944
 31
0.0
  0
LINE
  5
C363
  8
0
 10
978.8416844598057196
 20
139.6864708517398128
 30
0.0
 11
978.8605544954486959
 21
139.6884715791159124
 31
0.0
  0
LINE
  5
C364
  8
0
 10
978.8605544954486959
 20
139.6884715791159124
 30
0.0
 11
978.8773454738561668
 21
139.6847601438362858
 31
0.0
  0
LINE
  5
C365
  8
0
 10
978.8773454738561668
 20
139.6847601438362858
 30
0.0
 11
978.8752457771265654
 21
139.6789912743867035
 31
0.0
  0
LINE
  5
C366
  8
0
 10
978.8752457771265654
 20
139.6789912743867035
 30
0.0
 11
978.8563959813915289
 21
139.6770461557335068
 31
0.0
  0
LINE
  5
C367
  8
0
 10
978.8563959813915289
 20
139.6770461557335068
 30
0.0
 11
978.8396252483767057
 21
139.6808132148900938
 31
0.0
  0
LINE
  5
C368
  8
0
 10
978.8396252483767057
 20
139.6808132148900938
 30
0.0
 11
978.8416844598057196
 21
139.6864708517398128
 31
0.0
  0
LINE
  5
C369
  8
0
 10
978.867861052041917
 20
139.6769950967969862
 30
0.0
 11
978.8868596892062897
 21
139.6793491539820025
 31
0.0
  0
LINE
  5
C36A
  8
0
 10
978.8868596892062897
 20
139.6793491539820025
 30
0.0
 11
978.9008755010220284
 21
139.6772879699647945
 31
0.0
  0
LINE
  5
C36B
  8
0
 10
978.8678610520561278
 20
139.6769950968362082
 30
0.0
 11
978.8662575965198585
 21
139.6725896387997068
 31
0.0
  0
LINE
  5
C36C
  8
0
 10
978.8662575965198585
 20
139.6725896387997068
 30
0.0
 11
978.8833851097012939
 21
139.6698028251664141
 31
0.0
  0
LINE
  5
C36D
  8
0
 10
978.8833851097012939
 20
139.6698028251664141
 30
0.0
 11
978.9023756908746918
 21
139.6721347486316915
 31
0.0
  0
LINE
  5
C36E
  8
0
 10
978.9023756908746918
 20
139.6721347486316915
 30
0.0
 11
978.9038564154177493
 21
139.6762030058534094
 31
0.0
  0
LINE
  5
C36F
  8
0
 10
978.8636586983412826
 20
139.6654492247957933
 30
0.0
 11
978.8822479477561274
 21
139.6666784984363119
 31
0.0
  0
LINE
  5
C370
  8
0
 10
978.8822479477561274
 20
139.6666784984363119
 30
0.0
 11
978.8998349900560925
 21
139.6651542305361886
 31
0.0
  0
LINE
  5
C371
  8
0
 10
978.8998349900560925
 20
139.6651542305361886
 30
0.0
 11
978.8988028158561292
 21
139.6623183551361933
 31
0.0
  0
LINE
  5
C372
  8
0
 10
978.8988028158561292
 20
139.6623183551361933
 30
0.0
 11
978.8802063052029325
 21
139.6610691315387953
 31
0.0
  0
LINE
  5
C373
  8
0
 10
978.8802063052029325
 20
139.6610691315387953
 30
0.0
 11
978.8626488852560215
 21
139.6626747860362912
 31
0.0
  0
LINE
  5
C374
  8
0
 10
978.8626488852560215
 20
139.6626747860362912
 30
0.0
 11
978.8636586983561756
 21
139.6654492248362089
 31
0.0
  0
LINE
  5
C375
  8
0
 10
978.8917539663700609
 20
139.6612449880747135
 30
0.0
 11
978.9104966313401519
 21
139.662895767592687
 31
0.0
  0
LINE
  5
C376
  8
0
 10
978.9104966313401519
 20
139.662895767592687
 30
0.0
 11
978.928578817156108
 21
139.6627318952363055
 31
0.0
  0
LINE
  5
C377
  8
0
 10
978.928578817156108
 20
139.6627318952363055
 30
0.0
 11
978.9278803897648231
 21
139.6608129817601878
 31
0.0
  0
LINE
  5
C378
  8
0
 10
978.9278803897648231
 20
139.6608129817601878
 30
0.0
 11
978.9091178237739541
 21
139.6591075248852007
 31
0.0
  0
LINE
  5
C379
  8
0
 10
978.9091178237739541
 20
139.6591075248852007
 30
0.0
 11
978.8910732519560725
 21
139.6593747408363129
 31
0.0
  0
LINE
  5
C37A
  8
0
 10
978.8910732519560725
 20
139.6593747408363129
 30
0.0
 11
978.8917539663700609
 21
139.6612449880747135
 31
0.0
  0
LINE
  5
C37B
  8
0
 10
978.9204548349052857
 20
139.6587044913096918
 30
0.0
 11
978.9208464847927189
 21
139.6597806745627963
 31
0.0
  0
LINE
  5
C37C
  8
0
 10
978.9208464847927189
 20
139.6597806745627963
 30
0.0
 11
978.9397616989996322
 21
139.6619055288871039
 31
0.0
  0
LINE
  5
C37D
  8
0
 10
978.9397616989996322
 20
139.6619055288871039
 30
0.0
 11
978.9427273805348477
 21
139.6620551315681951
 31
0.0
  0
LINE
  5
C37E
  8
0
 10
978.9290281396080218
 20
139.6670412474994976
 30
0.0
 11
978.9231668059561571
 21
139.6661557044363065
 31
0.0
  0
LINE
  5
C37F
  8
0
 10
978.9231668059561571
 20
139.6661557044363065
 30
0.0
 11
978.9221174964367265
 21
139.6632727502961018
 31
0.0
  0
LINE
  5
C380
  8
0
 10
978.9221174964367265
 20
139.6632727502961018
 30
0.0
 11
978.938949208986287
 21
139.6634302735523079
 31
0.0
  0
LINE
  5
C381
  8
0
 10
978.8950165023561567
 20
139.6702087320362011
 30
0.0
 11
978.8936336979270436
 21
139.6664095083565087
 31
0.0
  0
LINE
  5
C382
  8
0
 10
978.8936336979270436
 20
139.6664095083565087
 30
0.0
 11
978.9113585047881543
 21
139.6652637453086925
 31
0.0
  0
LINE
  5
C383
  8
0
 10
978.9113585047881543
 20
139.6652637453086925
 30
0.0
 11
978.9277826537110059
 21
139.667494567293403
 31
0.0
  0
LINE
  5
C384
  8
0
 10
978.8950165023394447
 20
139.6702087320014982
 30
0.0
 11
978.9132832595438458
 21
139.6727719151872122
 31
0.0
  0
LINE
  5
C385
  8
0
 10
978.9397616989996322
 20
139.6619055288871039
 30
0.0
 11
978.9397616989996322
 21
139.6600878773965064
 31
0.0
  0
LINE
  5
C386
  8
0
 10
978.9104966313401519
 20
139.662895767592687
 30
0.0
 11
978.9091178237739541
 21
139.6591075248852007
 31
0.0
  0
LINE
  5
C387
  8
0
 10
978.9113585047881543
 20
139.6652637453086925
 30
0.0
 11
978.9113585047881543
 21
139.6737148900353134
 31
0.0
  0
LINE
  5
C388
  8
0
 10
978.8796463871869946
 20
139.6595307695787085
 30
0.0
 11
978.8790627078452644
 21
139.6578350468494989
 31
0.0
  0
LINE
  5
C389
  8
0
 10
978.8822479477561274
 20
139.6666784984363119
 30
0.0
 11
978.8802063052029325
 21
139.6610691315387953
 31
0.0
  0
LINE
  5
C38A
  8
0
 10
978.8833851097012939
 20
139.6698028251664141
 30
0.0
 11
978.8868596892062897
 21
139.6793491539820025
 31
0.0
  0
LINE
  5
C38B
  8
0
 10
978.8501178854561431
 20
139.6597972287362097
 30
0.0
 11
978.8514487185251483
 21
139.663453662622004
 31
0.0
  0
LINE
  5
C38C
  8
0
 10
978.8522802583967177
 20
139.6657382995026921
 30
0.0
 11
978.8544814999402206
 21
139.6731281791280992
 31
0.0
  0
LINE
  5
C38D
  8
0
 10
978.8563959813915289
 20
139.6770461557335068
 30
0.0
 11
978.8605544954486959
 21
139.6884715791159124
 31
0.0
  0
LINE
  5
C38E
  8
0
 10
978.8303780209693059
 20
139.6869577478495899
 30
0.0
 11
978.8352426393073529
 21
139.7003231771224137
 31
0.0
  0
LINE
  5
C38F
  8
0
 10
978.8253124851986513
 20
139.6730403028670082
 30
0.0
 11
978.8286810629822412
 21
139.682295394497487
 31
0.0
  0
LINE
  5
C390
  8
0
 10
978.8222274016560505
 20
139.6645641055361864
 30
0.0
 11
978.8242091996243062
 21
139.6700090505837863
 31
0.0
  0
LINE
  5
C391
  8
0
 10
978.8216836809202732
 20
139.6630702451045067
 30
0.0
 11
978.8210332319448526
 21
139.6614254926176955
 31
0.0
  0
LINE
  5
C392
  8
0
 10
978.7931644719748192
 20
139.6661097134982867
 30
0.0
 11
978.7944639493938439
 21
139.6696799983716062
 31
0.0
  0
LINE
  5
C393
  8
0
 10
978.7952756835561559
 20
139.6719102197363043
 30
0.0
 11
978.797911770237647
 21
139.6791528083288085
 31
0.0
  0
LINE
  5
C394
  8
0
 10
978.7992908804560557
 20
139.6829418824362108
 30
0.0
 11
978.8033434025703627
 21
139.6940760954757934
 31
0.0
  0
LINE
  5
C395
  8
0
 10
978.8053334549479132
 20
139.6995437194136116
 30
0.0
 11
978.8090944622231291
 21
139.7106935361705098
 31
0.0
  0
LINE
  5
C396
  8
0
 10
978.7812800135766338
 20
139.7148527833925868
 30
0.0
 11
978.7833229043167194
 21
139.720073616142713
 31
0.0
  0
LINE
  5
C397
  8
0
 10
978.7789808980560338
 20
139.7085360156362128
 30
0.0
 11
978.7741537509896261
 21
139.6954742809340075
 31
0.0
  0
LINE
  5
C398
  8
0
 10
978.7725544113560545
 20
139.6908793885363025
 30
0.0
 11
978.7692513383532287
 21
139.6818042698440934
 31
0.0
  0
LINE
  5
C399
  8
0
 10
978.7681690242807235
 20
139.6788306365039034
 30
0.0
 11
978.7662243177377377
 21
139.6734875992046909
 31
0.0
  0
LINE
  5
C39A
  8
0
 10
978.7656906455561057
 20
139.6720213468362886
 30
0.0
 11
978.7651793037348398
 21
139.6702786611757858
 31
0.0
  0
ARC
  5
C39B
  8
0
 10
978.893059129451558
 20
140.2569384614645003
 30
0.0
 40
0.6013126047042316
 50
224.3419907257816135
 51
244.8159849969514994
  0
LINE
  5
C39C
  8
0
 10
978.6371844790179466
 20
139.7127831418711992
 30
0.0
 11
978.656622540533931
 21
139.7661887771276099
 31
0.0
  0
LINE
  5
C39D
  8
0
 10
978.6227014839549838
 20
139.7650797669213887
 30
0.0
 11
978.6180558573762482
 21
139.7523160131545978
 31
0.0
  0
LINE
  5
C39E
  8
0
 10
978.6162942874711916
 20
139.7474761397529903
 30
0.0
 11
978.6130733289946875
 21
139.7386266293173094
 31
0.0
  0
LINE
  5
C39F
  8
0
 10
978.6119269161240481
 20
139.7354768859302965
 30
0.0
 11
978.6100305355745377
 21
139.7302666233373998
 31
0.0
  0
LINE
  5
C3A0
  8
0
 10
978.6094652543786196
 20
139.7287135260596074
 30
0.0
 11
978.6088523678407682
 21
139.7270296341831113
 31
0.0
  0
LINE
  5
C3A1
  8
0
 10
978.6251359121164342
 20
139.7717683031374065
 30
0.0
 11
978.6270259228900841
 21
139.7769610649150138
 31
0.0
  0
LINE
  5
C3A2
  8
0
 10
978.6119269162012415
 20
139.7354768858785121
 30
0.0
 11
978.6112092546353551
 21
139.7359593204575958
 31
0.0
  0
LINE
  5
C3A3
  8
0
 10
978.6112092546353551
 20
139.7359593204575958
 30
0.0
 11
978.595547605156753
 21
139.7427735617299902
 31
0.0
  0
LINE
  5
C3A4
  8
0
 10
978.595547605156753
 20
139.7427735617299902
 30
0.0
 11
978.5945710942397682
 21
139.7400906199513884
 31
0.0
  0
LINE
  5
C3A5
  8
0
 10
978.5945710942397682
 20
139.7400906199513884
 30
0.0
 11
978.6092645481126056
 21
139.7306162831509937
 31
0.0
  0
LINE
  5
C3A6
  8
0
 10
978.6092645481126056
 20
139.7306162831509937
 30
0.0
 11
978.6100305355745377
 21
139.7302666233373998
 31
0.0
  0
LINE
  5
C3A7
  8
0
 10
978.6094652543786196
 20
139.7287135260596074
 30
0.0
 11
978.6087308758694689
 21
139.7291500308049024
 31
0.0
  0
LINE
  5
C3A8
  8
0
 10
978.6087308758694689
 20
139.7291500308049024
 30
0.0
 11
978.5933872679180467
 21
139.7368380837621942
 31
0.0
  0
LINE
  5
C3A9
  8
0
 10
978.5933872679180467
 20
139.7368380837621942
 30
0.0
 11
978.5930204841619116
 21
139.7358303537662039
 31
0.0
  0
LINE
  5
C3AA
  8
0
 10
978.6162942874711916
 20
139.7474761397529903
 30
0.0
 11
978.6155946417302403
 21
139.7480080724828042
 31
0.0
  0
LINE
  5
C3AB
  8
0
 10
978.6155946417302403
 20
139.7480080724828042
 30
0.0
 11
978.5995750023938626
 21
139.7538387445075045
 31
0.0
  0
LINE
  5
C3AC
  8
0
 10
978.5995750023938626
 20
139.7538387445075045
 30
0.0
 11
978.5979488356590537
 21
139.7493708882321073
 31
0.0
  0
LINE
  5
C3AD
  8
0
 10
978.5979488356590537
 20
139.7493708882321073
 30
0.0
 11
978.6122915686153192
 21
139.7389329538314939
 31
0.0
  0
LINE
  5
C3AE
  8
0
 10
978.6122915686153192
 20
139.7389329538314939
 30
0.0
 11
978.6130733289946875
 21
139.7386266293173094
 31
0.0
  0
LINE
  5
C3AF
  8
0
 10
978.6227014839549838
 20
139.7650797669213887
 30
0.0
 11
978.6220211283989556
 21
139.7656646995941969
 31
0.0
  0
LINE
  5
C3B0
  8
0
 10
978.6220211283989556
 20
139.7656646995941969
 30
0.0
 11
978.6056900849015392
 21
139.7706397959046001
 31
0.0
  0
LINE
  5
C3B1
  8
0
 10
978.6056900849015392
 20
139.7706397959046001
 30
0.0
 11
978.6032984584454653
 21
139.7640688560433091
 31
0.0
  0
LINE
  5
C3B2
  8
0
 10
978.6032984584454653
 20
139.7640688560433091
 30
0.0
 11
978.6172577331760749
 21
139.7525773785673948
 31
0.0
  0
LINE
  5
C3B3
  8
0
 10
978.6172577331760749
 20
139.7525773785673948
 30
0.0
 11
978.6180558573762482
 21
139.7523160131545978
 31
0.0
  0
LINE
  5
C3B4
  8
0
 10
978.6251359117532047
 20
139.7717683032323919
 30
0.0
 11
978.6243202437650552
 21
139.7719814674067038
 31
0.0
  0
LINE
  5
C3B5
  8
0
 10
978.6243202437650552
 20
139.7719814674067038
 30
0.0
 11
978.6137282949266591
 21
139.7818010056485036
 31
0.0
  0
LINE
  5
C3B6
  8
0
 10
978.6078896154104996
 20
139.7583897683776968
 30
0.0
 11
978.6058403761209092
 21
139.7528700466008047
 31
0.0
  0
LINE
  5
C3B7
  8
0
 10
978.6058403761209092
 20
139.7528700466008047
 30
0.0
 11
978.5900111875529319
 21
139.7591134610566996
 31
0.0
  0
LINE
  5
C3B8
  8
0
 10
978.5900111875529319
 20
139.7591134610566996
 30
0.0
 11
978.5761637825428352
 21
139.7709122977705931
 31
0.0
  0
LINE
  5
C3B9
  8
0
 10
978.5761637825428352
 20
139.7709122977705931
 30
0.0
 11
978.5782025600810812
 21
139.7765137931214099
 31
0.0
  0
LINE
  5
C3BA
  8
0
 10
978.5782025600810812
 20
139.7765137931214099
 30
0.0
 11
978.5940637096699675
 21
139.7702476740952875
 31
0.0
  0
LINE
  5
C3BB
  8
0
 10
978.5940637096699675
 20
139.7702476740952875
 30
0.0
 11
978.6078896139010794
 21
139.7583897643123976
 31
0.0
  0
LINE
  5
C3BC
  8
0
 10
978.6094638731547093
 20
139.7833531282298054
 30
0.0
 11
978.6150420876804219
 21
139.7780410245717064
 31
0.0
  0
LINE
  5
C3BD
  8
0
 10
978.6150420876804219
 20
139.7780410245717064
 30
0.0
 11
978.6122583838523497
 21
139.770392861181989
 31
0.0
  0
LINE
  5
C3BE
  8
0
 10
978.6122583838523497
 20
139.770392861181989
 30
0.0
 11
978.5960537620156856
 21
139.7757152980445028
 31
0.0
  0
LINE
  5
C3BF
  8
0
 10
978.5960537620156856
 20
139.7757152980445028
 30
0.0
 11
978.5826274095735471
 21
139.7886709673049097
 31
0.0
  0
LINE
  5
C3C0
  8
0
 10
978.5826274095735471
 20
139.7886709673049097
 30
0.0
 11
978.5840575589020318
 21
139.7926002703202073
 31
0.0
  0
LINE
  5
C3C1
  8
0
 10
978.6028473790383941
 20
139.7445363378251102
 30
0.0
 11
978.5886320773911393
 21
139.7553243869286064
 31
0.0
  0
LINE
  5
C3C2
  8
0
 10
978.5886320773911393
 20
139.7553243869286064
 30
0.0
 11
978.5730987781604426
 21
139.7624912675310895
 31
0.0
  0
LINE
  5
C3C3
  8
0
 10
978.5730987781604426
 20
139.7624912675310895
 30
0.0
 11
978.571772955753886
 21
139.7588486002034074
 31
0.0
  0
LINE
  5
C3C4
  8
0
 10
978.571772955753886
 20
139.7588486002034074
 30
0.0
 11
978.5859959907498933
 21
139.7480817983212944
 31
0.0
  0
LINE
  5
C3C5
  8
0
 10
978.5859959907498933
 20
139.7480817983212944
 30
0.0
 11
978.6015370240771745
 21
139.7409361670760006
 31
0.0
  0
LINE
  5
C3C6
  8
0
 10
978.6015370240771745
 20
139.7409361670760006
 30
0.0
 11
978.6028473790894395
 21
139.7445363377863998
 31
0.0
  0
LINE
  5
C3C7
  8
0
 10
978.5997541980377719
 20
139.7360378926144051
 30
0.0
 11
978.5851842565384686
 21
139.7458515769745873
 31
0.0
  0
LINE
  5
C3C8
  8
0
 10
978.5851842565384686
 20
139.7458515769745873
 30
0.0
 11
978.5699694194669291
 21
139.7538934249901104
 31
0.0
  0
LINE
  5
C3C9
  8
0
 10
978.5699694194669291
 20
139.7538934249901104
 30
0.0
 11
978.5693159458447781
 21
139.7520980209980905
 31
0.0
  0
LINE
  5
C3CA
  8
0
 10
978.5693159458447781
 20
139.7520980209980905
 30
0.0
 11
978.5838847791218313
 21
139.7422812921003867
 31
0.0
  0
LINE
  5
C3CB
  8
0
 10
978.5838847791218313
 20
139.7422812921003867
 30
0.0
 11
978.5990544735919912
 21
139.7342897974077118
 31
0.0
  0
LINE
  5
C3CC
  8
0
 10
978.5990544735919912
 20
139.7342897974077118
 30
0.0
 11
978.5997541980367487
 21
139.7360378926113071
 31
0.0
  0
LINE
  5
C3CD
  8
0
 10
978.5869261240108017
 20
139.7821884002233048
 30
0.0
 11
978.5736430232577732
 21
139.795537650368999
 31
0.0
  0
LINE
  5
C3CE
  8
0
 10
978.5736430232577732
 20
139.795537650368999
 30
0.0
 11
978.5578534184741102
 21
139.8020003372647864
 31
0.0
  0
LINE
  5
C3CF
  8
0
 10
978.5578534184741102
 20
139.8020003372647864
 30
0.0
 11
978.5554636887418383
 21
139.7954346087097974
 31
0.0
  0
LINE
  5
C3D0
  8
0
 10
978.5554636887418383
 20
139.7954346087097974
 30
0.0
 11
978.5687784047948981
 21
139.7821722211417068
 31
0.0
  0
LINE
  5
C3D1
  8
0
 10
978.5687784047948981
 20
139.7821722211417068
 30
0.0
 11
978.5845135676501059
 21
139.7755599562177053
 31
0.0
  0
LINE
  5
C3D2
  8
0
 10
978.5845135676501059
 20
139.7755599562177053
 30
0.0
 11
978.5869261239588468
 21
139.7821884002754871
 31
0.0
  0
LINE
  5
C3D3
  8
0
 10
978.5807938710065628
 20
139.7653401736079104
 30
0.0
 11
978.5670814470735195
 21
139.7775098676929133
 31
0.0
  0
LINE
  5
C3D4
  8
0
 10
978.5670814470735195
 20
139.7775098676929133
 30
0.0
 11
978.5516848341799232
 21
139.7850522909853908
 31
0.0
  0
LINE
  5
C3D5
  8
0
 10
978.5516848341799232
 20
139.7850522909853908
 30
0.0
 11
978.5499875354109918
 21
139.780389001035104
 31
0.0
  0
LINE
  5
C3D6
  8
0
 10
978.5499875354109918
 20
139.780389001035104
 30
0.0
 11
978.5637128691573707
 21
139.7682547761106946
 31
0.0
  0
LINE
  5
C3D7
  8
0
 10
978.5637128691573707
 20
139.7682547761106946
 30
0.0
 11
978.5791223939937709
 21
139.7607478280837938
 31
0.0
  0
LINE
  5
C3D8
  8
0
 10
978.5791223939937709
 20
139.7607478280837938
 30
0.0
 11
978.5807938696161727
 21
139.7653401748420094
 31
0.0
  0
LINE
  5
C3D9
  8
0
 10
978.5767032570672654
 20
139.7541013039569862
 30
0.0
 11
978.5626095835372098
 21
139.7652235238440994
 31
0.0
  0
LINE
  5
C3DA
  8
0
 10
978.5626095835372098
 20
139.7652235238440994
 30
0.0
 11
978.5475318285016328
 21
139.7736420016549914
 31
0.0
  0
LINE
  5
C3DB
  8
0
 10
978.5475318285016328
 20
139.7736420016549914
 30
0.0
 11
978.5465335554209787
 21
139.7708992690733965
 31
0.0
  0
LINE
  5
C3DC
  8
0
 10
978.5465335554209787
 20
139.7708992690733965
 30
0.0
 11
978.5606277856569477
 21
139.7597785787644966
 31
0.0
  0
LINE
  5
C3DD
  8
0
 10
978.5606277856569477
 20
139.7597785787644966
 30
0.0
 11
978.5757195900772558
 21
139.751398701182211
 31
0.0
  0
LINE
  5
C3DE
  8
0
 10
978.5757195900772558
 20
139.751398701182211
 30
0.0
 11
978.5767032570672654
 21
139.7541013039569862
 31
0.0
  0
LINE
  5
C3DF
  8
0
 10
978.5741642206508004
 20
139.7471513630430024
 30
0.0
 11
978.5745271838098915
 21
139.7481225918947985
 31
0.0
  0
LINE
  5
C3E0
  8
0
 10
978.5745271838098915
 20
139.7481225918947985
 30
0.0
 11
978.5600840649320844
 21
139.7582847183288095
 31
0.0
  0
LINE
  5
C3E1
  8
0
 10
978.5600840649320844
 20
139.7582847183288095
 30
0.0
 11
978.5453236433281745
 21
139.7675750627498985
 31
0.0
  0
LINE
  5
C3E2
  8
0
 10
978.5453236433281745
 20
139.7675750627498985
 30
0.0
 11
978.5449569427474898
 21
139.7666306844631947
 31
0.0
  0
LINE
  5
C3E3
  8
0
 10
978.5514911883225295
 20
139.7662270656832106
 30
0.0
 11
978.5375291792670396
 21
139.7777110305173949
 31
0.0
  0
LINE
  5
C3E4
  8
0
 10
978.5375291792670396
 20
139.7777110305173949
 30
0.0
 11
978.5229156210000383
 21
139.7874048787215884
 31
0.0
  0
LINE
  5
C3E5
  8
0
 10
978.5229156210000383
 20
139.7874048787215884
 30
0.0
 11
978.5222441554305988
 21
139.7855600421223983
 31
0.0
  0
LINE
  5
C3E6
  8
0
 10
978.5222441554305988
 20
139.7855600421223983
 30
0.0
 11
978.5361983461539239
 21
139.7740545966476873
 31
0.0
  0
LINE
  5
C3E7
  8
0
 10
978.5361983461539239
 20
139.7740545966476873
 30
0.0
 11
978.5508316660084347
 21
139.7644150429796923
 31
0.0
  0
LINE
  5
C3E8
  8
0
 10
978.5508316660084347
 20
139.7644150429796923
 30
0.0
 11
978.5514911883111608
 21
139.7662270656520036
 31
0.0
  0
LINE
  5
C3E9
  8
0
 10
978.5268918913703828
 20
139.7799705355699018
 30
0.0
 11
978.5272249644528983
 21
139.780951514562787
 31
0.0
  0
LINE
  5
C3EA
  8
0
 10
978.5272249644528983
 20
139.780951514562787
 30
0.0
 11
978.5134069248075548
 21
139.7928310320911862
 31
0.0
  0
LINE
  5
C3EB
  8
0
 10
978.5134069248075548
 20
139.7928310320911862
 30
0.0
 11
978.4992735645034827
 21
139.8038442134867125
 31
0.0
  0
LINE
  5
C3EC
  8
0
 10
978.4992735645034827
 20
139.8038442134867125
 30
0.0
 11
978.4988963597184011
 21
139.8028321308188993
 31
0.0
  0
LINE
  5
C3ED
  8
0
 10
978.5533116328798542
 20
139.7712286959855135
 30
0.0
 11
978.5546500896510906
 21
139.7749060758737869
 31
0.0
  0
LINE
  5
C3EE
  8
0
 10
978.5546500896510906
 20
139.7749060758737869
 30
0.0
 11
978.5414245932380481
 21
139.7870715744510051
 31
0.0
  0
LINE
  5
C3EF
  8
0
 10
978.5414245932380481
 20
139.7870715744510051
 30
0.0
 11
978.5261329032558706
 21
139.7962442890220132
 31
0.0
  0
LINE
  5
C3F0
  8
0
 10
978.5261329032558706
 20
139.7962442890220132
 30
0.0
 11
978.5247694691647666
 21
139.7924982846186879
 31
0.0
  0
LINE
  5
C3F1
  8
0
 10
978.5247694691647666
 20
139.7924982846186879
 30
0.0
 11
978.538360719044249
 21
139.7799956674325017
 31
0.0
  0
LINE
  5
C3F2
  8
0
 10
978.538360719044249
 20
139.7799956674325017
 30
0.0
 11
978.5533116328807637
 21
139.771228696062991
 31
0.0
  0
LINE
  5
C3F3
  8
0
 10
978.5598041993528113
 20
139.7890668758583956
 30
0.0
 11
978.5466349561477273
 21
139.8027289470269068
 31
0.0
  0
LINE
  5
C3F4
  8
0
 10
978.5466349561477273
 20
139.8027289470269068
 30
0.0
 11
978.5313866558167319
 21
139.8106788554997877
 31
0.0
  0
LINE
  5
C3F5
  8
0
 10
978.5313866558167319
 20
139.8106788554997877
 30
0.0
 11
978.5292869590357441
 21
139.8049099860689921
 31
0.0
  0
LINE
  5
C3F6
  8
0
 10
978.5292869590357441
 20
139.8049099860689921
 30
0.0
 11
978.5424764421698001
 21
139.7913035236157953
 31
0.0
  0
LINE
  5
C3F7
  8
0
 10
978.5424764421698001
 20
139.7913035236157953
 30
0.0
 11
978.5577449879689311
 21
139.7834092389923057
 31
0.0
  0
LINE
  5
C3F8
  8
0
 10
978.5577449879689311
 20
139.7834092389923057
 30
0.0
 11
978.5598041993528113
 21
139.7890668758583956
 31
0.0
  0
LINE
  5
C3F9
  8
0
 10
978.5336608684418707
 20
139.7986340155420919
 30
0.0
 11
978.5206202267786466
 21
139.8126494165121017
 31
0.0
  0
LINE
  5
C3FA
  8
0
 10
978.5206202267786466
 20
139.8126494165121017
 30
0.0
 11
978.5085585884594366
 21
139.8200796481006023
 31
0.0
  0
LINE
  5
C3FB
  8
0
 10
978.5336608684560815
 20
139.7986340155813139
 30
0.0
 11
978.5320574128273847
 21
139.7942285575784922
 31
0.0
  0
LINE
  5
C3FC
  8
0
 10
978.5320574128273847
 20
139.7942285575784922
 30
0.0
 11
978.517145647238749
 21
139.8031030877091894
 31
0.0
  0
LINE
  5
C3FD
  8
0
 10
978.517145647238749
 20
139.8031030877091894
 30
0.0
 11
978.504096949542145
 21
139.8170963549748933
 31
0.0
  0
LINE
  5
C3FE
  8
0
 10
978.504096949542145
 20
139.8170963549748933
 30
0.0
 11
978.5055776740612146
 21
139.8211646122053935
 31
0.0
  0
LINE
  5
C3FF
  8
0
 10
978.5294585146993995
 20
139.7870881435561046
 30
0.0
 11
978.5160084853232547
 21
139.7999787609682016
 31
0.0
  0
LINE
  5
C400
  8
0
 10
978.5160084853232547
 20
139.7999787609682016
 30
0.0
 11
978.5015562487584475
 21
139.8101158368666859
 31
0.0
  0
LINE
  5
C401
  8
0
 10
978.5015562487584475
 20
139.8101158368666859
 30
0.0
 11
978.5005240745045967
 21
139.8072799614863015
 31
0.0
  0
LINE
  5
C402
  8
0
 10
978.5005240745045967
 20
139.8072799614863015
 30
0.0
 11
978.5139668427270863
 21
139.7943693940864875
 31
0.0
  0
LINE
  5
C403
  8
0
 10
978.5139668427270863
 20
139.7943693940864875
 30
0.0
 11
978.5284487015489958
 21
139.7843137048203062
 31
0.0
  0
LINE
  5
C404
  8
0
 10
978.5284487015489958
 20
139.7843137048203062
 30
0.0
 11
978.5294585147140651
 21
139.7870881435966055
 31
0.0
  0
LINE
  5
C405
  8
0
 10
978.5052338594465482
 20
139.8019268015106036
 30
0.0
 11
978.4919372456911333
 21
139.8152389247763097
 31
0.0
  0
LINE
  5
C406
  8
0
 10
978.4919372456911333
 20
139.8152389247763097
 30
0.0
 11
978.4779801525845642
 21
139.8267363962393119
 31
0.0
  0
LINE
  5
C407
  8
0
 10
978.4779801525845642
 20
139.8267363962393119
 30
0.0
 11
978.4772817252039658
 21
139.8248174827594141
 31
0.0
  0
LINE
  5
C408
  8
0
 10
978.4772817252039658
 20
139.8248174827594141
 30
0.0
 11
978.4905584380981054
 21
139.8114506820784868
 31
0.0
  0
LINE
  5
C409
  8
0
 10
978.4905584380981054
 20
139.8114506820784868
 30
0.0
 11
978.5045531451924035
 21
139.8000565542137963
 31
0.0
  0
LINE
  5
C40A
  8
0
 10
978.5045531451924035
 20
139.8000565542137963
 30
0.0
 11
978.5052338594465482
 21
139.8019268015106036
 31
0.0
  0
LINE
  5
C40B
  8
0
 10
978.481614718716969
 20
139.8184292307161911
 30
0.0
 11
978.4820064547558331
 21
139.8195053826127889
 31
0.0
  0
LINE
  5
C40C
  8
0
 10
978.4820064547558331
 20
139.8195053826127889
 30
0.0
 11
978.4688823900271473
 21
139.8332915807613119
 31
0.0
  0
LINE
  5
C40D
  8
0
 10
978.4688823900271473
 20
139.8332915807613119
 30
0.0
 11
978.4667067089128523
 21
139.835312486404689
 31
0.0
  0
LINE
  5
C40E
  8
0
 10
978.4804059498505922
 20
139.8303263705035988
 30
0.0
 11
978.4843267758238881
 21
139.8258804125208883
 31
0.0
  0
LINE
  5
C40F
  8
0
 10
978.4843267758238881
 20
139.8258804125208883
 30
0.0
 11
978.4832774663553892
 21
139.8229974583622095
 31
0.0
  0
LINE
  5
C410
  8
0
 10
978.4832774663553892
 20
139.8229974583622095
 30
0.0
 11
978.4704848804644826
 21
139.8339373444289038
 31
0.0
  0
LINE
  5
C411
  8
0
 10
978.508496395421048
 20
139.8108905454762123
 30
0.0
 11
978.5071135911696274
 21
139.8070913217318036
 31
0.0
  0
LINE
  5
C412
  8
0
 10
978.5071135911696274
 20
139.8070913217318036
 30
0.0
 11
978.4927991190569401
 21
139.8176069025221864
 31
0.0
  0
LINE
  5
C413
  8
0
 10
978.4927991190569401
 20
139.8176069025221864
 30
0.0
 11
978.4816514357487449
 21
139.8298730507125072
 31
0.0
  0
LINE
  5
C414
  8
0
 10
978.5084963954114983
 20
139.8108905454388946
 30
0.0
 11
978.4961508299277284
 21
139.8245957028507007
 31
0.0
  0
LINE
  5
C415
  8
0
 10
978.4688823900271473
 20
139.8332915807613119
 30
0.0
 11
978.4677140261728709
 21
139.8318991789350889
 31
0.0
  0
LINE
  5
C416
  8
0
 10
978.4919372456911333
 20
139.8152389247763097
 30
0.0
 11
978.4905584380981054
 21
139.8114506820784868
 31
0.0
  0
LINE
  5
C417
  8
0
 10
978.4927991190569401
 20
139.8176069025221864
 30
0.0
 11
978.4982314101622478
 21
139.8240808549888072
 31
0.0
  0
LINE
  5
C418
  8
0
 10
978.5134069248075548
 20
139.7928310320911862
 30
0.0
 11
978.5127640595673029
 21
139.7911568512672886
 31
0.0
  0
LINE
  5
C419
  8
0
 10
978.5160084853232547
 20
139.7999787609682016
 30
0.0
 11
978.5139668427270863
 21
139.7943693940864875
 31
0.0
  0
LINE
  5
C41A
  8
0
 10
978.517145647238749
 20
139.8031030877091894
 30
0.0
 11
978.5206202267786466
 21
139.8126494165121017
 31
0.0
  0
LINE
  5
C41B
  8
0
 10
978.5361983461539239
 20
139.7740545966476873
 30
0.0
 11
978.5375291792670396
 21
139.7777110305173949
 31
0.0
  0
LINE
  5
C41C
  8
0
 10
978.538360719044249
 20
139.7799956674325017
 30
0.0
 11
978.5414245932380481
 21
139.7870715744510051
 31
0.0
  0
LINE
  5
C41D
  8
0
 10
978.5424764421698001
 20
139.7913035236157953
 30
0.0
 11
978.5466349561477273
 21
139.8027289470269068
 31
0.0
  0
LINE
  5
C41E
  8
0
 10
978.5687784047948981
 20
139.7821722211417068
 30
0.0
 11
978.5736430232577732
 21
139.795537650368999
 31
0.0
  0
LINE
  5
C41F
  8
0
 10
978.5637128691573707
 20
139.7682547761106946
 30
0.0
 11
978.5670814470735195
 21
139.7775098676929133
 31
0.0
  0
LINE
  5
C420
  8
0
 10
978.5606277856569477
 20
139.7597785787644966
 30
0.0
 11
978.5626095835372098
 21
139.7652235238440994
 31
0.0
  0
LINE
  5
C421
  8
0
 10
978.5600840649320844
 20
139.7582847183288095
 30
0.0
 11
978.5595251112390542
 21
139.7566066642827991
 31
0.0
  0
LINE
  5
C422
  8
0
 10
978.5838847791218313
 20
139.7422812921003867
 30
0.0
 11
978.5851842565384686
 21
139.7458515769745873
 31
0.0
  0
LINE
  5
C423
  8
0
 10
978.5859959907498933
 20
139.7480817983212944
 30
0.0
 11
978.5886320773911393
 21
139.7553243869286064
 31
0.0
  0
LINE
  5
C424
  8
0
 10
978.5900111875529319
 20
139.7591134610566996
 30
0.0
 11
978.5940637096699675
 21
139.7702476740952875
 31
0.0
  0
LINE
  5
C425
  8
0
 10
978.5960537620156856
 20
139.7757152980445028
 30
0.0
 11
978.600339627332005
 21
139.7866740820979032
 31
0.0
  0
LINE
  5
C426
  8
0
 10
978.6243202437650552
 20
139.7719814674067038
 30
0.0
 11
978.6261111852592194
 21
139.7772940021826003
 31
0.0
  0
LINE
  5
C427
  8
0
 10
978.6220211283989556
 20
139.7656646995941969
 30
0.0
 11
978.6173230163835797
 21
139.7525559999743905
 31
0.0
  0
LINE
  5
C428
  8
0
 10
978.6155946417302403
 20
139.7480080724828042
 30
0.0
 11
978.6122915686153192
 21
139.7389329538314939
 31
0.0
  0
LINE
  5
C429
  8
0
 10
978.6112092546353551
 20
139.7359593204575958
 30
0.0
 11
978.6092645481126056
 21
139.7306162831509937
 31
0.0
  0
LINE
  5
C42A
  8
0
 10
978.6087308758694689
 20
139.7291500308049024
 30
0.0
 11
978.6080024096834222
 21
139.727486371950107
 31
0.0
  0
LINE
  5
C42C
  8
0
 10
978.0805331471009367
 20
140.105101776336312
 30
0.0
 11
983.3082206500671418
 21
140.105101776336312
 31
0.0
  0
LINE
  5
C42D
  8
0
 10
983.6038035532267259
 20
136.7222801242704122
 30
0.0
 11
981.6371799310929873
 21
136.7222801242704975
 31
0.0
  0
LINE
  5
C42E
  8
0
 10
983.5644035532267253
 20
136.8404269132149125
 30
0.0
 11
981.6765799310929879
 21
136.8404269132149125
 31
0.0
  0
LINE
  5
C42F
  8
0
 10
983.6038035532267259
 20
136.8010269132149119
 30
0.0
 11
983.6038035532267259
 21
136.7222801242704122
 31
0.0
  0
LINE
  5
C430
  8
0
 10
981.6371799310929873
 20
136.8010269132149119
 30
0.0
 11
981.6371799310929873
 21
136.7222801242704975
 31
0.0
  0
ARC
  5
C431
  8
0
 10
983.5644035532267253
 20
136.8010269132149119
 30
0.0
 40
0.0394
 50
359.9999999999984084
 51
90.0
  0
ARC
  5
C432
  8
0
 10
981.6765799310929879
 20
136.8010269132149119
 30
0.0
 40
0.0394
 50
90.0
 51
180.0
  0
LINE
  5
C433
  8
0
 10
982.0174373757595276
 20
141.246987310936305
 30
0.0
 11
982.0174373757595276
 21
141.2227534480944087
 31
0.0
  0
ENDSEC
  0
EOF
