  0
SECTION
  2
HEADER
  9
$ACADVER
  1
AC1009
  9
$INSBASE
 10
3515.1632164474121964
 20
198.5764086757953066
 30
0.0
  9
$EXTMIN
 10
3510.6616702727678785
 20
191.1028930729081026
 30
-0.0015258207003583
  9
$EXTMAX
 10
3519.5224982353938685
 20
198.5872612178955023
 30
0.0000000349246037
  9
$LIMMIN
 10
0.0
 20
0.0
  9
$LIMMAX
 10
11.6929133858000007
 20
8.2677165353999982
  9
$ORTHOMODE
 70
     0
  9
$REGENMODE
 70
     1
  9
$FILLMODE
 70
     1
  9
$QTEXTMODE
 70
     0
  9
$MIRRTEXT
 70
     0
  9
$DRAGMODE
 70
     2
  9
$LTSCALE
 40
0.6431102362
  9
$OSMODE
 70
  2039
  9
$ATTMODE
 70
     1
  9
$TEXTSIZE
 40
0.2
  9
$TRACEWID
 40
0.05
  9
$TEXTSTYLE
  7
STANDARD
  9
$CLAYER
  8
0
  9
$CELTYPE
  6
BYLAYER
  9
$CECOLOR
 62
   256
  9
$DIMSCALE
 40
1.0
  9
$DIMASZ
 40
0.1875
  9
$DIMEXO
 40
0.0625
  9
$DIMDLI
 40
0.4443307087
  9
$DIMRND
 40
0.0
  9
$DIMDLE
 40
0.0
  9
$DIMEXE
 40
0.125
  9
$DIMTP
 40
0.01
  9
$DIMTM
 40
0.01
  9
$DIMTXT
 40
2.0
  9
$DIMCEN
 40
0.1052362205
  9
$DIMTSZ
 40
0.0
  9
$DIMTOL
 70
     1
  9
$DIMLIM
 70
     0
  9
$DIMTIH
 70
     1
  9
$DIMTOH
 70
     1
  9
$DIMSE1
 70
     0
  9
$DIMSE2
 70
     0
  9
$DIMTAD
 70
     0
  9
$DIMZIN
 70
     0
  9
$DIMBLK
  1

  9
$DIMASO
 70
     1
  9
$DIMSHO
 70
     1
  9
$DIMPOST
  1
\X
  9
$DIMAPOST
  1

  9
$DIMALT
 70
     1
  9
$DIMALTD
 70
     2
  9
$DIMALTF
 40
25.3999999999999986
  9
$DIMLFAC
 40
1.0
  9
$DIMTOFL
 70
     0
  9
$DIMTVP
 40
0.0
  9
$DIMTIX
 70
     0
  9
$DIMSOXD
 70
     0
  9
$DIMSAH
 70
     0
  9
$DIMBLK1
  1

  9
$DIMBLK2
  1

  9
$DIMSTYLE
  2
STANDARD
  9
$DIMCLRD
 70
     0
  9
$DIMCLRE
 70
     0
  9
$DIMCLRT
 70
     0
  9
$DIMTFAC
 40
1.0
  9
$DIMGAP
 40
0.09
  9
$LUNITS
 70
     2
  9
$LUPREC
 70
     4
  9
$SKETCHINC
 40
0.1
  9
$FILLETRAD
 40
0.0
  9
$AUNITS
 70
     0
  9
$AUPREC
 70
     0
  9
$MENU
  1
.
  9
$ELEVATION
 40
0.0
  9
$PELEVATION
 40
0.0
  9
$THICKNESS
 40
0.0
  9
$LIMCHECK
 70
     0
  9
$BLIPMODE
 70
     0
  9
$CHAMFERA
 40
0.0
  9
$CHAMFERB
 40
0.0
  9
$SKPOLY
 70
     0
  9
$TDCREATE
 40
2458060.468368056230247
  9
$TDUPDATE
 40
2459117.7641435191035271
  9
$TDINDWG
 40
0.573097338
  9
$TDUSRTIMER
 40
0.573097338
  9
$USRTIMER
 70
     1
  9
$ANGBASE
 50
0.0
  9
$ANGDIR
 70
     0
  9
$PDMODE
 70
     0
  9
$PDSIZE
 40
0.3125
  9
$PLINEWID
 40
0.0
  9
$COORDS
 70
     1
  9
$SPLFRAME
 70
     0
  9
$SPLINETYPE
 70
     6
  9
$SPLINESEGS
 70
     8
  9
$ATTDIA
 70
     1
  9
$ATTREQ
 70
     1
  9
$HANDLING
 70
     1
  9
$HANDSEED
  5
14150
  9
$SURFTAB1
 70
     6
  9
$SURFTAB2
 70
     6
  9
$SURFTYPE
 70
     6
  9
$SURFU
 70
     6
  9
$SURFV
 70
     6
  9
$UCSNAME
  2

  9
$UCSORG
 10
0.0
 20
0.0
 30
0.0
  9
$UCSXDIR
 10
1.0
 20
0.0
 30
0.0
  9
$UCSYDIR
 10
0.0
 20
1.0
 30
0.0
  9
$PUCSNAME
  2

  9
$PUCSORG
 10
0.0
 20
0.0
 30
0.0
  9
$PUCSXDIR
 10
1.0
 20
0.0
 30
0.0
  9
$PUCSYDIR
 10
0.0
 20
1.0
 30
0.0
  9
$USERI1
 70
     0
  9
$USERI2
 70
     0
  9
$USERI3
 70
     0
  9
$USERI4
 70
     0
  9
$USERI5
 70
     0
  9
$USERR1
 40
0.0
  9
$USERR2
 40
0.0
  9
$USERR3
 40
0.0
  9
$USERR4
 40
0.0
  9
$USERR5
 40
0.0
  9
$WORLDVIEW
 70
     1
  9
$SHADEDGE
 70
     3
  9
$SHADEDIF
 70
    70
  9
$TILEMODE
 70
     1
  9
$MAXACTVP
 70
    64
  9
$PLIMCHECK
 70
     0
  9
$PEXTMIN
 10
1.0000000000000000E+20
 20
1.0000000000000000E+20
 30
1.0000000000000000E+20
  9
$PEXTMAX
 10
-1.0000000000000000E+20
 20
-1.0000000000000000E+20
 30
-1.0000000000000000E+20
  9
$PLIMMIN
 10
0.0
 20
0.0
  9
$PLIMMAX
 10
12.0
 20
9.0
  9
$UNITMODE
 70
     0
  9
$VISRETAIN
 70
     1
  9
$PLINEGEN
 70
     0
  9
$PSLTSCALE
 70
     1
  0
ENDSEC
  0
SECTION
  2
TABLES
  0
TABLE
  2
VPORT
 70
     1
  0
VPORT
  2
*ACTIVE
 70
     0
 10
0.0
 20
0.0
 11
1.0
 21
1.0
 12
211.3989690197059019
 22
-0.4164344304859356
 13
0.0
 23
0.0
 14
1.0
 24
1.0
 15
0.0
 25
0.0
 16
0.0
 26
0.0
 36
96.5995694866707311
 17
3303.693115234375
 27
195.2615115758877096
 37
0.0
 40
7.5466513750427149
 41
2.6486111111111108
 42
50.0
 43
0.0
 44
0.0
 50
0.0
 51
0.0
 71
     0
 72
   100
 73
     1
 74
     1
 75
     0
 76
     0
 77
     0
 78
     0
  0
ENDTAB
  0
TABLE
  2
LTYPE
 70
     2
  0
LTYPE
  2
CONTINUOUS
 70
     0
  3
Solid line
 72
    65
 73
     0
 40
0.0
  0
LTYPE
  2
PHANTOM2
 70
     0
  3
___ _ _ ___ _ _ ___ _ _ ___ _ _
 72
    65
 73
     6
 40
1.25
 49
0.625
 49
-0.125
 49
0.125
 49
-0.125
 49
0.125
 49
-0.125
  0
ENDTAB
  0
TABLE
  2
LAYER
 70
     2
  0
LAYER
  2
0
 70
     0
 62
   255
  6
CONTINUOUS
  0
LAYER
  2
DEFPOINTS
 70
     0
 62
     7
  6
CONTINUOUS
  0
ENDTAB
  0
TABLE
  2
STYLE
 70
     1
  0
STYLE
  2
STANDARD
 70
     0
 40
0.0
 41
0.8
 50
0.0
 71
     0
 42
0.2
  3
txt
  4

  0
ENDTAB
  0
TABLE
  2
VIEW
 70
     0
  0
ENDTAB
  0
TABLE
  2
UCS
 70
     0
  0
ENDTAB
  0
TABLE
  2
APPID
 70
     9
  0
APPID
  2
ACAD
 70
     0
  0
APPID
  2
ACAD_MLEADERVER
 70
     0
  0
APPID
  2
ACAD_EXEMPT_FROM_CAD_STANDARDS
 70
     0
  0
APPID
  2
ACAD_NAV_VCDISPLAY
 70
     0
  0
APPID
  2
ACAECLAYERSTANDARD
 70
     0
  0
APPID
  2
ACCMTRANSPARENCY
 70
     0
  0
APPID
  2
ACAD_DSTYLE_DIMJAG
 70
     0
  0
APPID
  2
ACAD_DSTYLE_DIMTALN
 70
     0
  0
APPID
  2
ACDBATTR
 70
     0
  0
ENDTAB
  0
TABLE
  2
DIMSTYLE
 70
     1
  0
DIMSTYLE
  2
STANDARD
 70
     0
  3

  4

  5

  6

  7

 40
1.0
 41
0.1875
 42
0.0625
 43
0.38
 44
0.125
 45
0.0
 46
0.0
 47
0.01
 48
0.01
140
0.15625
141
0.09
142
0.0
143
25.3999999999999986
144
1.0
145
0.0
146
1.0
147
0.09
 71
     1
 72
     0
 73
     1
 74
     1
 75
     0
 76
     0
 77
     0
 78
     4
170
     0
171
     2
172
     0
173
     0
174
     0
175
     0
176
     0
177
     0
178
     0
  0
ENDTAB
  0
ENDSEC
  0
SECTION
  2
BLOCKS
  0
BLOCK
  8
0
  2
$MODEL_SPACE
 70
     0
 10
0.0
 20
0.0
 30
0.0
  3
$MODEL_SPACE
  1

  0
ENDBLK
  5
21
  8
0
  0
BLOCK
 67
     1
  8
0
  2
$PAPER_SPACE
 70
     0
 10
0.0
 20
0.0
 30
0.0
  3
$PAPER_SPACE
  1

  0
ENDBLK
  5
1D
 67
     1
  8
0
  0
BLOCK
  8
0
  2
_FILLED
 70
     0
 10
0.0
 20
0.0
 30
0.0
  3
_FILLED
  1

  0
SOLID
  5
9E2C
  8
0
  6
BYBLOCK
 62
     0
 10
0.0
 20
0.0
 30
0.0
 11
-1.0
 21
0.1666666667
 31
0.0
 12
-1.0
 22
-0.1666666667
 32
0.0
 13
-1.0
 23
-0.1666666667
 33
0.0
  0
ENDBLK
  5
9E2D
  8
0
  6
BYBLOCK
 62
     0
  0
BLOCK
  8
0
  2
A$C6B0F1CD5
 70
     2
 10
0.0
 20
0.0
 30
0.0
  3
A$C6B0F1CD5
  1

  0
ATTDEF
  5
B779
  8
DEFPOINTS
 10
0.0005209962714616
 20
0.000347009907216
 30
0.0
 40
0.001
  1
BATH FAUCET
  3

  2
PRODUCT
 70
     0
1001
ACDBATTR
1070
     0
1070
     1
  0
ATTDEF
  5
B77A
  8
DEFPOINTS
 10
0.0005209962714616
 20
0.0020136765738812
 30
0.0
 40
0.001
  1
SINGULIER
  3

  2
TRADENAME
 70
     0
1001
ACDBATTR
1070
     0
1070
     1
  0
ATTDEF
  5
B77B
  8
DEFPOINTS
 10
0.0005209962714616
 20
0.0036803432405463
 30
0.0
 40
0.001
  1
K-10873W
  3

  2
MODELNUMBER
 70
     0
1001
ACDBATTR
1070
     0
1070
     1
  0
ENDBLK
  5
B77F
  8
0
  0
ENDSEC
  0
SECTION
  2
ENTITIES
  0
ATTDEF
  5
13059
  8
DEFPOINTS
 10
3515.1635804608258695
 20
198.5802005382288939
 30
0.0
 40
0.001
  1
K-99460IN-4
  3

  2
MODELNUMBER
 70
     0
1001
ACDBATTR
1070
     0
1070
     1
  0
ATTDEF
  5
1305A
  8
DEFPOINTS
 10
3515.1635804608258695
 20
198.5785338715622004
 30
0.0
 40
0.001
  1
KUMIN
  3

  2
TRADENAME
 70
     0
1001
ACDBATTR
1070
     0
1070
     1
  0
ATTDEF
  5
1305B
  8
DEFPOINTS
 10
3515.1635804608258695
 20
198.5768672048955068
 30
0.0
 40
0.001
  1
BATH AND SHOWER FAUCET
  3

  2
PRODUCT
 70
     0
1001
ACDBATTR
1070
     0
1070
     1
  0
LINE
  5
13E0B
  8
0
 10
3519.4009604785119336
 20
198.5764086757453128
 30
0.0
 11
3516.8364470016617815
 21
198.5764086758453004
 31
0.0
  0
ARC
  5
13E0C
  8
0
 10
3516.836447001660872
 20
198.5567236364460939
 30
0.0
 40
0.0196850393992278
 50
89.9999999977592609
 51
180.0000000022536994
  0
LINE
  5
13E0D
  8
0
 10
3516.8167619622631719
 20
198.5567236364452981
 30
0.0
 11
3516.8167619622668099
 21
198.4346763923452954
 31
0.0
  0
ARC
  5
13E0E
  8
0
 10
3517.013612355990972
 20
198.4346763923531114
 30
0.0
 40
0.1968503937235679
 50
180.0000000022536994
 51
231.9999999948886114
  0
ARC
  5
13E0F
  8
0
 10
-202887.7039098753011785
 20
-263987.5563127108034678
 30
0.0
 40
335256.6379051808035001
 50
51.9998684569554683
 51
51.9999999948886327
  0
ARC
  5
13E10
  8
0
 10
3517.5474022958060232
 20
197.8677414445695035
 30
0.0
 40
0.0787343436991881
 50
231.9998684569553973
 51
270.0025010351611741
  0
LINE
  5
13E11
  8
0
 10
3517.5474057326628099
 20
197.7890071009452981
 30
0.0
 11
3518.6845433876787865
 21
197.7890567384804967
 31
0.0
  0
ARC
  5
13E12
  8
0
 10
3518.6845399420490139
 20
197.8679920735420126
 30
0.0
 40
0.0789353351366763
 50
270.0025010351611741
 51
307.8925678690682162
  0
ARC
  5
13E13
  8
0
 10
3392.6004334283438766
 20
359.8735079061206079
 30
0.0
 40
205.3665118602133077
 50
307.8925678690682162
 51
308.1073005716248758
  0
ARC
  5
13E14
  8
0
 10
3519.2177979416660492
 20
198.4419868342000939
 30
0.0
 40
0.2029846620516957
 50
306.8491645817804283
 51
357.9360604851759149
  0
LINE
  5
13E15
  8
0
 10
3518.68684082016307
 20
197.7299516885452988
 30
0.0
 11
3517.5451085366621555
 21
197.7299522771452871
 31
0.0
  0
LINE
  5
13E16
  8
0
 10
3517.5451085366621555
 20
197.7299522771452871
 30
0.0
 11
3517.4860533881628726
 21
197.6708971895452862
 31
0.0
  0
LINE
  5
13E17
  8
0
 10
3517.4860533881628726
 20
197.6708971895452862
 30
0.0
 11
3517.4860531436302153
 21
197.198456244645314
 31
0.0
  0
LINE
  5
13E18
  8
0
 10
3517.4860531436302153
 20
197.198456244645314
 30
0.0
 11
3517.5451082322620096
 21
197.1394010960453045
 31
0.0
  0
LINE
  5
13E19
  8
0
 10
3517.5451082322620096
 20
197.1394010960453045
 30
0.0
 11
3518.6868405156628796
 21
197.1393993861452998
 31
0.0
  0
LINE
  5
13E1A
  8
0
 10
3518.6868405156628796
 20
197.1393993861452998
 30
0.0
 11
3518.745895664262207
 21
197.1984544738452882
 31
0.0
  0
LINE
  5
13E1B
  8
0
 10
3518.745895664262207
 20
197.1984544738452882
 30
0.0
 11
3518.7458959078630869
 21
197.6708965399452893
 31
0.0
  0
LINE
  5
13E1C
  8
0
 10
3518.7458959078630869
 20
197.6708965399452893
 30
0.0
 11
3518.68684082016307
 21
197.7299516885452988
 31
0.0
  0
LINE
  5
13E1D
  8
0
 10
3518.6297540882628709
 20
197.7299517179752968
 30
0.0
 11
3518.6297540882628709
 21
197.7890543468564886
 31
0.0
  0
LINE
  5
13E1E
  8
0
 10
3517.6021950331628432
 20
197.7299522477453024
 30
0.0
 11
3517.6021950331628432
 21
197.7890094925693916
 31
0.0
  0
LINE
  5
13E1F
  8
0
 10
3519.3395313989208262
 20
198.2795561652453102
 30
0.0
 11
3516.8924191521750799
 21
198.2795561652453102
 31
0.0
  0
ARC
  5
13E20
  8
0
 10
3519.4009566580070896
 20
198.5567144129284998
 30
0.0
 40
0.01969426328744
 50
0.0268336317078574
 51
89.9888851474299685
  0
LINE
  5
13E21
  8
0
 10
3519.4206509191349141
 20
198.5567236364452981
 30
0.0
 11
3519.4206509191349141
 21
198.4346763923452954
 31
0.0
  0
LINE
  5
13E22
  8
0
 10
3518.7065203413121708
 20
197.670896337495293
 30
0.0
 11
3518.7065203413121708
 21
197.1984558067952946
 31
0.0
  0
LINE
  5
13E23
  8
0
 10
3518.7458956642631165
 20
197.1984558419358962
 30
0.0
 11
3518.6010803956119162
 21
197.1984557126953064
 31
0.0
  0
ARC
  5
13E24
  8
0
 10
3518.4112447508459809
 20
197.636479168945101
 30
0.0
 40
0.4773909512347318
 50
246.5685011794157049
 51
293.4314988205842951
  0
LINE
  5
13E25
  8
0
 10
3518.2214091058121994
 20
197.1984557126953064
 30
0.0
 11
3518.0105292145121894
 21
197.1984559008953113
 31
0.0
  0
ARC
  5
13E26
  8
0
 10
3517.820693700000902
 20
197.6365500429749034
 30
0.0
 40
0.4774560333709902
 50
246.5718688740666096
 51
293.4280970205271046
  0
LINE
  5
13E27
  8
0
 10
3517.6308579247120178
 20
197.1984557126953064
 30
0.0
 11
3517.4860535463490123
 21
197.1984558419262044
 31
0.0
  0
LINE
  5
13E28
  8
0
 10
3517.5254179791131719
 20
197.1984558067952946
 30
0.0
 11
3517.5254179791131719
 21
197.670896337495293
 31
0.0
  0
LINE
  5
13E29
  8
0
 10
3518.7458959078630869
 20
197.6708963023544925
 30
0.0
 11
3518.6010803956119162
 21
197.6708964315953097
 31
0.0
  0
ARC
  5
13E2A
  8
0
 10
3518.4112447508459809
 20
197.2328729753454866
 30
0.0
 40
0.4773909512347318
 50
66.5685011794156622
 51
113.4314988205842951
  0
LINE
  5
13E2B
  8
0
 10
3518.2214091058121994
 20
197.6708964315953097
 30
0.0
 11
3518.0105292145121894
 21
197.6708962433953047
 31
0.0
  0
ARC
  5
13E2C
  8
0
 10
3517.820693700000902
 20
197.2328021013157979
 30
0.0
 40
0.4774560333709902
 50
66.5719029794729522
 51
113.4281311259334046
  0
LINE
  5
13E2D
  8
0
 10
3517.6308579247120178
 20
197.6708964315953097
 30
0.0
 11
3517.4860533881619631
 21
197.670896302364298
 31
0.0
  0
LINE
  5
13E2E
  8
0
 10
3518.6010803956119162
 20
197.6708964315953097
 30
0.0
 11
3518.6010803956119162
 21
197.1984557126953064
 31
0.0
  0
LINE
  5
13E2F
  8
0
 10
3518.2214091058121994
 20
197.6708964315616015
 30
0.0
 11
3518.2214091058121994
 21
197.1984557127289861
 31
0.0
  0
LINE
  5
13E30
  8
0
 10
3518.0105292145121894
 20
197.6708962433953047
 30
0.0
 11
3518.0105292145121894
 21
197.1984559008953113
 31
0.0
  0
LINE
  5
13E31
  8
0
 10
3517.6308579247120178
 20
197.6708964315953097
 30
0.0
 11
3517.6308579247120178
 21
197.1984557126953064
 31
0.0
  0
LINE
  5
13E32
  8
0
 10
3511.5407784701060336
 20
197.052786456395296
 30
0.0
 11
3518.785654424718814
 21
197.052786456395296
 31
0.0
  0
LINE
  5
13E33
  8
0
 10
3518.785654424718814
 20
197.052786456395296
 30
0.0
 11
3518.7856522678889633
 21
196.7771953874888879
 31
0.0
  0
ARC
  5
13E34
  8
0
 10
3517.8214846679088623
 20
196.7818850817403131
 30
0.0
 40
0.9641790052089005
 50
269.9527776639623085
 51
359.7213165337075793
  0
LINE
  5
13E35
  8
0
 10
3517.8206900058889914
 20
195.8177064040058042
 30
0.0
 11
3517.4025071471919546
 21
195.817704449423303
 31
0.0
  0
ARC
  5
13E36
  8
0
 10
3517.0703263681812132
 20
194.5012004795227938
 30
0.0
 40
1.3083373122455031
 50
92.816344116155463
 51
111.971430218430001
  0
ARC
  5
13E37
  8
0
 10
3516.8476171977667946
 20
195.0595072229529023
 30
0.0
 40
0.7072586572166115
 50
112.162075425158406
 51
163.364654941613594
  0
ARC
  5
13E38
  8
0
 10
3517.8808437111561034
 20
194.7568621369987056
 30
0.0
 40
1.7838912209786619
 50
163.551370427012813
 51
177.3648680010863075
  0
LINE
  5
13E39
  8
0
 10
3516.0988388359492092
 20
194.838877458872588
 30
0.0
 11
3516.0988388359492092
 21
192.3333289489953017
 31
0.0
  0
ARC
  5
13E3A
  8
0
 10
3572.5705521233649051
 20
188.0684535298634046
 30
0.0
 40
56.6325309690186671
 50
175.6810878750420954
 51
176.1608945133349096
  0
ARC
  5
13E3B
  8
0
 10
3515.3858854245181647
 20
191.9363295073848121
 30
0.0
 40
0.6834632913349376
 50
333.5756682723862241
 51
353.6113554237956009
  0
ARC
  5
13E3C
  8
0
 10
3515.1632122202117898
 20
192.0329523978952864
 30
0.0
 40
0.9259561775000049
 50
270.000261568230826
 51
334.3531834574037021
  0
ARC
  5
13E3D
  8
0
 10
3515.1592869596711353
 20
196.0352052505787981
 30
0.0
 40
0.8186418030565732
 50
2.387209944353474
 51
89.7249787061985415
  0
ARC
  5
13E3E
  8
0
 10
3513.9589250494191219
 20
194.0084361969647944
 30
0.0
 40
2.0296260080375919
 50
339.3436971396197919
 51
353.9424142381138267
  0
ARC
  5
13E3F
  8
0
 10
3515.167234144736085
 20
193.6225957607304053
 30
0.0
 40
0.7656678747152985
 50
269.6993498564942797
 51
334.4461704571655218
  0
ARC
  5
13E40
  8
0
 10
3517.3318409592598073
 20
190.6255317033802044
 30
0.0
 40
5.192656081247792
 50
89.2201525049921145
 51
93.5971406112835638
  0
LINE
  5
13E41
  8
0
 10
3517.6947176246130766
 20
197.0527876280478097
 30
0.0
 11
3517.6947177543279395
 21
197.1394008719846056
 31
0.0
  0
LINE
  5
13E42
  8
0
 10
3518.53723730961201
 20
197.0527877497953
 30
0.0
 11
3518.53723730961201
 21
197.1393996101965911
 31
0.0
  0
ARC
  5
13E43
  8
0
 10
3517.4347272822519699
 20
197.052956762597006
 30
0.0
 40
0.0207238646051601
 50
359.5319609112304988
 51
56.0224196324691803
  0
ARC
  5
13E44
  8
0
 10
3517.4386714886682057
 20
197.0588092275723113
 30
0.0
 40
0.0136663784704072
 50
56.0224196324691803
 51
91.2475798736360986
  0
LINE
  5
13E45
  8
0
 10
3517.4383739353120291
 20
197.0724723663952886
 30
0.0
 11
3512.8874342775411606
 21
197.0724716902846012
 31
0.0
  0
LINE
  5
13E46
  8
0
 10
3515.9772183069330822
 20
196.0693038264475945
 30
0.0
 11
3515.9772183069330822
 21
193.7942538933633898
 31
0.0
  0
LINE
  5
13E47
  8
0
 10
3510.925472416312914
 20
198.5764086757453128
 30
0.0
 11
3513.4899858931621566
 21
198.5764086758453004
 31
0.0
  0
ARC
  5
13E48
  8
0
 10
3513.4899858931630661
 20
198.5567236364460939
 30
0.0
 40
0.0196850393992278
 50
359.9999999977462153
 51
90.0000000022407391
  0
LINE
  5
13E49
  8
0
 10
3513.5096709325621305
 20
198.5567236364452981
 30
0.0
 11
3513.5096709325571283
 21
198.4346763923452954
 31
0.0
  0
ARC
  5
13E4A
  8
0
 10
3513.3128205388338756
 20
198.4346763923531114
 30
0.0
 40
0.1968503937235679
 50
308.0000000051114171
 51
359.9999999977462153
  0
ARC
  5
13E4B
  8
0
 10
209918.0303427701001056
 20
-263987.5563127108034678
 30
0.0
 40
335256.6379051808035001
 50
128.0000000051113886
 51
128.000131543044489
  0
ARC
  5
13E4C
  8
0
 10
3512.7790305990179149
 20
197.8677414445695035
 30
0.0
 40
0.0787343436991881
 50
269.9974989648388259
 51
308.0001315430445743
  0
LINE
  5
13E4D
  8
0
 10
3512.7790271621620377
 20
197.7890071009452981
 30
0.0
 11
3511.6418895071460611
 21
197.7890567384804967
 31
0.0
  0
ARC
  5
13E4E
  8
0
 10
3511.6418929527758337
 20
197.8679920735420126
 30
0.0
 40
0.0789353351366763
 50
232.1074321309318123
 51
269.9974989648388259
  0
ARC
  5
13E4F
  8
0
 10
3637.725999466480971
 20
359.8735079061206079
 30
0.0
 40
205.3665118602133077
 50
231.8926994283750957
 51
232.1074321309318123
  0
ARC
  5
13E50
  8
0
 10
3511.1086349531601627
 20
198.4419868342000939
 30
0.0
 40
0.2029846620516957
 50
182.0639395148241135
 51
233.1508354182197138
  0
LINE
  5
13E51
  8
0
 10
3511.6395920746631418
 20
197.7299516885452988
 30
0.0
 11
3512.7813243581617826
 21
197.7299522771452871
 31
0.0
  0
LINE
  5
13E52
  8
0
 10
3512.7813243581617826
 20
197.7299522771452871
 30
0.0
 11
3512.840379506661975
 21
197.6708971895452862
 31
0.0
  0
LINE
  5
13E53
  8
0
 10
3512.840379506661975
 20
197.6708971895452862
 30
0.0
 11
3512.840379751195087
 21
197.198456244645314
 31
0.0
  0
LINE
  5
13E54
  8
0
 10
3512.840379751195087
 20
197.198456244645314
 30
0.0
 11
3512.7813246625628381
 21
197.1394010960453045
 31
0.0
  0
LINE
  5
13E55
  8
0
 10
3512.7813246625628381
 20
197.1394010960453045
 30
0.0
 11
3511.639592379161968
 21
197.1393993861452998
 31
0.0
  0
LINE
  5
13E56
  8
0
 10
3511.639592379161968
 20
197.1393993861452998
 30
0.0
 11
3511.5805372305630954
 21
197.1984544738452882
 31
0.0
  0
LINE
  5
13E57
  8
0
 10
3511.5805372305630954
 20
197.1984544738452882
 30
0.0
 11
3511.5805369869631249
 21
197.6708965399452893
 31
0.0
  0
LINE
  5
13E58
  8
0
 10
3511.5805369869631249
 20
197.6708965399452893
 30
0.0
 11
3511.6395920746631418
 21
197.7299516885452988
 31
0.0
  0
LINE
  5
13E59
  8
0
 10
3511.6966788065619767
 20
197.7299517179752968
 30
0.0
 11
3511.6966788065619767
 21
197.7890543468564886
 31
0.0
  0
LINE
  5
13E5A
  8
0
 10
3512.7242378616620044
 20
197.7299522477453024
 30
0.0
 11
3512.7242378616620044
 21
197.7890094925693916
 31
0.0
  0
LINE
  5
13E5B
  8
0
 10
3510.9869014959040214
 20
198.2795561652453102
 30
0.0
 11
3513.4340137426502224
 21
198.2795561652453102
 31
0.0
  0
ARC
  5
13E5C
  8
0
 10
3510.9254762368168485
 20
198.5567144129284998
 30
0.0
 40
0.01969426328744
 50
90.0111148525700457
 51
179.9731663682921123
  0
LINE
  5
13E5D
  8
0
 10
3510.9057819756899335
 20
198.5567236364452981
 30
0.0
 11
3510.9057819756899335
 21
198.4346763923452954
 31
0.0
  0
LINE
  5
13E5E
  8
0
 10
3511.6199125535131316
 20
197.670896337495293
 30
0.0
 11
3511.6199125535131316
 21
197.1984558067952946
 31
0.0
  0
LINE
  5
13E5F
  8
0
 10
3511.5805372305621859
 20
197.1984558419358962
 30
0.0
 11
3511.7253524992120219
 21
197.1984557126953064
 31
0.0
  0
ARC
  5
13E60
  8
0
 10
3511.9151881439788667
 20
197.636479168945101
 30
0.0
 40
0.4773909512347318
 50
246.5685011794157049
 51
293.4314988205842951
  0
LINE
  5
13E61
  8
0
 10
3512.1050237890131029
 20
197.1984557126953064
 30
0.0
 11
3512.3159036803122035
 21
197.1984559008953113
 31
0.0
  0
ARC
  5
13E62
  8
0
 10
3512.5057391948239456
 20
197.6365500429749034
 30
0.0
 40
0.4774560333709902
 50
246.5719029794730091
 51
293.4281311259334757
  0
LINE
  5
13E63
  8
0
 10
3512.6955749701128298
 20
197.1984557126953064
 30
0.0
 11
3512.8403793484758353
 21
197.1984558419262044
 31
0.0
  0
LINE
  5
13E64
  8
0
 10
3512.8010149157121305
 20
197.1984558067952946
 30
0.0
 11
3512.8010149157121305
 21
197.670896337495293
 31
0.0
  0
LINE
  5
13E65
  8
0
 10
3511.5805369869631249
 20
197.6708963023544925
 30
0.0
 11
3511.7253524992120219
 21
197.6708964315953097
 31
0.0
  0
ARC
  5
13E66
  8
0
 10
3511.9151881439788667
 20
197.2328729753454866
 30
0.0
 40
0.4773909512347318
 50
66.5685011794156622
 51
113.4314988205842951
  0
LINE
  5
13E67
  8
0
 10
3512.1050237890131029
 20
197.6708964315953097
 30
0.0
 11
3512.3159036803122035
 21
197.6708962433953047
 31
0.0
  0
ARC
  5
13E68
  8
0
 10
3512.5057391948239456
 20
197.2328021013157979
 30
0.0
 40
0.4774560333709902
 50
66.5718688740665527
 51
113.4280970205270052
  0
LINE
  5
13E69
  8
0
 10
3512.6955749701128298
 20
197.6708964315953097
 30
0.0
 11
3512.8403795066628845
 21
197.670896302364298
 31
0.0
  0
LINE
  5
13E6A
  8
0
 10
3511.7253524992120219
 20
197.6708964315953097
 30
0.0
 11
3511.7253524992120219
 21
197.1984557126953064
 31
0.0
  0
LINE
  5
13E6B
  8
0
 10
3512.1050237890131029
 20
197.6708964315616015
 30
0.0
 11
3512.1050237890131029
 21
197.1984557127289861
 31
0.0
  0
LINE
  5
13E6C
  8
0
 10
3512.3159036803122035
 20
197.6708962433953047
 30
0.0
 11
3512.3159036803122035
 21
197.1984559008953113
 31
0.0
  0
LINE
  5
13E6D
  8
0
 10
3512.6955749701128298
 20
197.6708964315953097
 30
0.0
 11
3512.6955749701128298
 21
197.1984557126953064
 31
0.0
  0
LINE
  5
13E6E
  8
0
 10
3511.5407784701060336
 20
197.052786456395296
 30
0.0
 11
3511.5407806269358844
 21
196.7771953874888879
 31
0.0
  0
ARC
  5
13E6F
  8
0
 10
3512.5049482269159853
 20
196.7818850817403131
 30
0.0
 40
0.9641790052089005
 50
180.2786834662923923
 51
270.0472223360376915
  0
LINE
  5
13E70
  8
0
 10
3512.5057428889358562
 20
195.8177064040058042
 30
0.0
 11
3512.923925747632893
 21
195.817704449423303
 31
0.0
  0
ARC
  5
13E71
  8
0
 10
3513.2561065266440892
 20
194.5012004795227938
 30
0.0
 40
1.3083373122455031
 50
68.0285697815700132
 51
87.1836558838445654
  0
ARC
  5
13E72
  8
0
 10
3513.478815697058053
 20
195.0595072229529023
 30
0.0
 40
0.7072586572166115
 50
16.6353450583863989
 51
67.8379245748415656
  0
ARC
  5
13E73
  8
0
 10
3512.445589183669199
 20
194.7568621369987056
 30
0.0
 40
1.7838912209786619
 50
2.6351319989137441
 51
16.4486295729872012
  0
LINE
  5
13E74
  8
0
 10
3514.2275940588760932
 20
194.838877458872588
 30
0.0
 11
3514.2275940588760932
 21
192.3333289489953017
 31
0.0
  0
ARC
  5
13E75
  8
0
 10
3457.7558807714599425
 20
188.0684535298634046
 30
0.0
 40
56.6325309690186671
 50
3.839105486665094
 51
4.3189121249578299
  0
ARC
  5
13E76
  8
0
 10
3514.9405474703071377
 20
191.9363295073848121
 30
0.0
 40
0.6834632913349376
 50
186.3886445762043991
 51
206.424331727612298
  0
ARC
  5
13E77
  8
0
 10
3515.1632206746121483
 20
192.0329523978952864
 30
0.0
 40
0.9259561775000049
 50
205.6468165425962127
 51
269.999738431769174
  0
ARC
  5
13E78
  8
0
 10
3515.1671459351541671
 20
196.0352052505787981
 30
0.0
 40
0.8186418030565732
 50
90.2750212938014442
 51
177.6127900556465136
  0
ARC
  5
13E79
  8
0
 10
3516.3675078454048162
 20
194.0084361969647944
 30
0.0
 40
2.0296260080375919
 50
186.0575857618862017
 51
200.6563028603802081
  0
ARC
  5
13E7A
  8
0
 10
3515.1591987500892174
 20
193.6225957607304053
 30
0.0
 40
0.7656678747152985
 50
205.5538295428360129
 51
270.3006501435057203
  0
ARC
  5
13E7B
  8
0
 10
3512.9945919355650403
 20
190.6255317033802044
 30
0.0
 40
5.192656081247792
 50
86.4028593887164647
 51
90.7798474950078713
  0
LINE
  5
13E7C
  8
0
 10
3512.6317152702122257
 20
197.0527876280478097
 30
0.0
 11
3512.6317151404969081
 21
197.1394008719846056
 31
0.0
  0
LINE
  5
13E7D
  8
0
 10
3511.7891955852119281
 20
197.0527877497953
 30
0.0
 11
3511.7891955852119281
 21
197.1393996101965911
 31
0.0
  0
ARC
  5
13E7E
  8
0
 10
3512.8917056125728777
 20
197.052956762597006
 30
0.0
 40
0.0207238646051601
 50
123.9775803675308055
 51
180.4680390887693875
  0
ARC
  5
13E7F
  8
0
 10
3512.8877614061570966
 20
197.0588092275723113
 30
0.0
 40
0.0136663784704072
 50
88.7524201263638872
 51
123.9775803675308055
  0
LINE
  5
13E80
  8
0
 10
3514.3492145878922202
 20
196.0693038264475945
 30
0.0
 11
3514.3492145878922202
 21
193.7942538933633898
 31
0.0
  0
ENDSEC
  0
EOF
