  0
SECTION
  2
HEADER
  9
$ACADVER
  1
AC1009
  9
$INSBASE
 10
2920.4781773078511833
 20
77.0148860957542638
 30
0.0
  9
$EXTMIN
 10
2917.702896648722799
 20
73.3380622097167247
 30
0.0
  9
$EXTMAX
 10
2923.2534579669782033
 20
80.6916860957543065
 30
0.0
  9
$LIMMIN
 10
0.0
 20
0.0
  9
$LIMMAX
 10
11.6929133858000007
 20
8.2677165353999982
  9
$ORTHOMODE
 70
     1
  9
$REGENMODE
 70
     1
  9
$FILLMODE
 70
     1
  9
$QTEXTMODE
 70
     0
  9
$MIRRTEXT
 70
     0
  9
$DRAGMODE
 70
     2
  9
$LTSCALE
 40
0.6431102362
  9
$OSMODE
 70
  4095
  9
$ATTMODE
 70
     1
  9
$TEXTSIZE
 40
0.2
  9
$TRACEWID
 40
0.05
  9
$TEXTSTYLE
  7
STANDARD
  9
$CLAYER
  8
0
  9
$CELTYPE
  6
BYLAYER
  9
$CECOLOR
 62
   256
  9
$DIMSCALE
 40
1.0
  9
$DIMASZ
 40
0.1875
  9
$DIMEXO
 40
0.0625
  9
$DIMDLI
 40
0.4443307087
  9
$DIMRND
 40
0.0
  9
$DIMDLE
 40
0.0
  9
$DIMEXE
 40
0.125
  9
$DIMTP
 40
0.01
  9
$DIMTM
 40
0.01
  9
$DIMTXT
 40
2.0
  9
$DIMCEN
 40
0.1052362205
  9
$DIMTSZ
 40
0.0
  9
$DIMTOL
 70
     1
  9
$DIMLIM
 70
     0
  9
$DIMTIH
 70
     1
  9
$DIMTOH
 70
     1
  9
$DIMSE1
 70
     0
  9
$DIMSE2
 70
     0
  9
$DIMTAD
 70
     0
  9
$DIMZIN
 70
     0
  9
$DIMBLK
  1

  9
$DIMASO
 70
     1
  9
$DIMSHO
 70
     1
  9
$DIMPOST
  1
\X
  9
$DIMAPOST
  1

  9
$DIMALT
 70
     1
  9
$DIMALTD
 70
     2
  9
$DIMALTF
 40
25.3999999999999986
  9
$DIMLFAC
 40
1.0
  9
$DIMTOFL
 70
     0
  9
$DIMTVP
 40
0.0
  9
$DIMTIX
 70
     0
  9
$DIMSOXD
 70
     0
  9
$DIMSAH
 70
     0
  9
$DIMBLK1
  1

  9
$DIMBLK2
  1

  9
$DIMSTYLE
  2
STANDARD
  9
$DIMCLRD
 70
     0
  9
$DIMCLRE
 70
     0
  9
$DIMCLRT
 70
     0
  9
$DIMTFAC
 40
1.0
  9
$DIMGAP
 40
0.09
  9
$LUNITS
 70
     2
  9
$LUPREC
 70
     4
  9
$SKETCHINC
 40
0.1
  9
$FILLETRAD
 40
0.0
  9
$AUNITS
 70
     0
  9
$AUPREC
 70
     0
  9
$MENU
  1
.
  9
$ELEVATION
 40
0.0
  9
$PELEVATION
 40
0.0
  9
$THICKNESS
 40
0.0
  9
$LIMCHECK
 70
     0
  9
$BLIPMODE
 70
     0
  9
$CHAMFERA
 40
0.0
  9
$CHAMFERB
 40
0.0
  9
$SKPOLY
 70
     0
  9
$TDCREATE
 40
2458060.468368056230247
  9
$TDUPDATE
 40
2459769.8155671302229166
  9
$TDINDWG
 40
0.490921412
  9
$TDUSRTIMER
 40
0.490921412
  9
$USRTIMER
 70
     1
  9
$ANGBASE
 50
0.0
  9
$ANGDIR
 70
     0
  9
$PDMODE
 70
     0
  9
$PDSIZE
 40
0.3125
  9
$PLINEWID
 40
0.0
  9
$COORDS
 70
     1
  9
$SPLFRAME
 70
     0
  9
$SPLINETYPE
 70
     6
  9
$SPLINESEGS
 70
     8
  9
$ATTDIA
 70
     1
  9
$ATTREQ
 70
     1
  9
$HANDLING
 70
     1
  9
$HANDSEED
  5
2F492
  9
$SURFTAB1
 70
     6
  9
$SURFTAB2
 70
     6
  9
$SURFTYPE
 70
     6
  9
$SURFU
 70
     6
  9
$SURFV
 70
     6
  9
$UCSNAME
  2

  9
$UCSORG
 10
0.0
 20
0.0
 30
0.0
  9
$UCSXDIR
 10
1.0
 20
0.0
 30
0.0
  9
$UCSYDIR
 10
0.0
 20
1.0
 30
0.0
  9
$PUCSNAME
  2

  9
$PUCSORG
 10
0.0
 20
0.0
 30
0.0
  9
$PUCSXDIR
 10
1.0
 20
0.0
 30
0.0
  9
$PUCSYDIR
 10
0.0
 20
1.0
 30
0.0
  9
$USERI1
 70
     0
  9
$USERI2
 70
     0
  9
$USERI3
 70
     0
  9
$USERI4
 70
     0
  9
$USERI5
 70
     0
  9
$USERR1
 40
0.0
  9
$USERR2
 40
0.0
  9
$USERR3
 40
0.0
  9
$USERR4
 40
0.0
  9
$USERR5
 40
0.0
  9
$WORLDVIEW
 70
     1
  9
$SHADEDGE
 70
     3
  9
$SHADEDIF
 70
    70
  9
$TILEMODE
 70
     1
  9
$MAXACTVP
 70
    64
  9
$PLIMCHECK
 70
     0
  9
$PEXTMIN
 10
1.0000000000000000E+20
 20
1.0000000000000000E+20
 30
1.0000000000000000E+20
  9
$PEXTMAX
 10
-1.0000000000000000E+20
 20
-1.0000000000000000E+20
 30
-1.0000000000000000E+20
  9
$PLIMMIN
 10
0.0
 20
0.0
  9
$PLIMMAX
 10
12.0
 20
9.0
  9
$UNITMODE
 70
     0
  9
$VISRETAIN
 70
     1
  9
$PLINEGEN
 70
     0
  9
$PSLTSCALE
 70
     1
  0
ENDSEC
  0
SECTION
  2
TABLES
  0
TABLE
  2
VPORT
 70
     1
  0
VPORT
  2
*ACTIVE
 70
     0
 10
0.0
 20
0.0
 11
1.0
 21
1.0
 12
0.0
 22
0.0
 13
0.0
 23
0.0
 14
1.0
 24
1.0
 15
0.0
 25
0.0
 16
0.0
 26
0.0
 36
26.1922130049195587
 17
2920.4781494140620453
 27
77.0148735046386719
 37
0.0
 40
9.2170189197859518
 41
2.127494456762749
 42
50.0
 43
0.0
 44
0.0
 50
0.0
 51
0.0
 71
     0
 72
   100
 73
     1
 74
     1
 75
     0
 76
     0
 77
     0
 78
     0
  0
ENDTAB
  0
TABLE
  2
LTYPE
 70
     2
  0
LTYPE
  2
CONTINUOUS
 70
     0
  3
Solid line
 72
    65
 73
     0
 40
0.0
  0
LTYPE
  2
PHANTOM2
 70
     0
  3
___ _ _ ___ _ _ ___ _ _ ___ _ _
 72
    65
 73
     6
 40
1.25
 49
0.625
 49
-0.125
 49
0.125
 49
-0.125
 49
0.125
 49
-0.125
  0
ENDTAB
  0
TABLE
  2
LAYER
 70
     3
  0
LAYER
  2
0
 70
     0
 62
   255
  6
CONTINUOUS
  0
LAYER
  2
DEFPOINTS
 70
     0
 62
     7
  6
CONTINUOUS
  0
ENDTAB
  0
TABLE
  2
STYLE
 70
     1
  0
STYLE
  2
STANDARD
 70
     0
 40
0.0
 41
0.8
 50
0.0
 71
     0
 42
0.2
  3
txt
  4

  0
ENDTAB
  0
TABLE
  2
VIEW
 70
     0
  0
ENDTAB
  0
TABLE
  2
UCS
 70
     0
  0
ENDTAB
  0
TABLE
  2
APPID
 70
    10
  0
APPID
  2
ACAD
 70
     0
  0
APPID
  2
ACAD_MLEADERVER
 70
     0
  0
APPID
  2
ACAD_EXEMPT_FROM_CAD_STANDARDS
 70
     0
  0
APPID
  2
ACAD_NAV_VCDISPLAY
 70
     0
  0
APPID
  2
ACAECLAYERSTANDARD
 70
     0
  0
APPID
  2
ACCMTRANSPARENCY
 70
     0
  0
APPID
  2
ACAD_DSTYLE_DIMJAG
 70
     0
  0
APPID
  2
ACAD_DSTYLE_DIMTALN
 70
     0
  0
APPID
  2
ACDBATTR
 70
     0
  0
APPID
  2
DCO15
 70
     0
  0
ENDTAB
  0
TABLE
  2
DIMSTYLE
 70
     1
  0
DIMSTYLE
  2
STANDARD
 70
     0
  3

  4

  5

  6

  7

 40
1.0
 41
0.1875
 42
0.0625
 43
0.38
 44
0.125
 45
0.0
 46
0.0
 47
0.01
 48
0.01
140
0.15625
141
0.09
142
0.0
143
25.3999999999999986
144
1.0
145
0.0
146
1.0
147
0.09
 71
     1
 72
     0
 73
     1
 74
     1
 75
     0
 76
     0
 77
     0
 78
     4
170
     0
171
     2
172
     0
173
     0
174
     0
175
     0
176
     0
177
     0
178
     0
  0
ENDTAB
  0
ENDSEC
  0
SECTION
  2
BLOCKS
  0
BLOCK
  8
0
  2
$MODEL_SPACE
 70
     0
 10
0.0
 20
0.0
 30
0.0
  3
$MODEL_SPACE
  1

  0
ENDBLK
  5
21
  8
0
  0
BLOCK
 67
     1
  8
0
  2
$PAPER_SPACE
 70
     0
 10
0.0
 20
0.0
 30
0.0
  3
$PAPER_SPACE
  1

  0
ENDBLK
  5
1D
 67
     1
  8
0
  0
ENDSEC
  0
SECTION
  2
ENTITIES
  0
ATTDEF
  5
2F277
  8
DEFPOINTS
 10
2920.4728054380470894
 20
77.0129734537122062
 30
0.0
 40
0.001
  1
K-99471IN-4FP
  3

  2
MODELNUMBER
 70
     0
1001
ACDBATTR
1070
     0
1070
     1
  0
ATTDEF
  5
2F278
  8
DEFPOINTS
 10
2920.4728054380470894
 20
77.011306787045541
 30
0.0
 40
0.001
  1

  3

  2
TRADENAME
 70
     0
1001
ACDBATTR
1070
     0
1070
     1
  0
ATTDEF
  5
2F279
  8
DEFPOINTS
 10
2920.4728054380470894
 20
77.0096401203788758
 30
0.0
 40
0.001
  1
VALVE TRIM
  3

  2
PRODUCT
 70
     0
1001
ACDBATTR
1070
     0
1070
     1
  0
ARC
  5
2F381
  8
0
 10
2920.4788581275252
 20
76.2408409477756663
 30
0.0
 40
2.9027788017367628
 50
266.9159655745801274
 51
269.9879987975903077
  0
ARC
  5
2F382
  8
0
 10
2920.3202919702857798
 20
73.2736347699389512
 30
0.0
 40
0.0686732448582928
 50
88.0013768784604622
 51
90.9717016498565272
  0
ARC
  5
2F383
  8
0
 10
2919.9049196065930118
 20
76.2447222965149649
 30
0.0
 40
2.931831178708634
 50
277.9489797465042784
 51
278.1218945249186731
  0
ARC
  5
2F384
  8
0
 10
2920.477466959343019
 20
76.1146483754094305
 30
0.0
 40
2.7786161833470939
 50
265.3810071256493188
 51
266.5522586313339275
  0
ARC
  5
2F385
  8
0
 10
2920.4805292684950473
 20
76.149159914891996
 30
0.0
 40
2.8132622565858099
 50
256.080685788356277
 51
265.3754436193059973
  0
ARC
  5
2F386
  8
0
 10
2920.4734938827227779
 20
76.1247444413842231
 30
0.0
 40
2.7878714972973291
 50
235.5768615950815104
 51
256.1003235353588252
  0
ARC
  5
2F387
  8
0
 10
2920.4118321948189987
 20
76.0347677868329868
 30
0.0
 40
2.6787937171609388
 50
213.9700917431526079
 51
235.5768615950815104
  0
ARC
  5
2F388
  8
0
 10
2920.2945770745791378
 20
75.9557672319296842
 30
0.0
 40
2.5374082479733988
 50
193.4319096143485979
 51
213.9700917431526079
  0
ARC
  5
2F389
  8
0
 10
2922.4578353305150813
 20
76.4080807221366314
 30
0.0
 40
4.7469741724571008
 50
181.3340311446063993
 51
192.6767759443499131
  0
ARC
  5
2F38A
  8
0
 10
3008.8462566970051739
 20
77.8316244243954714
 30
0.0
 40
91.1470193829074162
 50
180.5134154223487997
 51
180.9643676350291912
  0
ARC
  5
2F38B
  8
0
 10
2920.477466959343019
 20
77.9130574629055985
 30
0.0
 40
2.7786161833470939
 50
93.4477413686660867
 51
94.6189928743507238
  0
ARC
  5
2F38C
  8
0
 10
2920.4805292684950473
 20
77.8785459234230188
 30
0.0
 40
2.8132622565858099
 50
94.6245563806939742
 51
103.9193142116436945
  0
ARC
  5
2F38D
  8
0
 10
2920.4734938827227779
 20
77.9029613969308059
 30
0.0
 40
2.7878714972973291
 50
103.8996764646412032
 51
124.4231384049185039
  0
ARC
  5
2F38E
  8
0
 10
2920.4118321948189987
 20
77.9929380514820423
 30
0.0
 40
2.6787937171609388
 50
124.4231384049185039
 51
146.0299082568473068
  0
ARC
  5
2F38F
  8
0
 10
2920.2945770745791378
 20
78.0719386063853307
 30
0.0
 40
2.5374082479733988
 50
146.0299082568473068
 51
166.5680903856512884
  0
ARC
  5
2F390
  8
0
 10
2922.4578353305150813
 20
77.6196251161783977
 30
0.0
 40
4.7469741724571008
 50
167.3232240556500017
 51
178.665968855393487
  0
ARC
  5
2F391
  8
0
 10
2984.6870287643660049
 20
76.5061958789249132
 30
0.0
 40
66.9860636328375421
 50
178.9530547981551081
 51
179.5648933365770006
  0
ARC
  5
2F392
  8
0
 10
2920.7009943081129677
 20
70.4790613999104636
 30
0.0
 40
10.21505475804517
 50
91.2497829217315086
 51
92.191549845133494
  0
ARC
  5
2F393
  8
0
 10
2920.478580960123054
 20
78.0644614830542736
 30
0.0
 40
0.964603512763281
 50
358.7673672808103902
 51
179.205868757424895
  0
ARC
  5
2F394
  8
0
 10
2921.071278322488979
 20
78.0298779093494943
 30
0.0
 40
1.5579463786066481
 50
178.2361882834171922
 51
183.9882280826159899
  0
ARC
  5
2F395
  8
0
 10
2913.0375315927949487
 20
77.4697622631273077
 30
0.0
 40
6.4953024101746566
 50
2.591963895096931
 51
3.9882280826160721
  0
ARC
  5
2F396
  8
0
 10
2914.7231064186798903
 20
77.546066869288012
 30
0.0
 40
4.808001344395346
 50
359.7848451864633716
 51
2.591963895096931
  0
ARC
  5
2F397
  8
0
 10
2707.7416242019080528
 20
72.2644604863332063
 30
0.0
 40
211.8548464483104112
 50
1.0356716246353681
 51
1.4236649888260711
  0
ARC
  5
2F398
  8
0
 10
2916.1816894367930217
 20
75.9358180408694921
 30
0.0
 40
3.383857574712406
 50
358.3771753049513791
 51
2.6744914269977591
  0
ARC
  5
2F399
  8
0
 10
2920.5077240533228178
 20
75.8132562433064834
 30
0.0
 40
0.9439128556175423
 50
178.3771753049514075
 51
204.5162915625163009
  0
ARC
  5
2F39A
  8
0
 10
2920.4755305287808369
 20
75.8086725728056479
 30
0.0
 40
0.9127660376241102
 50
205.0930683259167893
 51
270.1658321217390153
  0
ARC
  5
2F39B
  8
0
 10
2920.478580960123054
 20
78.0644614830542736
 30
0.0
 40
0.9959761427957564
 50
342.902265600420094
 51
196.9102528407518946
  0
ARC
  5
2F39C
  8
0
 10
2920.4774964881771666
 20
76.2408409477756663
 30
0.0
 40
2.9027788017367628
 50
270.0120012024096923
 51
273.0840344254198158
  0
ARC
  5
2F39D
  8
0
 10
2920.6360626454152225
 20
73.2736347699389512
 30
0.0
 40
0.0686732448582928
 50
89.0282983501434728
 51
91.9986231215395236
  0
ARC
  5
2F39E
  8
0
 10
2921.0514350091089
 20
76.2447222965149649
 30
0.0
 40
2.931831178708634
 50
261.8781054750813269
 51
262.0510202534957216
  0
ARC
  5
2F39F
  8
0
 10
2920.4788876563588929
 20
76.1146483754094305
 30
0.0
 40
2.7786161833470939
 50
273.4477413686660725
 51
274.6189928743507949
  0
ARC
  5
2F3A0
  8
0
 10
2920.4758253472068645
 20
76.149159914891996
 30
0.0
 40
2.8132622565858099
 50
274.6245563806940027
 51
283.919314211643723
  0
ARC
  5
2F3A1
  8
0
 10
2920.4828607329791339
 20
76.1247444413842231
 30
0.0
 40
2.7878714972973291
 50
283.8996764646411748
 51
304.4231384049185181
  0
ARC
  5
2F3A2
  8
0
 10
2920.5445224208829131
 20
76.0347677868329868
 30
0.0
 40
2.6787937171609388
 50
304.4231384049185181
 51
326.0299082568473068
  0
ARC
  5
2F3A3
  8
0
 10
2920.661777541122774
 20
75.9557672319296842
 30
0.0
 40
2.5374082479733988
 50
326.0299082568473068
 51
346.5680903856513737
  0
ARC
  5
2F3A4
  8
0
 10
2918.4985192851868305
 20
76.4080807221366314
 30
0.0
 40
4.7469741724571008
 50
347.3232240556499164
 51
358.665968855393487
  0
ARC
  5
2F3A5
  8
0
 10
2832.1100979251841636
 20
77.8316244242990933
 30
0.0
 40
91.1470193764199905
 50
359.0356323649626233
 51
359.4865845776748188
  0
ARC
  5
2F3A6
  8
0
 10
2920.4788876563588929
 20
77.9130574629055985
 30
0.0
 40
2.7786161833470939
 50
85.3810071256492762
 51
86.5522586313338991
  0
ARC
  5
2F3A7
  8
0
 10
2920.4758253472068645
 20
77.8785459234230188
 30
0.0
 40
2.8132622565858099
 50
76.0806857883563055
 51
85.3754436193060542
  0
ARC
  5
2F3A8
  8
0
 10
2920.4828607329791339
 20
77.9029613969308059
 30
0.0
 40
2.7878714972973291
 50
55.5768615950814819
 51
76.100323535358811
  0
ARC
  5
2F3A9
  8
0
 10
2920.5445224208829131
 20
77.9929380514820423
 30
0.0
 40
2.6787937171609388
 50
33.9700917431526506
 51
55.5768615950814819
  0
ARC
  5
2F3AA
  8
0
 10
2920.661777541122774
 20
78.0719386063853307
 30
0.0
 40
2.5374082479733988
 50
13.4319096143486298
 51
33.9700917431526506
  0
ARC
  5
2F3AB
  8
0
 10
2918.4985192851868305
 20
77.6196251161783977
 30
0.0
 40
4.7469741724571008
 50
1.334031144606481
 51
12.6767759443499699
  0
ARC
  5
2F3AC
  8
0
 10
2856.2693258548279118
 20
76.5061958789793835
 30
0.0
 40
66.9860636293450824
 50
0.4351066633994066
 51
1.046945201853037
  0
ARC
  5
2F3AD
  8
0
 10
2920.2553603075889441
 20
70.4790613999104636
 30
0.0
 40
10.21505475804517
 50
87.808450154866506
 51
88.7502170782684914
  0
ARC
  5
2F3AE
  8
0
 10
2919.8850762932129328
 20
78.0298779093494943
 30
0.0
 40
1.5579463786066481
 50
356.0117719173838964
 51
1.7638117165827161
  0
ARC
  5
2F3AF
  8
0
 10
2927.9188230229069632
 20
77.4697622631273077
 30
0.0
 40
6.4953024101746566
 50
176.0117719173838964
 51
177.4080361049030046
  0
ARC
  5
2F3B0
  8
0
 10
2926.233248197021112
 20
77.546066869288012
 30
0.0
 40
4.808001344395346
 50
177.4080361049030046
 51
180.2151548135365999
  0
ARC
  5
2F3B1
  8
0
 10
3133.214730413793859
 20
72.2644604863332063
 30
0.0
 40
211.8548464483104112
 50
178.5763350111739101
 51
178.9643283753646017
  0
ARC
  5
2F3B2
  8
0
 10
2924.7746651789088901
 20
75.9358180408694921
 30
0.0
 40
3.383857574712406
 50
177.325508573002196
 51
181.6228246950485925
  0
ARC
  5
2F3B3
  8
0
 10
2920.448630562379094
 20
75.8132562433064834
 30
0.0
 40
0.9439128556175423
 50
335.4837084374836991
 51
1.6228246950486189
  0
ARC
  5
2F3B4
  8
0
 10
2920.4808240869210749
 20
75.8086725728056479
 30
0.0
 40
0.9127660376241102
 50
269.8341678782610984
 51
334.9069316740831823
  0
CIRCLE
  5
2F40A
  8
0
 10
2919.7503098302440776
 20
78.0644622413282008
 30
0.0
 40
0.049212062
  0
CIRCLE
  5
2F40B
  8
0
 10
2921.2060138895099044
 20
78.0644622413282008
 30
0.0
 40
0.049212062
  0
ENDSEC
  0
EOF
