  0
SECTION
  2
HEADER
  9
$ACADVER
  1
AC1009
  9
$INSBASE
 10
3290.3961400540711111
 20
143.8640647466469886
 30
0.0
  9
$EXTMIN
 10
3287.6208073194261488
 20
141.0108463252678064
 30
0.0
  9
$EXTMAX
 10
3293.1714727887169829
 20
143.86879286677609
 30
0.0
  9
$LIMMIN
 10
0.0
 20
0.0
  9
$LIMMAX
 10
11.6929133858000007
 20
8.2677165353999982
  9
$ORTHOMODE
 70
     0
  9
$REGENMODE
 70
     1
  9
$FILLMODE
 70
     1
  9
$QTEXTMODE
 70
     0
  9
$MIRRTEXT
 70
     0
  9
$DRAGMODE
 70
     2
  9
$LTSCALE
 40
0.6431102362
  9
$OSMODE
 70
  4095
  9
$ATTMODE
 70
     1
  9
$TEXTSIZE
 40
0.2
  9
$TRACEWID
 40
0.05
  9
$TEXTSTYLE
  7
STANDARD
  9
$CLAYER
  8
0
  9
$CELTYPE
  6
BYLAYER
  9
$CECOLOR
 62
   256
  9
$DIMSCALE
 40
1.0
  9
$DIMASZ
 40
0.1875
  9
$DIMEXO
 40
0.0625
  9
$DIMDLI
 40
0.4443307087
  9
$DIMRND
 40
0.0
  9
$DIMDLE
 40
0.0
  9
$DIMEXE
 40
0.125
  9
$DIMTP
 40
0.01
  9
$DIMTM
 40
0.01
  9
$DIMTXT
 40
2.0
  9
$DIMCEN
 40
0.1052362205
  9
$DIMTSZ
 40
0.0
  9
$DIMTOL
 70
     1
  9
$DIMLIM
 70
     0
  9
$DIMTIH
 70
     1
  9
$DIMTOH
 70
     1
  9
$DIMSE1
 70
     0
  9
$DIMSE2
 70
     0
  9
$DIMTAD
 70
     0
  9
$DIMZIN
 70
     0
  9
$DIMBLK
  1

  9
$DIMASO
 70
     1
  9
$DIMSHO
 70
     1
  9
$DIMPOST
  1
\X
  9
$DIMAPOST
  1

  9
$DIMALT
 70
     1
  9
$DIMALTD
 70
     2
  9
$DIMALTF
 40
25.3999999999999986
  9
$DIMLFAC
 40
1.0
  9
$DIMTOFL
 70
     0
  9
$DIMTVP
 40
0.0
  9
$DIMTIX
 70
     0
  9
$DIMSOXD
 70
     0
  9
$DIMSAH
 70
     0
  9
$DIMBLK1
  1

  9
$DIMBLK2
  1

  9
$DIMSTYLE
  2
STANDARD
  9
$DIMCLRD
 70
     0
  9
$DIMCLRE
 70
     0
  9
$DIMCLRT
 70
     0
  9
$DIMTFAC
 40
1.0
  9
$DIMGAP
 40
0.09
  9
$LUNITS
 70
     2
  9
$LUPREC
 70
     4
  9
$SKETCHINC
 40
0.1
  9
$FILLETRAD
 40
0.0
  9
$AUNITS
 70
     0
  9
$AUPREC
 70
     0
  9
$MENU
  1
.
  9
$ELEVATION
 40
0.0
  9
$PELEVATION
 40
0.0
  9
$THICKNESS
 40
0.0
  9
$LIMCHECK
 70
     0
  9
$BLIPMODE
 70
     0
  9
$CHAMFERA
 40
0.0
  9
$CHAMFERB
 40
0.0
  9
$SKPOLY
 70
     0
  9
$TDCREATE
 40
2458060.468368056230247
  9
$TDUPDATE
 40
2459215.4989351849071681
  9
$TDINDWG
 40
0.5958982639
  9
$TDUSRTIMER
 40
0.5958982639
  9
$USRTIMER
 70
     1
  9
$ANGBASE
 50
0.0
  9
$ANGDIR
 70
     0
  9
$PDMODE
 70
     0
  9
$PDSIZE
 40
0.3125
  9
$PLINEWID
 40
0.0
  9
$COORDS
 70
     1
  9
$SPLFRAME
 70
     0
  9
$SPLINETYPE
 70
     6
  9
$SPLINESEGS
 70
     8
  9
$ATTDIA
 70
     1
  9
$ATTREQ
 70
     1
  9
$HANDLING
 70
     1
  9
$HANDSEED
  5
24030
  9
$SURFTAB1
 70
     6
  9
$SURFTAB2
 70
     6
  9
$SURFTYPE
 70
     6
  9
$SURFU
 70
     6
  9
$SURFV
 70
     6
  9
$UCSNAME
  2

  9
$UCSORG
 10
0.0
 20
0.0
 30
0.0
  9
$UCSXDIR
 10
1.0
 20
0.0
 30
0.0
  9
$UCSYDIR
 10
0.0
 20
1.0
 30
0.0
  9
$PUCSNAME
  2

  9
$PUCSORG
 10
0.0
 20
0.0
 30
0.0
  9
$PUCSXDIR
 10
1.0
 20
0.0
 30
0.0
  9
$PUCSYDIR
 10
0.0
 20
1.0
 30
0.0
  9
$USERI1
 70
     0
  9
$USERI2
 70
     0
  9
$USERI3
 70
     0
  9
$USERI4
 70
     0
  9
$USERI5
 70
     0
  9
$USERR1
 40
0.0
  9
$USERR2
 40
0.0
  9
$USERR3
 40
0.0
  9
$USERR4
 40
0.0
  9
$USERR5
 40
0.0
  9
$WORLDVIEW
 70
     1
  9
$SHADEDGE
 70
     3
  9
$SHADEDIF
 70
    70
  9
$TILEMODE
 70
     1
  9
$MAXACTVP
 70
    64
  9
$PLIMCHECK
 70
     0
  9
$PEXTMIN
 10
1.0000000000000000E+20
 20
1.0000000000000000E+20
 30
1.0000000000000000E+20
  9
$PEXTMAX
 10
-1.0000000000000000E+20
 20
-1.0000000000000000E+20
 30
-1.0000000000000000E+20
  9
$PLIMMIN
 10
0.0
 20
0.0
  9
$PLIMMAX
 10
12.0
 20
9.0
  9
$UNITMODE
 70
     0
  9
$VISRETAIN
 70
     1
  9
$PLINEGEN
 70
     0
  9
$PSLTSCALE
 70
     1
  0
ENDSEC
  0
SECTION
  2
TABLES
  0
TABLE
  2
VPORT
 70
     1
  0
VPORT
  2
*ACTIVE
 70
     0
 10
0.0
 20
0.0
 11
1.0
 21
1.0
 12
-8.0790017813878254
 22
-54.1791397181156711
 13
0.0
 23
0.0
 14
1.0
 24
1.0
 15
0.0
 25
0.0
 16
0.0
 26
0.0
 36
96.5995694866707311
 17
3303.693115234375
 27
195.2615115758877096
 37
0.0
 40
15.9069712026479593
 41
2.005224660397074
 42
50.0
 43
0.0
 44
0.0
 50
0.0
 51
0.0
 71
     0
 72
   100
 73
     1
 74
     1
 75
     0
 76
     0
 77
     0
 78
     0
  0
ENDTAB
  0
TABLE
  2
LTYPE
 70
     2
  0
LTYPE
  2
CONTINUOUS
 70
     0
  3
Solid line
 72
    65
 73
     0
 40
0.0
  0
LTYPE
  2
PHANTOM2
 70
     0
  3
___ _ _ ___ _ _ ___ _ _ ___ _ _
 72
    65
 73
     6
 40
1.25
 49
0.625
 49
-0.125
 49
0.125
 49
-0.125
 49
0.125
 49
-0.125
  0
ENDTAB
  0
TABLE
  2
LAYER
 70
     2
  0
LAYER
  2
0
 70
     0
 62
   255
  6
CONTINUOUS
  0
LAYER
  2
DEFPOINTS
 70
     0
 62
     7
  6
CONTINUOUS
  0
ENDTAB
  0
TABLE
  2
STYLE
 70
     1
  0
STYLE
  2
STANDARD
 70
     0
 40
0.0
 41
0.8
 50
0.0
 71
     0
 42
0.2
  3
txt
  4

  0
ENDTAB
  0
TABLE
  2
VIEW
 70
     0
  0
ENDTAB
  0
TABLE
  2
UCS
 70
     0
  0
ENDTAB
  0
TABLE
  2
APPID
 70
     9
  0
APPID
  2
ACAD
 70
     0
  0
APPID
  2
ACAD_MLEADERVER
 70
     0
  0
APPID
  2
ACAD_EXEMPT_FROM_CAD_STANDARDS
 70
     0
  0
APPID
  2
ACAD_NAV_VCDISPLAY
 70
     0
  0
APPID
  2
ACAECLAYERSTANDARD
 70
     0
  0
APPID
  2
ACCMTRANSPARENCY
 70
     0
  0
APPID
  2
ACAD_DSTYLE_DIMJAG
 70
     0
  0
APPID
  2
ACAD_DSTYLE_DIMTALN
 70
     0
  0
APPID
  2
ACDBATTR
 70
     0
  0
ENDTAB
  0
TABLE
  2
DIMSTYLE
 70
     1
  0
DIMSTYLE
  2
STANDARD
 70
     0
  3

  4

  5

  6

  7

 40
1.0
 41
0.1875
 42
0.0625
 43
0.38
 44
0.125
 45
0.0
 46
0.0
 47
0.01
 48
0.01
140
0.15625
141
0.09
142
0.0
143
25.3999999999999986
144
1.0
145
0.0
146
1.0
147
0.09
 71
     1
 72
     0
 73
     1
 74
     1
 75
     0
 76
     0
 77
     0
 78
     4
170
     0
171
     2
172
     0
173
     0
174
     0
175
     0
176
     0
177
     0
178
     0
  0
ENDTAB
  0
ENDSEC
  0
SECTION
  2
BLOCKS
  0
BLOCK
  8
0
  2
$MODEL_SPACE
 70
     0
 10
0.0
 20
0.0
 30
0.0
  3
$MODEL_SPACE
  1

  0
ENDBLK
  5
21
  8
0
  0
BLOCK
 67
     1
  8
0
  2
$PAPER_SPACE
 70
     0
 10
0.0
 20
0.0
 30
0.0
  3
$PAPER_SPACE
  1

  0
ENDBLK
  5
1D
 67
     1
  8
0
  0
BLOCK
  8
0
  2
_FILLED
 70
     0
 10
0.0
 20
0.0
 30
0.0
  3
_FILLED
  1

  0
SOLID
  5
211E5
  8
0
  6
BYBLOCK
 62
     0
 10
0.0
 20
0.0
 30
0.0
 11
-1.0
 21
0.1666666667
 31
0.0
 12
-1.0
 22
-0.1666666667
 32
0.0
 13
-1.0
 23
-0.1666666667
 33
0.0
  0
ENDBLK
  5
211E6
  8
0
  6
BYBLOCK
 62
     0
  0
BLOCK
  8
0
  2
A$C6A5A1766
 70
     0
 10
0.0
 20
0.0
 30
0.0
  3
A$C6A5A1766
  1

  0
LINE
  5
225FD
  8
0
 62
     1
 10
0.0
 20
-25.2550275006999989
 30
0.0
 11
0.0
 21
143.9031513688605912
 31
0.0
  0
ARC
  5
225FE
  8
0
 10
0.0007514126702155
 20
-15.4951705008879994
 30
0.0
 40
4.2598277055847502
 50
263.6334821151767756
 51
269.9898933060501918
  0
ARC
  5
225FF
  8
0
 10
0.16378411546152
 20
-14.5982637761653304
 30
0.0
 40
5.1696601838072933
 50
238.9132956189727963
 51
262.9399865581817153
  0
ARC
  5
22600
  8
0
 10
2.4437109048609331
 20
-11.2742819803077001
 30
0.0
 40
9.1965139174334194
 50
205.6458512969236097
 51
237.4414906274641908
  0
ARC
  5
22601
  8
0
 10
6.1755721462031223
 20
-9.1782573014519002
 30
0.0
 40
13.4707053666538599
 50
179.7458537556383931
 51
206.8128887147927912
  0
ARC
  5
22602
  8
0
 10
4.211241679829822
 20
-8.9489523315295827
 30
0.0
 40
11.5074915614249509
 50
160.6146186210216911
 51
180.8442361684070931
  0
ARC
  5
22603
  8
0
 10
-0.9874742528191076
 20
-7.2143050629720937
 30
0.0
 40
6.0284003249415283
 50
128.2310680002719039
 51
159.7662839135815886
  0
ARC
  5
22604
  8
0
 10
-1.2642676713132139
 20
-7.0563605443192321
 30
0.0
 40
5.7342913915603591
 50
115.0717129839378998
 51
127.0351083156741936
  0
ARC
  5
22605
  8
0
 10
-3.4680509060059328
 20
-2.3457527775090621
 30
0.0
 40
0.5336677676483504
 50
89.9089093879093753
 51
115.0708758176772051
  0
LINE
  5
22606
  8
0
 10
-3.4672024647500002
 20
-1.8120856843000011
 30
0.0
 11
-2.4850001854499988
 21
-1.8120857223999991
 31
0.0
  0
LINE
  5
22607
  8
0
 10
-3.5550001854499991
 20
-1.819215875638992
 30
0.0
 11
-3.5550001854499991
 21
-1.159976596199999
 31
0.0
  0
ARC
  5
22608
  8
0
 10
-3.5149961995514261
 20
-1.159976596200003
 30
0.0
 40
0.040003985898573
 50
90.0057088102859666
 51
180.000000000000199
  0
LINE
  5
22609
  8
0
 10
-3.515000185449999
 20
-1.119972610499999
 30
0.0
 11
-3.0550001877333561
 21
-1.1199267772335799
 31
0.0
  0
ARC
  5
2260A
  8
0
 10
-3.0550038063113112
 20
-1.1599304201794991
 30
0.0
 40
0.0400036431095813
 50
359.9395723098908206
 51
89.994817240911587
  0
LINE
  5
2260B
  8
0
 10
-3.015000185449999
 20
-1.1599755885999981
 30
0.0
 11
-3.015000185449999
 21
-1.812085720241164
 31
0.0
  0
LINE
  5
2260C
  8
0
 10
-2.9800001854499989
 20
-1.1190977238999971
 30
0.0
 11
-2.5200001854499989
 21
-1.1190977238999971
 31
0.0
  0
ARC
  5
2260D
  8
0
 10
-2.5200001854499989
 20
-1.149097723899998
 30
0.0
 40
0.0300000000000011
 50
0.0
 51
90.0000000000025437
  0
LINE
  5
2260E
  8
0
 10
-2.49000018545
 20
-1.149097723899998
 30
0.0
 11
-2.49000018545
 21
-1.7090977239000009
 31
0.0
  0
ARC
  5
2260F
  8
0
 10
-2.5200001854500012
 20
-1.7090977239000009
 30
0.0
 40
0.0300000000000011
 50
270.0000000000025011
 51
0.0
  0
LINE
  5
22610
  8
0
 10
-2.5200001854499989
 20
-1.7390977239000021
 30
0.0
 11
-2.9800001854499989
 21
-1.7390977239000021
 31
0.0
  0
ARC
  5
22611
  8
0
 10
-2.9800001854499989
 20
-1.7090977238995959
 30
0.0
 40
0.0300000000004062
 50
179.999702444694293
 51
270.0000000000032969
  0
LINE
  5
22612
  8
0
 10
-3.0100001854499991
 20
-1.709097568100002
 30
0.0
 11
-3.0099972771917258
 21
-1.149097723907551
 31
0.0
  0
ARC
  5
22613
  8
0
 10
-2.9799971212276861
 20
-1.1490978797079521
 30
0.0
 40
0.0300001559644443
 50
90.0058522031193604
 51
179.9997024446940941
  0
LINE
  5
22614
  8
0
 10
-1.945000185449999
 20
-1.8784013175647869
 30
0.0
 11
-1.945000185449999
 21
-1.129018158899999
 31
0.0
  0
ARC
  5
22615
  8
0
 10
-1.965000747257889
 20
-1.129018158899995
 30
0.0
 40
0.0200005618078896
 50
0.0000000000022391
 51
89.9983905841617826
  0
LINE
  5
22616
  8
0
 10
-1.9650001854500001
 20
-1.1090175970999989
 30
0.0
 11
-2.4650001854499979
 21
-1.1090175970999949
 31
0.0
  0
ARC
  5
22617
  8
0
 10
-2.4650246876477051
 20
-1.128993095422107
 30
0.0
 40
0.0199755133494576
 50
89.9297203108202012
 51
180.0714848932379937
  0
LINE
  5
22618
  8
0
 10
-2.4850001854499988
 20
-1.1290180177999991
 30
0.0
 11
-2.4850001854499988
 21
-2.0144830758659671
 31
0.0
  0
ARC
  5
22619
  8
0
 10
-3.373775348442666
 20
-1.330289539400823
 30
0.0
 40
0.3285613919179742
 50
39.8092645893339565
 51
48.6134506901705095
  0
ARC
  5
2261A
  8
0
 10
-2.7500001854064018
 20
-0.6181439618554557
 30
0.0
 40
0.6181439618554562
 50
311.1244747103380064
 51
228.8755252051039975
  0
ARC
  5
2261B
  8
0
 10
-2.129656253762541
 20
-1.3263957310919881
 30
0.0
 40
0.3233714890315127
 50
131.3865492252714944
 51
137.7610389694467017
  0
CIRCLE
  5
2261C
  8
0
 10
-2.7500001854499989
 20
-0.6180977239000001
 30
0.0
 40
0.4674999999999998
  0
ARC
  5
2261D
  8
0
 10
-3.3113041343833451
 20
-1.1228513185696789
 30
0.0
 40
0.2949729273094674
 50
3.854111666408008
 51
31.75856764660697
  0
ARC
  5
2261E
  8
0
 10
3.163974465041445
 20
-0.6866209962509835
 30
0.0
 40
6.1949831460610563
 50
183.854111666407988
 51
184.2771674870274126
  0
ARC
  5
2261F
  8
0
 10
-3.9208130986306911
 20
-1.240893731252722
 30
0.0
 40
0.911736064819591
 50
2.5748577988899108
 51
5.806690532982663
  0
LINE
  5
22620
  8
0
 10
-3.0099998338521718
 20
-1.6413956275284001
 30
0.0
 11
-3.015000185449999
 21
-1.6352812747999961
 31
0.0
  0
LINE
  5
22621
  8
0
 10
-2.4900001854499991
 20
-1.641395197599997
 30
0.0
 11
-2.4850001854499988
 21
-1.6352812747999961
 31
0.0
  0
ARC
  5
22622
  8
0
 10
-2.202770788610438
 20
-1.118260537608843
 30
0.0
 40
0.2806221502474049
 50
147.5336246418526116
 51
176.7104881020316896
  0
ARC
  5
22623
  8
0
 10
-1.793279314985126
 20
-1.162009268975374
 30
0.0
 40
0.6922434656980699
 50
175.0400292259297998
 51
176.909026727830593
  0
ARC
  5
22624
  8
0
 10
-21.0273950996353705
 20
0.4793439841418277
 30
0.0
 40
18.6124991159703583
 50
354.8511107839680108
 51
355.0255654811459181
  0
ARC
  5
22625
  8
0
 10
-0.0021813519000782
 20
-13.8819868221050307
 30
0.0
 40
12.7364350260036208
 50
89.9901870297407953
 51
92.0264435382613044
  0
ARC
  5
22626
  8
0
 10
-0.0656314430666001
 20
-12.0887434454669602
 30
0.0
 40
10.9420694774251306
 50
92.0264435382612049
 51
97.0747062190055772
  0
ARC
  5
22627
  8
0
 10
-0.4691008213902466
 20
-8.8377974777475359
 30
0.0
 40
7.66618223512328
 50
97.0747062190055345
 51
98.2092868063391506
  0
ARC
  5
22628
  8
0
 10
-1.519788763838152
 20
-1.58840805277941
 30
0.0
 40
0.3410831001269229
 50
97.4053039911428442
 51
179.1758473527644071
  0
ARC
  5
22629
  8
0
 10
-2.109667916683367
 20
-1.5631496149020589
 30
0.0
 40
0.2496622823346202
 50
325.2573492067683105
 51
355.3240735334123883
  0
ARC
  5
2262A
  8
0
 10
-2.1076935457729591
 20
-1.564203996891983
 30
0.0
 40
0.2474391543007623
 50
311.110136552817778
 51
325.1974296736959786
  0
ARC
  5
2262B
  8
0
 10
-0.01849095626502
 20
-12.0250043144986503
 30
0.0
 40
10.3329451370300802
 50
89.8974683108681205
 51
98.0219116156393255
  0
ARC
  5
2262C
  8
0
 10
-0.4541036132314043
 20
-8.9340367198073096
 30
0.0
 40
7.2114328339402238
 50
98.0219116156393255
 51
106.3570216516300064
  0
ARC
  5
2262D
  8
0
 10
-0.8849088191398939
 20
-7.4662220742212311
 30
0.0
 40
5.6817031325763399
 50
106.357021651629907
 51
133.3507360128436972
  0
ARC
  5
2262E
  8
0
 10
-0.7060748946898175
 20
-7.3209894883455533
 30
0.0
 40
5.7034866975173779
 50
135.6592555236636883
 51
162.6243455419194959
  0
ARC
  5
2262F
  8
0
 10
4.5794854655698209
 20
-8.8887594387803617
 30
0.0
 40
11.2163455600717104
 50
163.044382024269197
 51
181.769036624991486
  0
ARC
  5
22630
  8
0
 10
6.1827514242981492
 20
-9.0196714846503312
 30
0.0
 40
12.8160749790588806
 50
180.9627632968748117
 51
205.9920180546149879
  0
ARC
  5
22631
  8
0
 10
2.647407252088712
 20
-10.9187139796422308
 30
0.0
 40
8.8074755669054081
 50
204.9666288378184902
 51
234.166522871404112
  0
ARC
  5
22632
  8
0
 10
0.379280533551051
 20
-13.8230056055889108
 30
0.0
 40
5.126942585138166
 50
235.715137270833111
 51
252.7486923382915904
  0
ARC
  5
22633
  8
0
 10
0.0432641519762047
 20
-14.8095711299075408
 30
0.0
 40
4.0852075282589517
 50
253.1459009339712054
 51
264.8368403669741156
  0
ARC
  5
22634
  8
0
 10
0.1118354839242519
 20
-12.6138086373437606
 30
0.0
 40
6.2795630288532287
 50
266.0167555569977935
 51
268.9795404591355918
  0
ARC
  5
22635
  8
0
 10
-0.0007514126702155
 20
-15.4951705008879994
 30
0.0
 40
4.2598277055847502
 50
270.0101066939498082
 51
276.3665178848232244
  0
ARC
  5
22636
  8
0
 10
-0.16378411546152
 20
-14.5982637761653304
 30
0.0
 40
5.1696601838072933
 50
277.0600134418182279
 51
301.0867043810271753
  0
ARC
  5
22637
  8
0
 10
-2.4437109048609331
 20
-11.2742819803077001
 30
0.0
 40
9.1965139174334194
 50
302.5585093725355819
 51
334.3541487030764188
  0
ARC
  5
22638
  8
0
 10
-6.175547758940338
 20
-9.1758481321424163
 30
0.0
 40
13.4717704987862295
 50
333.1779198745397252
 51
0.2438797958337641
  0
ARC
  5
22639
  8
0
 10
-4.210141679829821
 20
-8.9489523315295791
 30
0.0
 40
11.5074915614249402
 50
359.1557638315927079
 51
19.3853813789782912
  0
ARC
  5
2263A
  8
0
 10
0.9870615825507167
 20
-7.2169527787351413
 30
0.0
 40
6.0307356802656251
 50
20.2523484032773595
 51
51.7814190209529812
  0
ARC
  5
2263B
  8
0
 10
1.2642676713132139
 20
-7.0563605443192321
 30
0.0
 40
5.7342913915603591
 50
52.964891684325778
 51
64.9282870160621002
  0
ARC
  5
2263C
  8
0
 10
3.4680509060059319
 20
-2.3457527775090621
 30
0.0
 40
0.5336677676483504
 50
64.9291241823227381
 51
90.0910906120905963
  0
LINE
  5
2263D
  8
0
 10
3.4672024647499988
 20
-1.8120856843000011
 30
0.0
 11
2.4850001854499979
 21
-1.8120857223999991
 31
0.0
  0
LINE
  5
2263E
  8
0
 10
3.5719998145499989
 20
-1.822306590552589
 30
0.0
 11
3.5719998145499989
 21
-1.159976596199999
 31
0.0
  0
ARC
  5
2263F
  8
0
 10
3.5319958286514268
 20
-1.159976596200003
 30
0.0
 40
0.040003985898573
 50
359.9999999999997726
 51
89.9942911897141045
  0
LINE
  5
22640
  8
0
 10
3.5319998145499998
 20
-1.119972610499999
 30
0.0
 11
3.0550001877333561
 21
-1.1199267772335799
 31
0.0
  0
ARC
  5
22641
  8
0
 10
3.0550038063113112
 20
-1.1599304201794991
 30
0.0
 40
0.0400036431095813
 50
90.005182759088413
 51
180.0604276901090941
  0
LINE
  5
22642
  8
0
 10
3.015000185449999
 20
-1.1599755885999981
 30
0.0
 11
3.015000185449999
 21
-1.812085720241164
 31
0.0
  0
LINE
  5
22643
  8
0
 10
2.9800001854499989
 20
-1.1190977238999971
 30
0.0
 11
2.520000185449998
 21
-1.1190977238999971
 31
0.0
  0
ARC
  5
22644
  8
0
 10
2.520000185449998
 20
-1.149097723899998
 30
0.0
 40
0.0300000000000011
 50
89.9999999999974563
 51
180.0
  0
LINE
  5
22645
  8
0
 10
2.4900001854499991
 20
-1.149097723899998
 30
0.0
 11
2.4900001854499991
 21
-1.7090977239000009
 31
0.0
  0
ARC
  5
22646
  8
0
 10
2.5200001854499998
 20
-1.7090977239000009
 30
0.0
 40
0.0300000000000011
 50
180.0
 51
269.9999999999973852
  0
LINE
  5
22647
  8
0
 10
2.520000185449998
 20
-1.7390977239000021
 30
0.0
 11
2.9800001854499989
 21
-1.7390977239000021
 31
0.0
  0
ARC
  5
22648
  8
0
 10
2.9800001854499989
 20
-1.7090977238995959
 30
0.0
 40
0.0300000000004062
 50
269.9999999999965894
 51
0.0002975553056421
  0
LINE
  5
22649
  8
0
 10
3.0100001854499991
 20
-1.709097568100002
 30
0.0
 11
3.0099972771917258
 21
-1.149097723907551
 31
0.0
  0
ARC
  5
2264A
  8
0
 10
2.979997121227687
 20
-1.1490978797079521
 30
0.0
 40
0.0300001559644443
 50
0.0002975553058456
 51
89.9941477968805685
  0
LINE
  5
2264B
  8
0
 10
1.945000185449999
 20
-1.8784013175647869
 30
0.0
 11
1.945000185449999
 21
-1.129018158899999
 31
0.0
  0
ARC
  5
2264C
  8
0
 10
1.9650007472578901
 20
-1.129018158899995
 30
0.0
 40
0.0200005618078896
 50
90.0016094158381748
 51
179.9999999999976978
  0
LINE
  5
2264D
  8
0
 10
1.965000185449999
 20
-1.1090175970999989
 30
0.0
 11
2.4650001854499992
 21
-1.1090175970999949
 31
0.0
  0
ARC
  5
2264E
  8
0
 10
2.465024687647706
 20
-1.128993095422107
 30
0.0
 40
0.0199755133494576
 50
359.9285151067618926
 51
90.0702796891798272
  0
LINE
  5
2264F
  8
0
 10
2.4850001854499979
 20
-1.1290180177999991
 30
0.0
 11
2.4850001854499979
 21
-2.0144830758659671
 31
0.0
  0
ARC
  5
22650
  8
0
 10
3.3737753484426669
 20
-1.330289539400823
 30
0.0
 40
0.3285613919179742
 50
131.3865493098294053
 51
140.190735410666008
  0
ARC
  5
22651
  8
0
 10
2.7500001854064018
 20
-0.6181439618554557
 30
0.0
 40
0.6181439618554562
 50
311.1244747948960025
 51
228.8755252896621073
  0
ARC
  5
22652
  8
0
 10
2.129656253762541
 20
-1.3263957310919881
 30
0.0
 40
0.3233714890315127
 50
42.2389610305532202
 51
48.6134507747285269
  0
CIRCLE
  5
22653
  8
0
 10
2.7500001854499989
 20
-0.6180977239000001
 30
0.0
 40
0.4674999999999998
  0
ARC
  5
22654
  8
0
 10
3.311304134383346
 20
-1.1228513185696789
 30
0.0
 40
0.2949729273094674
 50
148.2414323533930087
 51
176.145888333592012
  0
ARC
  5
22655
  8
0
 10
-3.163974465041445
 20
-0.6866209962509835
 30
0.0
 40
6.1949831460610563
 50
355.7228325129726159
 51
356.1458883335919836
  0
ARC
  5
22656
  8
0
 10
3.9208130986306911
 20
-1.240893731252722
 30
0.0
 40
0.911736064819591
 50
174.1933094670172864
 51
177.4251422011101056
  0
LINE
  5
22657
  8
0
 10
3.0099998338521701
 20
-1.641395627528385
 30
0.0
 11
3.015000185449999
 21
-1.6352812747999961
 31
0.0
  0
LINE
  5
22658
  8
0
 10
2.4900001854499991
 20
-1.641395197599997
 30
0.0
 11
2.4850001854499979
 21
-1.6352812747999961
 31
0.0
  0
ARC
  5
22659
  8
0
 10
2.2027707886104388
 20
-1.118260537608843
 30
0.0
 40
0.2806221502474049
 50
3.2895118979682381
 51
32.4663753581474026
  0
ARC
  5
2265A
  8
0
 10
1.793279314985126
 20
-1.162009268975374
 30
0.0
 40
0.6922434656980699
 50
3.0909732721694221
 51
4.9599707740702197
  0
ARC
  5
2265B
  8
0
 10
21.0273950996353705
 20
0.4793439841418277
 30
0.0
 40
18.6124991159703583
 50
184.9744345188539967
 51
185.1488892160321029
  0
ARC
  5
2265C
  8
0
 10
0.0021813519000782
 20
-13.8819868221050307
 30
0.0
 40
12.7364350260036208
 50
87.9735564617386387
 51
90.0098129702591336
  0
ARC
  5
2265D
  8
0
 10
0.0656314430666001
 20
-12.0887434454669602
 30
0.0
 40
10.9420694774251306
 50
82.9252937809943802
 51
87.9735564617387382
  0
ARC
  5
2265E
  8
0
 10
0.4691008213902466
 20
-8.8377974777475359
 30
0.0
 40
7.66618223512328
 50
81.7907131936609062
 51
82.9252937809944797
  0
ARC
  5
2265F
  8
0
 10
1.519788763838152
 20
-1.58840805277941
 30
0.0
 40
0.3410831001269229
 50
0.8241526472355655
 51
82.5946960088572268
  0
ARC
  5
22660
  8
0
 10
2.1096679166833678
 20
-1.5631496149020589
 30
0.0
 40
0.2496622823346202
 50
184.6759264665876117
 51
214.7426507932316895
  0
ARC
  5
22661
  8
0
 10
2.1076935457729591
 20
-1.564203996891983
 30
0.0
 40
0.2474391543007623
 50
214.8025703263039929
 51
228.8898634471819946
  0
ARC
  5
22662
  8
0
 10
0.01849095626502
 20
-12.0250043144986503
 30
0.0
 40
10.3329451370300802
 50
81.9780883843606745
 51
90.1025316891318226
  0
ARC
  5
22663
  8
0
 10
0.4541036132314043
 20
-8.9340367198073096
 30
0.0
 40
7.2114328339402238
 50
73.642978348370022
 51
81.9780883843606745
  0
ARC
  5
22664
  8
0
 10
0.8849088191398939
 20
-7.4662220742212311
 30
0.0
 40
5.6817031325763399
 50
46.6492639871562886
 51
73.642978348370022
  0
ARC
  5
22665
  8
0
 10
0.7060748946898175
 20
-7.3209894883455533
 30
0.0
 40
5.7034866975173779
 50
17.3756544580805112
 51
44.340744476336333
  0
ARC
  5
22666
  8
0
 10
-4.5793788009608862
 20
-8.8921545658432564
 30
0.0
 40
11.2172341350223697
 50
358.2484534894513786
 51
16.9723647827300006
  0
ARC
  5
22667
  8
0
 10
-6.1827769222302358
 20
-9.0170555469742482
 30
0.0
 40
12.8172445356809099
 50
333.9975208726543201
 51
359.0256290996035773
  0
ARC
  5
22668
  8
0
 10
-2.647407252088712
 20
-10.9187139796422308
 30
0.0
 40
8.8074755669054081
 50
305.8334771285959164
 51
335.0333711621814246
  0
ARC
  5
22669
  8
0
 10
-0.379280533551051
 20
-13.8230056055889108
 30
0.0
 40
5.126942585138166
 50
287.2513076617083811
 51
304.284862729166889
  0
ARC
  5
2266A
  8
0
 10
-0.0432641519762047
 20
-14.8095711299075408
 30
0.0
 40
4.0852075282589517
 50
275.1631596330258844
 51
286.854099066028823
  0
ARC
  5
2266B
  8
0
 10
-0.1118354839242519
 20
-12.6138086373437606
 30
0.0
 40
6.2795630288532287
 50
271.0204595408644082
 51
273.9832444430020928
  0
LINE
  5
2266C
  8
0
 62
     1
 10
-0.5105107681376745
 20
0.0
 30
0.0
 11
3292.0504606184181284
 21
0.0
 31
0.0
  0
ENDBLK
  5
22670
  8
0
  0
ENDSEC
  0
SECTION
  2
ENTITIES
  0
ATTDEF
  5
21AFD
  8
DEFPOINTS
 10
3290.396411608201106
 20
143.8677928667758863
 30
0.0
 40
0.001
  1
K-99472IN-4FP
  3

  2
MODELNUMBER
 70
     0
1001
ACDBATTR
1070
     0
1070
     1
  0
ATTDEF
  5
21AFE
  8
DEFPOINTS
 10
3290.396411608201106
 20
143.8661262001093064
 30
0.0
 40
0.001
  1
KUMIN
  3

  2
TRADENAME
 70
     0
1001
ACDBATTR
1070
     0
1070
     1
  0
ATTDEF
  5
21AFF
  8
DEFPOINTS
 10
3290.396411608201106
 20
143.8644595334426128
 30
0.0
 40
0.001
  1
VALVE TRIM
  3

  2
PRODUCT
 70
     0
1001
ACDBATTR
1070
     0
1070
     1
  0
LINE
  5
23E6B
  8
0
 10
3293.1714619897220473
 20
143.8640647466469886
 30
0.0
 11
3287.6208073194261488
 21
143.8640647466469886
 31
0.0
  0
LINE
  5
23E6C
  8
0
 10
3287.6280692090208504
 20
143.4501770490469994
 30
0.0
 11
3293.1642066858798898
 21
143.4501770490469994
 31
0.0
  0
ARC
  5
23E6D
  8
0
 10
3290.2488500616468627
 20
-248.4178824771356062
 30
0.0
 40
391.8129046214529012
 50
89.9784614160773657
 51
90.1196609355563254
  0
LINE
  5
23E6E
  8
0
 10
3289.4433804962209251
 20
142.5528034313470016
 30
0.0
 11
3291.3488923072209218
 21
142.5528034313470016
 31
0.0
  0
LINE
  5
23E6F
  8
0
 10
3289.5271113381950272
 20
142.4347747367064869
 30
0.0
 11
3291.2651522966220909
 21
142.4347747366470003
 31
0.0
  0
ARC
  5
23E70
  8
0
 10
3290.382328195646096
 20
144.4860630131015
 30
0.0
 40
3.4752166878336861
 50
263.6291918465186086
 51
270.2277162402830868
  0
LINE
  5
23E71
  8
0
 10
3289.4305582859501556
 20
141.2368594531575923
 30
0.0
 11
3291.3617218175509151
 21
141.2368594531575923
 31
0.0
  0
ARC
  5
23E72
  8
0
 10
3290.5437625259451124
 20
-247.0298606724192041
 30
0.0
 40
390.4248830407307196
 50
89.8801108357730953
 51
90.0216639491324457
  0
LINE
  5
23E73
  8
0
 10
3293.1714727887169829
 20
143.8640647466469886
 30
0.0
 11
3293.1642067680650143
 21
143.449941605139287
 31
0.0
  0
ARC
  5
23E74
  8
0
 10
3293.1239428565531853
 20
143.4506480685666077
 30
0.0
 40
0.0402701087755985
 50
272.449164502469273
 51
358.9948015908267962
  0
ARC
  5
23E75
  8
0
 10
3290.0487727460667884
 20
328.8935517192502971
 30
0.0
 40
185.5086557542041135
 50
270.40551783425758
 51
270.9503650927427998
  0
ARC
  5
23E76
  8
0
 10
3291.2408598508659452
 20
151.2246201468335869
 30
0.0
 40
7.8347319548526659
 50
270.8839045258390001
 51
271.1775252363643745
  0
ARC
  5
23E77
  8
0
 10
3291.3897977080077908
 20
143.9786530221726935
 30
0.0
 40
0.5872343138074462
 50
271.1775252363643745
 51
274.0252285024134267
  0
ARC
  5
23E78
  8
0
 10
3291.355979490883783
 20
141.2410796820317103
 30
0.0
 40
2.1530956275026218
 50
88.0027267255213843
 51
89.8471915412650333
  0
ARC
  5
23E79
  8
0
 10
3290.5434300464958142
 20
-248.4178824771356062
 30
0.0
 40
391.8129046214529012
 50
89.8803390644436604
 51
90.0215385839226059
  0
ARC
  5
23E7A
  8
0
 10
3291.348105947699878
 20
142.5665305298759904
 30
0.0
 40
0.0137500231607956
 50
273.3090052625037174
 51
351.9897259747959879
  0
LINE
  5
23E7B
  8
0
 10
3291.3410255962207884
 20
142.5528034313470016
 30
0.0
 11
3291.3403144021131084
 21
142.5120591473470029
 31
0.0
  0
ARC
  5
23E7C
  8
0
 10
3291.2615862372208539
 20
142.5134333525496118
 30
0.0
 40
0.0787401573981432
 50
272.6077531072215265
 51
359.0000000198306793
  0
ARC
  5
23E7D
  8
0
 10
3291.268751319238163
 20
142.356116121648995
 30
0.0
 40
0.0787401573701384
 50
92.6074050185320772
 51
176.5727625778856975
  0
ARC
  5
23E7E
  8
0
 10
3290.3255594454758466
 20
142.4126020165909949
 30
0.0
 40
0.8661416167465134
 50
345.1383152765151863
 51
356.5727625778857259
  0
LINE
  5
23E7F
  8
0
 10
3291.1898465467597816
 20
142.3559530376469979
 30
0.0
 11
3291.3389629991220318
 21
142.3559530376469979
 31
0.0
  0
ARC
  5
23E80
  8
0
 10
3291.3382338513169998
 20
142.3324731049488037
 30
0.0
 40
0.023491251478691
 50
0.9588701281833447
 51
88.221303664056137
  0
ARC
  5
23E81
  8
0
 10
3291.3097480228889253
 20
141.2416277862052993
 30
0.0
 40
0.05219207154023
 50
302.153791057502815
 51
354.7580761935802798
  0
ARC
  5
23E82
  8
0
 10
3290.6998726363158312
 20
142.318268072500814
 30
0.0
 40
1.2895167478731131
 50
274.2559798217459957
 51
299.6360512951396231
  0
ARC
  5
23E83
  8
0
 10
3290.4099519124961262
 20
144.4860630131015
 30
0.0
 40
3.4752166878336861
 50
269.7722837597169132
 51
276.3708081534812777
  0
ARC
  5
23E84
  8
0
 10
3291.1885761377970994
 20
142.3745468196104866
 30
0.0
 40
0.0962021822690842
 50
335.6945483840951283
 51
348.8558432637371993
  0
ARC
  5
23E85
  8
0
 10
3290.9264136985730147
 20
142.4929477308153878
 30
0.0
 40
0.3838615647238249
 50
307.9970180600657272
 51
335.6945483840951283
  0
ARC
  5
23E86
  8
0
 10
3290.5870840029188003
 20
143.0314111663369943
 30
0.0
 40
1.019108896227674
 50
280.0603920582893238
 51
304.3918123098438855
  0
ARC
  5
23E87
  8
0
 10
3290.3955623630949958
 20
143.9180770469938864
 30
0.0
 40
1.9258923975382201
 50
270.0171864509896977
 51
281.0626881667092221
  0
ARC
  5
23E88
  8
0
 10
3290.4048677226810469
 20
143.8345565164979973
 30
0.0
 40
1.8962529557654699
 50
269.7362902769082211
 51
290.2461215672893786
  0
ARC
  5
23E89
  8
0
 10
3290.8950804216578945
 20
142.5492001913576985
 30
0.0
 40
0.5208924005791973
 50
288.5824629588863104
 51
329.6510180414271076
  0
ARC
  5
23E8A
  8
0
 10
3291.2390349761058133
 20
142.3511612856511022
 30
0.0
 40
0.1240434170601763
 50
328.3169465252893815
 51
351.5185508733032975
  0
LINE
  5
23E8B
  8
0
 10
3291.3617218132158087
 20
141.2368594059113036
 30
0.0
 11
3291.3617218132158087
 21
142.3328662230472901
 31
0.0
  0
LINE
  5
23E8C
  8
0
 10
3291.3617218132158087
 20
142.5646144549469909
 30
0.0
 11
3291.3617218132158087
 21
143.3941676521120883
 31
0.0
  0
LINE
  5
23E8D
  8
0
 10
3287.6208073194261488
 20
143.8640647466469886
 30
0.0
 11
3287.6280733400781173
 21
143.449941605139287
 31
0.0
  0
ARC
  5
23E8E
  8
0
 10
3287.6683372515899464
 20
143.4506480685666077
 30
0.0
 40
0.0402701087755985
 50
181.0051984091732038
 51
267.5508354975306133
  0
ARC
  5
23E8F
  8
0
 10
3289.5514202572749127
 20
151.2246201468335869
 30
0.0
 40
7.8347319548526659
 50
268.8224747636356255
 51
269.1160954741609999
  0
ARC
  5
23E90
  8
0
 10
3289.4024824001348861
 20
143.9786530221726935
 30
0.0
 40
0.5872343138074462
 50
265.9747714975865733
 51
268.8224747636356255
  0
ARC
  5
23E91
  8
0
 10
3289.4363006172588939
 20
141.2410796820317103
 30
0.0
 40
2.1530956275026218
 50
90.1528084587349667
 51
91.9972732744786299
  0
ARC
  5
23E92
  8
0
 10
3289.4441741604427989
 20
142.5665305298759904
 30
0.0
 40
0.0137500231607956
 50
188.0102740252023068
 51
266.6909947374962826
  0
LINE
  5
23E93
  8
0
 10
3289.451254511920979
 20
142.5528034313470016
 30
0.0
 11
3289.4519657060291138
 21
142.5120591473470029
 31
0.0
  0
ARC
  5
23E94
  8
0
 10
3289.5306938709209135
 20
142.5134333525496118
 30
0.0
 40
0.0787401573981432
 50
180.9999999801692923
 51
267.3922468927784735
  0
ARC
  5
23E95
  8
0
 10
3289.5235287889049687
 20
142.356116121648995
 30
0.0
 40
0.0787401573701384
 50
3.4272374221142972
 51
87.3925949814679512
  0
ARC
  5
23E96
  8
0
 10
3290.4667206626659208
 20
142.4126020165909949
 30
0.0
 40
0.8661416167465134
 50
183.4272374221143025
 51
194.8616847234847
  0
LINE
  5
23E97
  8
0
 10
3289.6024335613828953
 20
142.3559530376469979
 30
0.0
 11
3289.4533171090210999
 21
142.3559530376469979
 31
0.0
  0
ARC
  5
23E98
  8
0
 10
3289.4540462568252224
 20
142.3324731049488037
 30
0.0
 40
0.023491251478691
 50
91.7786963359438488
 51
179.0411298718167075
  0
ARC
  5
23E99
  8
0
 10
3289.4825320852542063
 20
141.2416277862052993
 30
0.0
 40
0.05219207154023
 50
185.2419238064179865
 51
237.8462089424972135
  0
ARC
  5
23E9A
  8
0
 10
3289.6037039703460323
 20
142.3745468196104866
 30
0.0
 40
0.0962021822690842
 50
191.1441567362628007
 51
204.3054516159047864
  0
ARC
  5
23E9B
  8
0
 10
3289.865866409570117
 20
142.4929477308153878
 30
0.0
 40
0.3838615647238249
 50
204.3054516159047864
 51
232.0029819399343012
  0
ARC
  5
23E9C
  8
0
 10
3289.8971996864847824
 20
142.5492001913576985
 30
0.0
 40
0.5208924005791973
 50
210.3489819585728924
 51
251.4175370411136043
  0
ARC
  5
23E9D
  8
0
 10
3289.5532451320368637
 20
142.3511612856511022
 30
0.0
 40
0.1240434170601763
 50
188.4814491266967025
 51
211.6830534747105901
  0
LINE
  5
23E9E
  8
0
 10
3289.4305582949259588
 20
141.2368594059113036
 30
0.0
 11
3289.4305582949259588
 21
142.3328662230472901
 31
0.0
  0
LINE
  5
23E9F
  8
0
 10
3289.4305582949259588
 20
142.5646144549469909
 30
0.0
 11
3289.4305582949259588
 21
143.3941676521120883
 31
0.0
  0
ARC
  5
23EA0
  8
0
 10
3290.0924074718259362
 20
142.318268072500814
 30
0.0
 40
1.2895167478731131
 50
240.3639487048604053
 51
265.7440201782540043
  0
ARC
  5
23EA1
  8
0
 10
3290.2051961052229672
 20
143.0314111663369943
 30
0.0
 40
1.019108896227674
 50
235.608187690155205
 51
259.9396079417107899
  0
ARC
  5
23EA2
  8
0
 10
3290.3967177450481358
 20
143.9180770469938864
 30
0.0
 40
1.9258923975382201
 50
258.9373118332907779
 51
269.9828135490101886
  0
ARC
  5
23EA3
  8
0
 10
3290.3874123854611753
 20
143.8345565164979973
 30
0.0
 40
1.8962529557654699
 50
249.7538784327105077
 51
270.263709723091722
  0
ARC
  5
23EA4
  8
0
 10
3290.743507362074979
 20
328.8935517192502971
 30
0.0
 40
185.5086557542041135
 50
269.0496349072572002
 51
269.59448216574242
  0
ENDSEC
  0
EOF
