  0
SECTION
  2
HEADER
  9
$ACADVER
  1
AC1009
  9
$INSBASE
 10
3611.192410963095881
 20
226.1545551949926107
 30
0.0
  9
$EXTMIN
 10
3589.1798174045729866
 20
217.6214309954403916
 30
0.0
  9
$EXTMAX
 10
3611.2036842321499535
 20
278.930879559392622
 30
0.0
  9
$LIMMIN
 10
0.0
 20
0.0
  9
$LIMMAX
 10
11.6929133858000007
 20
8.2677165353999982
  9
$ORTHOMODE
 70
     0
  9
$REGENMODE
 70
     1
  9
$FILLMODE
 70
     1
  9
$QTEXTMODE
 70
     0
  9
$MIRRTEXT
 70
     0
  9
$DRAGMODE
 70
     2
  9
$LTSCALE
 40
0.6431102362
  9
$OSMODE
 70
  4095
  9
$ATTMODE
 70
     1
  9
$TEXTSIZE
 40
0.2
  9
$TRACEWID
 40
0.05
  9
$TEXTSTYLE
  7
STANDARD
  9
$CLAYER
  8
0
  9
$CELTYPE
  6
BYLAYER
  9
$CECOLOR
 62
   256
  9
$DIMSCALE
 40
1.0
  9
$DIMASZ
 40
0.1875
  9
$DIMEXO
 40
0.0625
  9
$DIMDLI
 40
0.4443307087
  9
$DIMRND
 40
0.0
  9
$DIMDLE
 40
0.0
  9
$DIMEXE
 40
0.125
  9
$DIMTP
 40
0.01
  9
$DIMTM
 40
0.01
  9
$DIMTXT
 40
2.0
  9
$DIMCEN
 40
0.1052362205
  9
$DIMTSZ
 40
0.0
  9
$DIMTOL
 70
     1
  9
$DIMLIM
 70
     0
  9
$DIMTIH
 70
     1
  9
$DIMTOH
 70
     1
  9
$DIMSE1
 70
     0
  9
$DIMSE2
 70
     0
  9
$DIMTAD
 70
     0
  9
$DIMZIN
 70
     0
  9
$DIMBLK
  1

  9
$DIMASO
 70
     1
  9
$DIMSHO
 70
     1
  9
$DIMPOST
  1
\X
  9
$DIMAPOST
  1

  9
$DIMALT
 70
     1
  9
$DIMALTD
 70
     2
  9
$DIMALTF
 40
25.3999999999999986
  9
$DIMLFAC
 40
1.0
  9
$DIMTOFL
 70
     0
  9
$DIMTVP
 40
0.0
  9
$DIMTIX
 70
     0
  9
$DIMSOXD
 70
     0
  9
$DIMSAH
 70
     0
  9
$DIMBLK1
  1

  9
$DIMBLK2
  1

  9
$DIMSTYLE
  2
STANDARD
  9
$DIMCLRD
 70
     0
  9
$DIMCLRE
 70
     0
  9
$DIMCLRT
 70
     0
  9
$DIMTFAC
 40
1.0
  9
$DIMGAP
 40
0.09
  9
$LUNITS
 70
     2
  9
$LUPREC
 70
     4
  9
$SKETCHINC
 40
0.1
  9
$FILLETRAD
 40
0.0
  9
$AUNITS
 70
     0
  9
$AUPREC
 70
     0
  9
$MENU
  1
.
  9
$ELEVATION
 40
0.0
  9
$PELEVATION
 40
0.0
  9
$THICKNESS
 40
0.0
  9
$LIMCHECK
 70
     0
  9
$BLIPMODE
 70
     0
  9
$CHAMFERA
 40
0.0
  9
$CHAMFERB
 40
0.0
  9
$SKPOLY
 70
     0
  9
$TDCREATE
 40
2458060.468368056230247
  9
$TDUPDATE
 40
2459121.5169791667722166
  9
$TDINDWG
 40
0.669509375
  9
$TDUSRTIMER
 40
0.669509375
  9
$USRTIMER
 70
     1
  9
$ANGBASE
 50
0.0
  9
$ANGDIR
 70
     0
  9
$PDMODE
 70
     0
  9
$PDSIZE
 40
0.3125
  9
$PLINEWID
 40
0.0
  9
$COORDS
 70
     1
  9
$SPLFRAME
 70
     0
  9
$SPLINETYPE
 70
     6
  9
$SPLINESEGS
 70
     8
  9
$ATTDIA
 70
     1
  9
$ATTREQ
 70
     1
  9
$HANDLING
 70
     1
  9
$HANDSEED
  5
CFC8
  9
$SURFTAB1
 70
     6
  9
$SURFTAB2
 70
     6
  9
$SURFTYPE
 70
     6
  9
$SURFU
 70
     6
  9
$SURFV
 70
     6
  9
$UCSNAME
  2

  9
$UCSORG
 10
0.0
 20
0.0
 30
0.0
  9
$UCSXDIR
 10
1.0
 20
0.0
 30
0.0
  9
$UCSYDIR
 10
0.0
 20
1.0
 30
0.0
  9
$PUCSNAME
  2

  9
$PUCSORG
 10
0.0
 20
0.0
 30
0.0
  9
$PUCSXDIR
 10
1.0
 20
0.0
 30
0.0
  9
$PUCSYDIR
 10
0.0
 20
1.0
 30
0.0
  9
$USERI1
 70
     0
  9
$USERI2
 70
     0
  9
$USERI3
 70
     0
  9
$USERI4
 70
     0
  9
$USERI5
 70
     0
  9
$USERR1
 40
0.0
  9
$USERR2
 40
0.0
  9
$USERR3
 40
0.0
  9
$USERR4
 40
0.0
  9
$USERR5
 40
0.0
  9
$WORLDVIEW
 70
     1
  9
$SHADEDGE
 70
     3
  9
$SHADEDIF
 70
    70
  9
$TILEMODE
 70
     1
  9
$MAXACTVP
 70
    64
  9
$PLIMCHECK
 70
     0
  9
$PEXTMIN
 10
1.0000000000000000E+20
 20
1.0000000000000000E+20
 30
1.0000000000000000E+20
  9
$PEXTMAX
 10
-1.0000000000000000E+20
 20
-1.0000000000000000E+20
 30
-1.0000000000000000E+20
  9
$PLIMMIN
 10
0.0
 20
0.0
  9
$PLIMMAX
 10
12.0
 20
9.0
  9
$UNITMODE
 70
     0
  9
$VISRETAIN
 70
     1
  9
$PLINEGEN
 70
     0
  9
$PSLTSCALE
 70
     1
  0
ENDSEC
  0
SECTION
  2
TABLES
  0
TABLE
  2
VPORT
 70
     1
  0
VPORT
  2
*ACTIVE
 70
     0
 10
0.0
 20
0.0
 11
1.0
 21
1.0
 12
0.0
 22
0.0
 13
0.0
 23
0.0
 14
1.0
 24
1.0
 15
0.0
 25
0.0
 16
0.0
 26
0.0
 36
235.7553780787118001
 17
3600.1918079365450467
 27
248.2761840820311932
 37
0.0
 40
65.1451198320203417
 41
2.8398203592814371
 42
50.0
 43
0.0
 44
0.0
 50
0.0
 51
0.0
 71
     0
 72
   100
 73
     1
 74
     1
 75
     0
 76
     0
 77
     0
 78
     0
  0
ENDTAB
  0
TABLE
  2
LTYPE
 70
     2
  0
LTYPE
  2
CONTINUOUS
 70
     0
  3
Solid line
 72
    65
 73
     0
 40
0.0
  0
LTYPE
  2
PHANTOM2
 70
     0
  3
___ _ _ ___ _ _ ___ _ _ ___ _ _
 72
    65
 73
     6
 40
1.25
 49
0.625
 49
-0.125
 49
0.125
 49
-0.125
 49
0.125
 49
-0.125
  0
ENDTAB
  0
TABLE
  2
LAYER
 70
     2
  0
LAYER
  2
0
 70
     0
 62
   255
  6
CONTINUOUS
  0
LAYER
  2
DEFPOINTS
 70
     0
 62
     7
  6
CONTINUOUS
  0
ENDTAB
  0
TABLE
  2
STYLE
 70
     1
  0
STYLE
  2
STANDARD
 70
     0
 40
0.0
 41
0.8
 50
0.0
 71
     0
 42
0.2
  3
txt
  4

  0
ENDTAB
  0
TABLE
  2
VIEW
 70
     0
  0
ENDTAB
  0
TABLE
  2
UCS
 70
     0
  0
ENDTAB
  0
TABLE
  2
APPID
 70
    10
  0
APPID
  2
ACAD
 70
     0
  0
APPID
  2
ACAD_MLEADERVER
 70
     0
  0
APPID
  2
ACAD_EXEMPT_FROM_CAD_STANDARDS
 70
     0
  0
APPID
  2
ACAD_NAV_VCDISPLAY
 70
     0
  0
APPID
  2
ACAECLAYERSTANDARD
 70
     0
  0
APPID
  2
ACCMTRANSPARENCY
 70
     0
  0
APPID
  2
ACAD_DSTYLE_DIMJAG
 70
     0
  0
APPID
  2
ACAD_DSTYLE_DIMTALN
 70
     0
  0
APPID
  2
ACDBATTR
 70
     0
  0
APPID
  2
ACADANNOTATIVE
 70
     0
  0
ENDTAB
  0
TABLE
  2
DIMSTYLE
 70
     2
  0
DIMSTYLE
  2
STANDARD
 70
     0
  3

  4

  5

  6

  7

 40
1.0
 41
0.1875
 42
0.0625
 43
0.38
 44
0.125
 45
0.0
 46
0.0
 47
0.01
 48
0.01
140
0.15625
141
0.09
142
0.0
143
25.3999999999999986
144
1.0
145
0.0
146
1.0
147
0.09
 71
     1
 72
     0
 73
     1
 74
     1
 75
     0
 76
     0
 77
     0
 78
     4
170
     0
171
     2
172
     0
173
     0
174
     0
175
     0
176
     0
177
     0
178
     0
  0
DIMSTYLE
  2
ANNOTATIVE
 70
     0
  3

  4

  5

  6

  7

 40
0.0
 41
0.18
 42
0.0625
 43
0.38
 44
0.18
 45
0.0
 46
0.0
 47
0.0
 48
0.0
140
0.18
141
0.09
142
0.0
143
25.3999999999999986
144
1.0
145
0.0
146
1.0
147
0.09
 71
     0
 72
     0
 73
     1
 74
     1
 75
     0
 76
     0
 77
     0
 78
     0
170
     0
171
     2
172
     0
173
     0
174
     0
175
     0
176
     0
177
     0
178
     0
  0
ENDTAB
  0
ENDSEC
  0
SECTION
  2
BLOCKS
  0
BLOCK
  8
0
  2
$MODEL_SPACE
 70
     0
 10
0.0
 20
0.0
 30
0.0
  3
$MODEL_SPACE
  1

  0
ENDBLK
  5
21
  8
0
  0
BLOCK
 67
     1
  8
0
  2
$PAPER_SPACE
 70
     0
 10
0.0
 20
0.0
 30
0.0
  3
$PAPER_SPACE
  1

  0
ENDBLK
  5
1D
 67
     1
  8
0
  0
BLOCK
  8
0
  2
_FILLED
 70
     0
 10
0.0
 20
0.0
 30
0.0
  3
_FILLED
  1

  0
SOLID
  5
6F59
  8
0
  6
BYBLOCK
 62
     0
 10
0.0
 20
0.0
 30
0.0
 11
-1.0
 21
0.1666666667
 31
0.0
 12
-1.0
 22
-0.1666666667
 32
0.0
 13
-1.0
 23
-0.1666666667
 33
0.0
  0
ENDBLK
  5
6F5A
  8
0
  6
BYBLOCK
 62
     0
  0
ENDSEC
  0
SECTION
  2
ENTITIES
  0
ATTDEF
  5
3930
  8
DEFPOINTS
 10
3611.1930175654820232
 20
226.158845766142889
 30
0.0
 40
0.001
  1
K-99474M-4
  3

  2
MODELNUMBER
 70
     0
1001
ACDBATTR
1070
     0
1070
     1
  0
ATTDEF
  5
3931
  8
DEFPOINTS
 10
3611.1930175654820232
 20
226.1571790994763091
 30
0.0
 40
0.001
  1
KUMIN
  3

  2
TRADENAME
 70
     0
1001
ACDBATTR
1070
     0
1070
     1
  0
ATTDEF
  5
3932
  8
DEFPOINTS
 10
3611.1930175654820232
 20
226.1555124328095872
 30
0.0
 40
0.001
  1
BATH AND SHOWER FAUCET
  3

  2
PRODUCT
 70
     0
1001
ACDBATTR
1070
     0
1070
     1
  0
LINE
  5
BA97
  8
0
 10
3605.5074456194511185
 20
228.4458629731925896
 30
0.0
 11
3607.3608263453579639
 21
228.4458629731925896
 31
0.0
  0
LINE
  5
BA98
  8
0
 10
3606.4031931229719703
 20
224.7431333320926115
 30
0.0
 11
3605.4384858272660495
 21
224.7431333320926115
 31
0.0
  0
ARC
  5
BA99
  8
0
 10
3606.4030526438991728
 20
224.7628180030102101
 30
0.0
 40
0.0196851721735714
 50
270.4088826947451025
 51
359.9995659893500033
  0
LINE
  5
BA9A
  8
0
 10
3606.4227378160721855
 20
224.7628178538967063
 30
0.0
 11
3606.4227378160721855
 21
225.1486446255119063
 31
0.0
  0
LINE
  5
BA9B
  8
0
 10
3605.4188012060722031
 20
225.1486456607609057
 30
0.0
 11
3605.418800808171909
 21
224.762818868792607
 31
0.0
  0
ARC
  5
BA9C
  8
0
 10
3605.4384866762411548
 20
224.7628192001454863
 30
0.0
 40
0.0196858680711818
 50
180.0009644035606868
 51
269.9975290789632822
  0
ARC
  5
BA9D
  8
0
 10
3611.1725573723729212
 20
227.4339027371607074
 30
0.0
 40
0.0198660831183984
 50
0.2153187980238186
 51
89.4730482138868268
  0
LINE
  5
BA9E
  8
0
 10
3611.1924233152099077
 20
227.4339773941617011
 30
0.0
 11
3611.1923986089518621
 21
224.8749226562810009
 31
0.0
  0
ARC
  5
BA9F
  8
0
 10
3611.1727133636200051
 20
224.8749228463317991
 30
0.0
 40
0.0196852453336353
 50
275.9150601207597902
 51
359.9994468388937889
  0
ARC
  5
BAA0
  8
0
 10
3611.0435796018100518
 20
225.0520880145905096
 30
0.0
 40
0.1968503937000237
 50
218.1714704220503052
 51
268.1304090108976084
  0
ARC
  5
BAA1
  8
0
 10
69895.2015037513338029
 20
52012.6445509268596652
 30
0.0
 40
84116.4516687738068867
 50
217.9998689701155001
 51
218.0003936322032985
  0
ARC
  5
BAA2
  8
0
 10
3610.4766585759389272
 20
225.5858827475458099
 30
0.0
 40
0.0787482654401642
 50
180.0009868589989139
 51
217.9966434375332938
  0
LINE
  5
BAA3
  8
0
 10
3610.3979103105098147
 20
225.5858813911904974
 30
0.0
 11
3610.3979103104102251
 21
226.7230190473904941
 31
0.0
  0
ARC
  5
BAA4
  8
0
 10
3610.4766504678900674
 20
226.7230190473974005
 30
0.0
 40
0.078740157479885
 50
141.9999999350600035
 51
180.0000000050366964
  0
ARC
  5
BAA5
  8
0
 10
3586.8955686271820014
 20
245.936922145701601
 30
0.0
 40
30.339058905413971
 50
320.8237525951849989
 51
322.3096723080232096
  0
ARC
  5
BAA6
  8
0
 10
3611.037575705981908
 20
227.2848677486983036
 30
0.0
 40
0.1689018119535445
 50
90.2478712772816323
 51
142.4438688760344007
  0
LINE
  5
BAA7
  8
0
 10
3608.3410041894180722
 20
227.8101127626227083
 30
0.0
 11
3607.6838700172211247
 21
227.8101127626227083
 31
0.0
  0
LINE
  5
BAA8
  8
0
 10
3609.2663780262378168
 20
227.7195099513926095
 30
0.0
 11
3607.6863700824778789
 21
227.7195099513926095
 31
0.0
  0
LINE
  5
BAA9
  8
0
 10
3610.1018731741100964
 20
226.7843747469405002
 30
0.0
 11
3609.6294313497619441
 21
226.7843747469405002
 31
0.0
  0
LINE
  5
BAAA
  8
0
 10
3610.1018736449959761
 20
225.5245322273405009
 30
0.0
 11
3609.6294327366590551
 21
225.5245322273405009
 31
0.0
  0
LINE
  5
BAAB
  8
0
 10
3609.5034491677251935
 20
225.1486451514925875
 30
0.0
 11
3605.2549793823081927
 21
225.1486451514925875
 31
0.0
  0
LINE
  5
BAAC
  8
0
 10
3610.1018731741100964
 20
226.7843747469405002
 30
0.0
 11
3610.1609280790098637
 21
226.7253199029404982
 31
0.0
  0
LINE
  5
BAAD
  8
0
 10
3610.1609280790098637
 20
226.7253199029404982
 30
0.0
 11
3610.160928667709868
 21
225.5835876194404932
 31
0.0
  0
LINE
  5
BAAE
  8
0
 10
3610.160928667709868
 20
225.5835876194404932
 30
0.0
 11
3610.1018736449959761
 21
225.5245322273405009
 31
0.0
  0
LINE
  5
BAAF
  8
0
 10
3609.6294312367431303
 20
226.5562841515072989
 30
0.0
 11
3610.1018730481100647
 21
226.5562843951404943
 31
0.0
  0
LINE
  5
BAB0
  8
0
 10
3610.1018730481100647
 20
226.5562843951404943
 30
0.0
 11
3610.1018731422759629
 21
226.3736570521404872
 31
0.0
  0
ARC
  5
BAB1
  8
0
 10
3609.511317550377953
 20
226.1544534263034905
 30
0.0
 40
0.629925500946184
 50
339.6360379130683782
 51
20.3640211592360494
  0
LINE
  5
BAB2
  8
0
 10
3610.1018733683099526
 20
225.9352504093332072
 30
0.0
 11
3610.1018734624099125
 21
225.7526230663405045
 31
0.0
  0
ARC
  5
BAB3
  8
0
 10
3609.9689984574920345
 20
225.6430213448821007
 30
0.0
 40
0.1722448962345725
 50
320.4826364303423816
 51
39.5174590191513175
  0
LINE
  5
BAB4
  8
0
 10
3610.1018736449959761
 20
225.533419844781406
 30
0.0
 11
3610.1018736449959761
 21
225.5245322273405009
 31
0.0
  0
LINE
  5
BAB5
  8
0
 10
3610.1018736449959761
 20
225.533419844781406
 30
0.0
 11
3609.6294325331468826
 21
225.533419844781406
 31
0.0
  0
LINE
  5
BAB6
  8
0
 10
3610.101872930510126
 20
226.7843747469405002
 30
0.0
 11
3610.1018729351098955
 21
226.7754877164404945
 31
0.0
  0
ARC
  5
BAB7
  8
0
 10
3609.9689978496489857
 20
226.6658859873211043
 30
0.0
 40
0.1722449632775921
 50
320.482615120621972
 51
39.5174439274051466
  0
LINE
  5
BAB8
  8
0
 10
3610.1018731422759629
 20
226.3736570522372915
 30
0.0
 11
3609.6294324572218102
 21
226.373656808486686
 31
0.0
  0
LINE
  5
BAB9
  8
0
 10
3610.1018733683099526
 20
225.9352504093405116
 30
0.0
 11
3609.6294324271611913
 21
225.9352501658084975
 31
0.0
  0
LINE
  5
BABA
  8
0
 10
3610.1018734624099125
 20
225.7526230663405045
 30
0.0
 11
3609.6294329319598546
 21
225.7526230663405045
 31
0.0
  0
LINE
  5
BABB
  8
0
 10
3610.1609281081100562
 20
226.6690205725404894
 30
0.0
 11
3610.3979103104152273
 21
226.6690205725404894
 31
0.0
  0
LINE
  5
BABC
  8
0
 10
3610.1609286387101747
 20
225.6398867143404914
 30
0.0
 11
3610.3979103105048125
 21
225.6398867143404914
 31
0.0
  0
ARC
  5
BABF
  8
0
 10
3604.4704675880770992
 20
225.5853012777145921
 30
0.0
 40
1.13920576342985
 50
110.783048745305905
 51
133.657400588494113
  0
ARC
  5
BAC0
  8
0
 10
3605.0998915595041581
 20
224.8844129846704902
 30
0.0
 40
2.0809992302566829
 50
132.8732834653544046
 51
138.343848015599292
  0
ARC
  5
BAC1
  8
0
 10
3603.568912634706976
 20
226.2478545146952058
 30
0.0
 40
0.0309294913308048
 50
140.4056606091504023
 51
219.5943393908509051
  0
ARC
  5
BAC2
  8
0
 10
3605.8496443805920535
 20
227.8664000223431003
 30
0.0
 40
2.8275274610550629
 50
215.4080779687213862
 51
217.8177917605084133
  0
ARC
  5
BAC3
  8
0
 10
3605.1384215610551109
 20
227.3092039825127983
 30
0.0
 40
1.92404481253863
 50
217.6963772951179124
 51
223.0126549375287937
  0
ARC
  5
BAC4
  8
0
 10
3595.6307713452652024
 20
201.1035216566598933
 30
0.0
 40
26.1780996361526093
 50
71.2033163849989279
 51
71.9739813300147375
  0
ARC
  5
BAC5
  8
0
 10
3600.8052496090849672
 20
215.833220068993711
 30
0.0
 40
10.5677930677548808
 50
69.7216619471955283
 51
72.0298514331084903
  0
ARC
  5
BAC6
  8
0
 10
3604.1398390292060867
 20
224.9320352678927861
 30
0.0
 40
0.8775891123442368
 50
64.9549199941265272
 51
68.0523374763101145
  0
ARC
  5
BAC7
  8
0
 10
3603.9340976444100306
 20
224.5648255729338132
 30
0.0
 40
1.2977376671468279
 50
60.5189546938874372
 51
63.5885430028227319
  0
ARC
  5
BAC8
  8
0
 10
3604.1093756262748684
 20
224.8741576721351976
 30
0.0
 40
0.9421978657484281
 50
48.4493970602319095
 51
60.5402017778462067
  0
ARC
  5
BAC9
  8
0
 10
3604.565318485989792
 20
224.8448622830125885
 30
0.0
 40
0.753602138459975
 50
23.7726037572671487
 51
77.0409048937132184
  0
ARC
  5
BACA
  8
0
 10
3607.6865881225180601
 20
227.6998481801938112
 30
0.0
 40
0.0196629801437168
 50
90.6353579169551153
 51
180.0653708296601963
  0
LINE
  5
BACB
  8
0
 10
3607.6669251551720663
 20
227.6998257459925981
 30
0.0
 11
3607.6669248807711483
 21
227.4337763465925946
 31
0.0
  0
ARC
  5
BACC
  8
0
 10
3605.0559048044001429
 20
227.4337790395819923
 30
0.0
 40
2.6110200763720668
 50
358.1075218142175913
 51
359.9999409054984199
  0
ARC
  5
BACD
  8
0
 10
3607.0425250197640707
 20
227.3681371497605994
 30
0.0
 40
0.6233156874365098
 50
270.9189688587005094
 51
358.1075218142175913
  0
ARC
  5
BACE
  8
0
 10
3608.3895750931701514
 20
227.6422243270176011
 30
0.0
 40
0.6694621888082876
 50
165.4762640579714912
 51
173.3707451151084058
  0
ARC
  5
BACF
  8
0
 10
3608.3323462744560857
 20
228.5199670095838087
 30
0.0
 40
0.7099070442108255
 50
270.6987876635868133
 51
295.7278793796186847
  0
ARC
  5
BAD0
  8
0
 10
3028.6686206811928059
 20
1472.8683244454421128
 30
0.0
 40
1373.4490310289879744
 50
294.9782416834895002
 51
295.0072527897854116
  0
ARC
  5
BAD1
  8
0
 10
3607.6853018611877815
 20
227.8297555796299037
 30
0.0
 40
0.0196949343011118
 50
180.0287827893895098
 51
265.830853965086817
  0
LINE
  5
BAD2
  8
0
 10
3607.665606929373098
 20
227.8297456835111063
 30
0.0
 11
3607.665606929373098
 21
228.1163248358926126
 31
0.0
  0
ARC
  5
BAD3
  8
0
 10
3607.2498474645831266
 20
228.173473223851687
 30
0.0
 40
0.419668763204186
 50
352.1734308822260004
 51
34.5497713648849327
  0
ARC
  5
BAD4
  8
0
 10
3607.3282108872149365
 20
227.4052975133494954
 30
0.0
 40
1.0410764834191499
 50
22.8825234101095916
 51
88.2047102686243818
  0
ARC
  5
BAD5
  8
0
 10
3605.5107240055631337
 20
228.7344520617689909
 30
0.0
 40
0.2886077092886321
 50
245.8177510043115035
 51
269.3491451490580744
  0
ARC
  5
BAD6
  8
0
 10
3606.0052146390280541
 20
229.988372598889498
 30
0.0
 40
1.6362527481140601
 50
245.1217212673068104
 51
248.0088766999134862
  0
ARC
  5
BAD7
  8
0
 10
3605.3474018600782074
 20
228.5551385739838963
 30
0.0
 40
0.0596024550628559
 50
120.8249251549627985
 51
239.1703240683218894
  0
ARC
  5
BAD8
  8
0
 10
3605.9553440470449459
 20
227.235194680251908
 30
0.0
 40
1.512497818433518
 50
107.7933912535191041
 51
114.9696698562652983
  0
ARC
  5
BAD9
  8
0
 10
3605.9702441788349461
 20
227.1357802617544053
 30
0.0
 40
1.6117913134616579
 50
98.3825371008708061
 51
107.2177821783773055
  0
ARC
  5
BADA
  8
0
 10
3606.1976343548108161
 20
225.3057286583818097
 30
0.0
 40
3.4556945508671948
 50
90.0526434680284211
 51
97.6890281540421057
  0
ARC
  5
BADB
  8
0
 10
3608.357443542159217
 20
226.2813603100188971
 30
0.0
 40
2.4807486101843579
 50
73.068659783694585
 51
88.6513841929885444
  0
LINE
  5
BADC
  8
0
 10
3606.2065661730898682
 20
226.8021884501926024
 30
0.0
 11
3605.6353372996140934
 21
226.8021884501926024
 31
0.0
  0
LINE
  5
BADD
  8
0
 10
3603.9088564872990901
 20
225.9382998304542127
 30
0.0
 11
3603.9043671179510966
 21
225.9244830974126899
 31
0.0
  0
ARC
  5
BADE
  8
0
 10
3603.9418102554727739
 20
225.9123169743926098
 30
0.0
 40
0.0393700786999909
 50
161.9998475425626907
 51
206.9998473353030874
  0
ARC
  5
BADF
  8
0
 10
3622.8439972043329362
 20
235.5369279787840071
 30
0.0
 40
21.2508247289316188
 50
206.9843023573970129
 51
207.0153924810225021
  0
LINE
  5
BAE0
  8
0
 10
3603.9119662518719451
 20
225.8841690117926078
 30
0.0
 11
3604.5484856361717902
 21
225.677349451792594
 31
0.0
  0
ARC
  5
BAE1
  8
0
 10
3603.0994217841671343
 20
228.5403807746689893
 30
0.0
 40
3.208852505641564
 50
296.8453052574618027
 51
297.0513869613895963
  0
ARC
  5
BAE2
  8
0
 10
3604.5409004553271188
 20
225.7176590040120061
 30
0.0
 40
0.039370079167397
 50
296.9998476584299283
 51
324.022368803220786
  0
LINE
  5
BAE3
  8
0
 10
3604.2789091710719731
 20
225.7649415325925872
 30
0.0
 11
3604.2641447039718514
 21
225.7195015873926138
 31
0.0
  0
ARC
  5
BAE4
  8
0
 10
3604.3966500499600443
 20
226.2952928450897048
 30
0.0
 40
0.5908411285240029
 50
257.0403028532122107
 51
275.7560788305348183
  0
LINE
  5
BAE5
  8
0
 10
3604.1815568420452109
 20
225.796572924988709
 30
0.0
 11
3604.1667925156521051
 21
225.7511334128543012
 31
0.0
  0
ARC
  5
BAE6
  8
0
 10
3604.398058864162067
 20
226.2948741792127976
 30
0.0
 40
0.5908791288861625
 50
228.2442223722426888
 51
246.9587547900127902
  0
LINE
  5
BAE7
  8
0
 10
3604.1799773390571318
 20
225.7917117587369091
 30
0.0
 11
3604.1907648705659994
 21
225.7842960334565987
 31
0.0
  0
LINE
  5
BAE8
  8
0
 10
3604.1907648705659994
 20
225.7842960334565987
 30
0.0
 11
3604.2110997353729545
 21
225.7770388154926025
 31
0.0
  0
LINE
  5
BAE9
  8
0
 10
3604.2110997353729545
 20
225.7770388154926025
 30
0.0
 11
3604.2133967889972155
 21
225.7841083555904902
 31
0.0
  0
LINE
  5
BAEA
  8
0
 10
3604.2133967889972155
 20
225.7841083555904902
 30
0.0
 11
3604.222449940279148
 21
225.7832858314725968
 31
0.0
  0
LINE
  5
BAEB
  8
0
 10
3604.2113363327330262
 20
225.7777669806966969
 30
0.0
 11
3604.2290373653090683
 21
225.7770774567935916
 31
0.0
  0
LINE
  5
BAEC
  8
0
 10
3604.2290373653090683
 20
225.7770774567935916
 30
0.0
 11
3604.2437630410368001
 21
225.7672308090189972
 31
0.0
  0
LINE
  5
BAED
  8
0
 10
3604.2464462749171616
 20
225.7754888790250902
 30
0.0
 11
3604.2435264436699072
 21
225.7665026437846905
 31
0.0
  0
LINE
  5
BAEE
  8
0
 10
3604.2435264436699072
 20
225.7665026437846905
 30
0.0
 11
3604.2642433480441468
 21
225.760421212405106
 31
0.0
  0
LINE
  5
BAEF
  8
0
 10
3604.2642433480441468
 20
225.760421212405106
 30
0.0
 11
3604.2669721595398187
 21
225.7688195543647964
 31
0.0
  0
LINE
  5
BAF0
  8
0
 10
3604.264288925558958
 20
225.7605614842989894
 30
0.0
 11
3604.2773294965609239
 21
225.7600798384274015
 31
0.0
  0
LINE
  5
BAF1
  8
0
 10
3604.1907648705659994
 20
225.7842960334565987
 30
0.0
 11
3604.1934936820180155
 21
225.7926943754081037
 31
0.0
  0
LINE
  5
BAF2
  8
0
 10
3604.2290373652731432
 20
225.7770774567925969
 30
0.0
 11
3604.2302329208291667
 21
225.7807569648701929
 31
0.0
  0
LINE
  5
BAF3
  8
0
 10
3606.1432149642728291
 20
226.8021884501926024
 30
0.0
 11
3606.1432149642728291
 21
226.7431630403922043
 31
0.0
  0
LINE
  5
BAF4
  8
0
 10
3605.6983330744710656
 20
226.8021884501926024
 30
0.0
 11
3605.6983330744710656
 21
226.7430778623925107
 31
0.0
  0
ARC
  5
BAF5
  8
0
 10
3606.2063768207058274
 20
226.8118579441789961
 30
0.0
 40
0.0096713478005186
 50
271.121848358567604
 51
0.0000025935559877
  0
LINE
  5
BAF6
  8
0
 10
3606.2160481685068589
 20
226.8118579446168042
 30
0.0
 11
3606.2160474559727845
 21
227.2936992246926025
 31
0.0
  0
ARC
  5
BAF7
  8
0
 10
3606.2554158135121725
 20
227.2936992829095004
 30
0.0
 40
0.0393683575399746
 50
110.7347281934437007
 51
180.0000847275437934
  0
ARC
  5
BAF8
  8
0
 10
3606.0851268937558416
 20
227.7435310625077989
 30
0.0
 40
0.4416170332237338
 50
290.7347281934438001
 51
296.2782701674897226
  0
ARC
  5
BAF9
  8
0
 10
3606.2632461789439731
 20
227.3827897010247909
 30
0.0
 40
0.0392977450457043
 50
296.2782701674656209
 51
63.7216116705109172
  0
ARC
  5
BAFA
  8
0
 10
3606.0049862193418448
 20
226.8050392068867893
 30
0.0
 40
0.6721164649200244
 50
65.7866954407343627
 51
86.1010822774759674
  0
ARC
  5
BAFB
  8
0
 10
3605.920893022097971
 20
226.0175919620477885
 30
0.0
 40
1.4637740277041811
 50
84.9128281576889634
 51
95.2312948439330995
  0
ARC
  5
BAFC
  8
0
 10
3605.835153727911802
 20
226.8095571528266987
 30
0.0
 40
0.6674201846846012
 50
94.1003172011101867
 51
114.2621167046013966
  0
ARC
  5
BAFD
  8
0
 10
3605.5783832375809652
 20
227.382789866418193
 30
0.0
 40
0.0393351503795649
 50
116.3844769517702957
 51
243.6155230482297043
  0
ARC
  5
BAFE
  8
0
 10
3605.7497051715859016
 20
227.7281505719687118
 30
0.0
 40
0.4248545688396251
 50
243.6155230482297043
 51
249.3777794913534933
  0
ARC
  5
BAFF
  8
0
 10
3605.5862383205881088
 20
227.293777662505903
 30
0.0
 40
0.0392588182160919
 50
359.8883550077890163
 51
69.3716042673943321
  0
LINE
  5
BB00
  8
0
 10
3605.6254970642721673
 20
227.2937011638925924
 30
0.0
 11
3605.6254966352530573
 21
226.8120311913909859
 31
0.0
  0
ARC
  5
BB01
  8
0
 10
3605.6353395234450545
 20
226.8120313381355118
 30
0.0
 40
0.0098428881941178
 50
180.0008542047490891
 51
269.9870550549442214
  0
LINE
  5
BB02
  8
0
 10
3605.3168288949550515
 20
228.503974656492602
 30
0.0
 11
3607.1085379906430717
 21
228.503974656492602
 31
0.0
  0
ARC
  5
BB03
  8
0
 10
3608.64862774905896
 20
181.1677391786188025
 30
0.0
 40
47.3696751525322384
 50
89.2336515470476428
 51
91.5223783376835769
  0
ARC
  5
BB04
  8
0
 10
3607.3655452386178695
 20
226.5550850052144938
 30
0.0
 40
1.965762854051929
 50
89.2831445921453053
 51
97.5124564889610639
  0
LINE
  5
BB05
  8
0
 10
3609.5034491678597988
 20
225.1485443417404895
 30
0.0
 11
3609.5034470493601475
 21
226.725016005351506
 31
0.0
  0
LINE
  5
BB06
  8
0
 10
3609.6294302147598501
 20
226.7843741989404975
 30
0.0
 11
3609.5703751879600532
 21
226.7253189894404954
 31
0.0
  0
LINE
  5
BB07
  8
0
 10
3609.5703751879600532
 20
226.7253189894404954
 30
0.0
 11
3609.5703780752601233
 21
225.5835867060405064
 31
0.0
  0
LINE
  5
BB08
  8
0
 10
3609.5703780752601233
 20
225.5835867060405064
 30
0.0
 11
3609.6294332847601254
 21
225.5245316792405106
 31
0.0
  0
LINE
  5
BB09
  8
0
 10
3609.6294332847601254
 20
225.5245316792405106
 30
0.0
 11
3609.6294332847601254
 21
225.5334189335121096
 31
0.0
  0
ARC
  5
BB0A
  8
0
 10
3609.7623156270819891
 20
225.6430208179959891
 30
0.0
 40
0.1722506603272038
 50
140.4842365923055922
 51
219.5159478387533056
  0
LINE
  5
BB0B
  8
0
 10
3609.6294329319598546
 20
225.7526222747405029
 30
0.0
 11
3609.6294329319598546
 21
225.9352488059284951
 31
0.0
  0
ARC
  5
BB0C
  8
0
 10
3610.2199859254528747
 20
226.1544534466561913
 30
0.0
 40
0.6299234181061962
 50
159.6359873056372862
 51
200.3641899497314967
  0
LINE
  5
BB0D
  8
0
 10
3609.6294322538051347
 20
226.3736562604408959
 30
0.0
 11
3609.6294316888070171
 21
226.5562836034403063
 31
0.0
  0
ARC
  5
BB0E
  8
0
 10
3609.7623066525061404
 20
226.6658854696653123
 30
0.0
 40
0.1722449565483438
 50
140.482672350241188
 51
219.5175048902437993
  0
LINE
  5
BB0F
  8
0
 10
3609.6294313497601252
 20
226.775486924840493
 30
0.0
 11
3609.6294313497619441
 21
226.7843747469405002
 31
0.0
  0
LINE
  5
BB10
  8
0
 10
3610.1018729351571892
 20
226.7754877164404945
 30
0.0
 11
3609.6294313497601252
 21
226.7754877165685059
 31
0.0
  0
LINE
  5
BB11
  8
0
 10
3609.5703753323250567
 20
226.6682325620394067
 30
0.0
 11
3609.5034471267608751
 21
226.6682325620394067
 31
0.0
  0
LINE
  5
BB12
  8
0
 10
3609.5703779308951198
 20
225.6406735069404021
 30
0.0
 11
3609.5034485065261833
 21
225.6406735069404021
 31
0.0
  0
ARC
  5
BB13
  8
0
 10
3609.4837543829480637
 20
226.7250127678063905
 30
0.0
 40
0.0196926666776545
 50
0.0094196321625788
 51
91.2874124252488741
  0
ARC
  5
BB14
  8
0
 10
3609.4770004988608889
 20
226.9944798036943894
 30
0.0
 40
0.2498590663273365
 50
255.2185204386032069
 51
268.4846632640994244
  0
ARC
  5
BB15
  8
0
 10
3609.4482792262779185
 20
226.8585286537363004
 30
0.0
 40
0.1112943690732707
 50
204.9270186038610007
 51
251.656352727000808
  0
ARC
  5
BB16
  8
0
 10
3609.7806058991850477
 20
227.0129800807401921
 30
0.0
 40
0.4777589114638536
 50
184.1056590902657888
 51
204.9270186038610007
  0
ARC
  5
BB17
  8
0
 10
3617.0441730681309309
 20
227.5343647776790874
 30
0.0
 40
7.7600147446512677
 50
180.7434427606555118
 51
184.1056930863923071
  0
LINE
  5
BB18
  8
0
 10
3609.2848115687388599
 20
227.6997265980857037
 30
0.0
 11
3609.2848115687388599
 21
227.4336773457405059
 31
0.0
  0
ARC
  5
BB19
  8
0
 10
3609.2648368393001874
 20
227.6995945998268098
 30
0.0
 40
0.0199748963743873
 50
0.3790472587577919
 51
85.5748778955231586
  0
ARC
  5
BB1A
  8
0
 10
3608.4899640958260534
 20
227.071937420354601
 30
0.0
 40
1.689017814696989
 50
62.8405567392296689
 51
69.5568399941894171
  0
ARC
  5
BB1B
  8
0
 10
3609.2438320897440462
 20
228.5400702484585054
 30
0.0
 40
0.0386494541078146
 50
352.9901985411888745
 51
63.7156482027581106
  0
LINE
  5
BB1C
  8
0
 10
3609.2821926503597751
 20
228.5353535025404881
 30
0.0
 11
3609.2821926503597751
 21
228.1920986570405034
 31
0.0
  0
ARC
  5
BB1D
  8
0
 10
3609.2625077101711213
 20
228.1920986570405034
 30
0.0
 40
0.0196849401892436
 50
295.0005301743493078
 51
0.0000000000097707
  0
ARC
  5
BB1E
  8
0
 10
3608.3700681088321289
 20
227.5998368162497059
 30
0.0
 40
0.8660709213480458
 50
7.9359414269554938
 51
34.2976635094433391
  0
ARC
  5
BB1F
  8
0
 10
3606.3519418373748522
 20
224.7313223085070888
 30
0.0
 40
0.0118110235854871
 50
359.9999999250134124
 51
90.0000000291035605
  0
LINE
  5
BB20
  8
0
 10
3605.4652017898688428
 20
224.5069128595926031
 30
0.0
 11
3606.3770098639688513
 21
224.5069128595926031
 31
0.0
  0
LINE
  5
BB21
  8
0
 10
3606.3770098639688513
 20
224.5069128595926031
 30
0.0
 11
3606.3770098639688513
 21
224.2116372690925914
 31
0.0
  0
LINE
  5
BB22
  8
0
 10
3606.3770098639688513
 20
224.2116372690925914
 30
0.0
 11
3605.4652017898688428
 21
224.2116372690925914
 31
0.0
  0
LINE
  5
BB23
  8
0
 10
3605.4652017898688428
 20
224.2116372690925914
 30
0.0
 11
3605.4652017898688428
 21
224.5069128595926031
 31
0.0
  0
LINE
  5
BB24
  8
0
 10
3606.3637528609610854
 20
224.731322308491599
 30
0.0
 11
3606.3637528609610854
 21
224.5069128595926031
 31
0.0
  0
ARC
  5
BB25
  8
0
 10
3605.4897371129691237
 20
224.7313223084925937
 30
0.0
 40
0.0118110235999858
 50
89.9999999999218403
 51
180.0000000000862883
  0
LINE
  5
BB26
  8
0
 10
3605.4779260893687933
 20
224.7313223084925937
 30
0.0
 11
3605.4779260893687933
 21
224.5069128595926031
 31
0.0
  0
LINE
  5
BB27
  8
0
 10
3606.3637528609688161
 20
224.2116372690925914
 30
0.0
 11
3606.3637528609688161
 21
224.1309286076925957
 31
0.0
  0
ARC
  5
BB28
  8
0
 10
3606.3342252976049167
 20
224.1309286076925957
 30
0.0
 40
0.0295275633637715
 50
269.9692092006602024
 51
359.9999999999935199
  0
LINE
  5
BB29
  8
0
 10
3606.3342094294680464
 20
224.1014010485926065
 30
0.0
 11
3605.5074695208691082
 21
224.1014010485926065
 31
0.0
  0
ARC
  5
BB2A
  8
0
 10
3605.5074695208691082
 20
224.1309444843587073
 30
0.0
 40
0.0295434357660689
 50
180.0307907993332037
 51
270.0
  0
LINE
  5
BB2B
  8
0
 10
3605.4779260892692037
 20
224.1309286076925957
 30
0.0
 11
3605.4779260892692037
 21
224.2116372690925914
 31
0.0
  0
LINE
  5
BB2C
  8
0
 10
3605.4779260893687933
 20
224.2116372690925914
 30
0.0
 11
3605.4779260893687933
 21
224.5069128595926031
 31
0.0
  0
LINE
  5
BB2D
  8
0
 10
3605.5071502453688481
 20
224.2116372690925914
 30
0.0
 11
3605.5071502453688481
 21
224.5069128595926031
 31
0.0
  0
LINE
  5
BB2E
  8
0
 10
3605.550355654168925
 20
224.2116372690925914
 30
0.0
 11
3605.550355654168925
 21
224.5069128595926031
 31
0.0
  0
LINE
  5
BB2F
  8
0
 10
3605.5793910361689996
 20
224.2116372690925914
 30
0.0
 11
3605.5793910361689996
 21
224.5069128595926031
 31
0.0
  0
LINE
  5
BB30
  8
0
 10
3605.6101802060688897
 20
224.2116372690925914
 30
0.0
 11
3605.6101802060688897
 21
224.5069128595926031
 31
0.0
  0
LINE
  5
BB31
  8
0
 10
3605.6438699178688694
 20
224.2116372690925914
 30
0.0
 11
3605.6438699178688694
 21
224.5069128595926031
 31
0.0
  0
LINE
  5
BB32
  8
0
 10
3605.6801456198691085
 20
224.2116372690925914
 30
0.0
 11
3605.6801456198691085
 21
224.5069128595926031
 31
0.0
  0
LINE
  5
BB33
  8
0
 10
3605.7186686154691415
 20
224.2116372690925914
 30
0.0
 11
3605.7186686154691415
 21
224.5069128595926031
 31
0.0
  0
LINE
  5
BB34
  8
0
 10
3605.7590792259688897
 20
224.2116372690925914
 30
0.0
 11
3605.7590792259688897
 21
224.5069128595926031
 31
0.0
  0
LINE
  5
BB35
  8
0
 10
3605.8010001482680309
 20
224.2116372690925914
 30
0.0
 11
3605.8010001482680309
 21
224.5069128595926031
 31
0.0
  0
LINE
  5
BB36
  8
0
 10
3605.8440399781688939
 20
224.2116372690925914
 30
0.0
 11
3605.8440399781688939
 21
224.5069128595926031
 31
0.0
  0
LINE
  5
BB37
  8
0
 10
3605.8877968641691041
 20
224.2116372690925914
 30
0.0
 11
3605.8877968641691041
 21
224.5069128595926031
 31
0.0
  0
LINE
  5
BB38
  8
0
 10
3605.9318622601690549
 20
224.2116372690925914
 30
0.0
 11
3605.9318622601690549
 21
224.5069128595926031
 31
0.0
  0
LINE
  5
BB39
  8
0
 10
3605.9758247394688624
 20
224.2116372690925914
 30
0.0
 11
3605.9758247394688624
 21
224.5069128595926031
 31
0.0
  0
LINE
  5
BB3A
  8
0
 10
3606.0192738360688054
 20
224.2116372690925914
 30
0.0
 11
3606.0192738360688054
 21
224.5069128595926031
 31
0.0
  0
LINE
  5
BB3B
  8
0
 10
3606.0618038776688081
 20
224.2116372690925914
 30
0.0
 11
3606.0618038776688081
 21
224.5069128595926031
 31
0.0
  0
LINE
  5
BB3C
  8
0
 10
3606.1030177724687746
 20
224.2116372690925914
 30
0.0
 11
3606.1030177724687746
 21
224.5069128595926031
 31
0.0
  0
LINE
  5
BB3D
  8
0
 10
3606.1425307177692048
 20
224.2116372690925914
 30
0.0
 11
3606.1425307177692048
 21
224.5069128595926031
 31
0.0
  0
LINE
  5
BB3E
  8
0
 10
3606.1799737915689548
 20
224.2116372690925914
 30
0.0
 11
3606.1799737915689548
 21
224.5069128595926031
 31
0.0
  0
LINE
  5
BB3F
  8
0
 10
3606.2149973980690447
 20
224.2116372690925914
 30
0.0
 11
3606.2149973980690447
 21
224.5069128595926031
 31
0.0
  0
LINE
  5
BB40
  8
0
 10
3606.2472745312688858
 20
224.2116372690925914
 30
0.0
 11
3606.2472745312688858
 21
224.5069128595926031
 31
0.0
  0
LINE
  5
BB41
  8
0
 10
3606.2765038283691865
 20
224.2116372690925914
 30
0.0
 11
3606.2765038283691865
 21
224.5069128595926031
 31
0.0
  0
LINE
  5
BB42
  8
0
 10
3606.3024123832688019
 20
224.2116372690925914
 30
0.0
 11
3606.3024123832688019
 21
224.5069128595926031
 31
0.0
  0
LINE
  5
BB43
  8
0
 10
3606.3433329248691734
 20
224.2116372690925914
 30
0.0
 11
3606.3433329248691734
 21
224.5069128595926031
 31
0.0
  0
LINE
  5
BB44
  8
0
 10
3606.3685114671689007
 20
224.2116372690925914
 30
0.0
 11
3606.3685114671689007
 21
224.5069128595926031
 31
0.0
  0
LINE
  5
BB45
  8
0
 10
3609.0003402920688131
 20
235.7025331027591903
 30
0.0
 11
3609.0003402920688131
 21
256.2097024880590084
 31
0.0
  0
LINE
  5
BB46
  8
0
 10
3609.0003402920688131
 20
259.0053784230627798
 30
0.0
 11
3609.0003402920688131
 21
266.7064701105925906
 31
0.0
  0
LINE
  5
BB47
  8
0
 10
3609.0003402920688131
 20
235.6926905829926113
 30
0.0
 11
3609.0003402920688131
 21
235.0332417640925939
 31
0.0
  0
LINE
  5
BB48
  8
0
 10
3609.0003402920688131
 20
235.0135567247926076
 30
0.0
 11
3609.0003402920688131
 21
234.9545016066925882
 31
0.0
  0
LINE
  5
BB49
  8
0
 10
3608.0160883235689653
 20
234.9545016066925882
 30
0.0
 11
3608.0160883235689653
 21
235.0135567247926076
 31
0.0
  0
LINE
  5
BB4A
  8
0
 10
3608.0160883235689653
 20
235.0332417640925939
 30
0.0
 11
3608.0160883235689653
 21
235.0726118428925986
 31
0.0
  0
LINE
  5
BB4B
  8
0
 10
3608.0160883235689653
 20
235.7025331027257948
 30
0.0
 11
3608.0160883235689653
 21
257.6280578081324961
 31
0.0
  0
LINE
  5
BB4C
  8
0
 10
3608.0160883235689653
 20
260.7582115551908259
 30
0.0
 11
3608.0160883235689653
 21
266.7064701105925906
 31
0.0
  0
ARC
  5
BB4D
  8
0
 10
3608.9393166699751418
 20
234.942690583107094
 30
0.0
 40
0.0118110235854871
 50
359.9999999250134124
 51
90.0000000291035605
  0
LINE
  5
BB4E
  8
0
 10
3608.0525766224691324
 20
234.7182811341926083
 30
0.0
 11
3608.9643846965691409
 21
234.7182811341926083
 31
0.0
  0
LINE
  5
BB4F
  8
0
 10
3608.9643846965691409
 20
234.7182811341926083
 30
0.0
 11
3608.9643846965691409
 21
234.4230055436925966
 31
0.0
  0
LINE
  5
BB50
  8
0
 10
3608.9643846965691409
 20
234.4230055436925966
 30
0.0
 11
3608.0525766224691324
 21
234.4230055436925966
 31
0.0
  0
LINE
  5
BB51
  8
0
 10
3608.0525766224691324
 20
234.4230055436925966
 30
0.0
 11
3608.0525766224691324
 21
234.7182811341926083
 31
0.0
  0
LINE
  5
BB52
  8
0
 10
3608.9511276935600108
 20
234.9426905830916894
 30
0.0
 11
3608.9511276935600108
 21
234.7182811341926083
 31
0.0
  0
ARC
  5
BB53
  8
0
 10
3608.0771119455689586
 20
234.9426905830925989
 30
0.0
 40
0.0118110235999858
 50
89.9999999999218403
 51
180.0000000000862883
  0
LINE
  5
BB54
  8
0
 10
3608.065300921969083
 20
234.9426905830925989
 30
0.0
 11
3608.065300921969083
 21
234.7182811341926083
 31
0.0
  0
LINE
  5
BB55
  8
0
 10
3608.9511276935691058
 20
234.4230055436925966
 30
0.0
 11
3608.9511276935691058
 21
234.3422968822926009
 31
0.0
  0
ARC
  5
BB56
  8
0
 10
3608.9216001302061159
 20
234.3422968822926009
 30
0.0
 40
0.0295275633637715
 50
269.9692092006602024
 51
359.9999999999935199
  0
LINE
  5
BB57
  8
0
 10
3608.9215842620678814
 20
234.3127693231926116
 30
0.0
 11
3608.0948443534689432
 21
234.3127693231926116
 31
0.0
  0
ARC
  5
BB58
  8
0
 10
3608.0948443534689432
 20
234.3423127589587125
 30
0.0
 40
0.0295434357660689
 50
180.0307907993332037
 51
270.0
  0
LINE
  5
BB59
  8
0
 10
3608.0653009218690386
 20
234.3422968822926009
 30
0.0
 11
3608.0653009218690386
 21
234.4230055436925966
 31
0.0
  0
LINE
  5
BB5A
  8
0
 10
3608.065300921969083
 20
234.4230055436925966
 30
0.0
 11
3608.065300921969083
 21
234.7182811341926083
 31
0.0
  0
LINE
  5
BB5B
  8
0
 10
3608.0945250779691378
 20
234.4230055436925966
 30
0.0
 11
3608.0945250779691378
 21
234.7182811341926083
 31
0.0
  0
LINE
  5
BB5C
  8
0
 10
3608.1377304867692146
 20
234.4230055436925966
 30
0.0
 11
3608.1377304867692146
 21
234.7182811341926083
 31
0.0
  0
LINE
  5
BB5D
  8
0
 10
3608.1667658687688345
 20
234.4230055436925966
 30
0.0
 11
3608.1667658687688345
 21
234.7182811341926083
 31
0.0
  0
LINE
  5
BB5E
  8
0
 10
3608.1975550386691793
 20
234.4230055436925966
 30
0.0
 11
3608.1975550386691793
 21
234.7182811341926083
 31
0.0
  0
LINE
  5
BB5F
  8
0
 10
3608.231244750469159
 20
234.4230055436925966
 30
0.0
 11
3608.231244750469159
 21
234.7182811341926083
 31
0.0
  0
LINE
  5
BB60
  8
0
 10
3608.2675204524689434
 20
234.4230055436925966
 30
0.0
 11
3608.2675204524689434
 21
234.7182811341926083
 31
0.0
  0
LINE
  5
BB61
  8
0
 10
3608.3060434480689764
 20
234.4230055436925966
 30
0.0
 11
3608.3060434480689764
 21
234.7182811341926083
 31
0.0
  0
LINE
  5
BB62
  8
0
 10
3608.3464540585691793
 20
234.4230055436925966
 30
0.0
 11
3608.3464540585691793
 21
234.7182811341926083
 31
0.0
  0
LINE
  5
BB63
  8
0
 10
3608.3883749808687753
 20
234.4230055436925966
 30
0.0
 11
3608.3883749808687753
 21
234.7182811341926083
 31
0.0
  0
LINE
  5
BB64
  8
0
 10
3608.4314148107691835
 20
234.4230055436925966
 30
0.0
 11
3608.4314148107691835
 21
234.7182811341926083
 31
0.0
  0
LINE
  5
BB65
  8
0
 10
3608.475171696768939
 20
234.4230055436925966
 30
0.0
 11
3608.475171696768939
 21
234.7182811341926083
 31
0.0
  0
LINE
  5
BB66
  8
0
 10
3608.5192370927697993
 20
234.4230055436925966
 30
0.0
 11
3608.5192370927697993
 21
234.7182811341926083
 31
0.0
  0
LINE
  5
BB67
  8
0
 10
3608.5631995720691521
 20
234.4230055436925966
 30
0.0
 11
3608.5631995720691521
 21
234.7182811341926083
 31
0.0
  0
LINE
  5
BB68
  8
0
 10
3608.6066486686690951
 20
234.4230055436925966
 30
0.0
 11
3608.6066486686690951
 21
234.7182811341926083
 31
0.0
  0
LINE
  5
BB69
  8
0
 10
3608.6491787102690978
 20
234.4230055436925966
 30
0.0
 11
3608.6491787102690978
 21
234.7182811341926083
 31
0.0
  0
LINE
  5
BB6A
  8
0
 10
3608.6903926050690643
 20
234.4230055436925966
 30
0.0
 11
3608.6903926050690643
 21
234.7182811341926083
 31
0.0
  0
LINE
  5
BB6B
  8
0
 10
3608.7299055503690397
 20
234.4230055436925966
 30
0.0
 11
3608.7299055503690397
 21
234.7182811341926083
 31
0.0
  0
LINE
  5
BB6C
  8
0
 10
3608.7673486241687897
 20
234.4230055436925966
 30
0.0
 11
3608.7673486241687897
 21
234.7182811341926083
 31
0.0
  0
LINE
  5
BB6D
  8
0
 10
3608.8023722306688796
 20
234.4230055436925966
 30
0.0
 11
3608.8023722306688796
 21
234.7182811341926083
 31
0.0
  0
LINE
  5
BB6E
  8
0
 10
3608.8346493638691754
 20
234.4230055436925966
 30
0.0
 11
3608.8346493638691754
 21
234.7182811341926083
 31
0.0
  0
LINE
  5
BB6F
  8
0
 10
3608.8638786609690214
 20
234.4230055436925966
 30
0.0
 11
3608.8638786609690214
 21
234.7182811341926083
 31
0.0
  0
LINE
  5
BB70
  8
0
 10
3608.8897872158690916
 20
234.4230055436925966
 30
0.0
 11
3608.8897872158690916
 21
234.7182811341926083
 31
0.0
  0
LINE
  5
BB71
  8
0
 10
3608.9307077574690084
 20
234.4230055436925966
 30
0.0
 11
3608.9307077574690084
 21
234.7182811341926083
 31
0.0
  0
LINE
  5
BB72
  8
0
 10
3608.9558862997691904
 20
234.4230055436925966
 30
0.0
 11
3608.9558862997691904
 21
234.7182811341926083
 31
0.0
  0
LINE
  5
BB73
  8
0
 10
3608.0160883235689653
 20
235.0332417640925939
 30
0.0
 11
3609.0003402920688131
 21
235.0332417640925939
 31
0.0
  0
LINE
  5
BB74
  8
0
 10
3608.0160883235689653
 20
234.9545016066925882
 30
0.0
 11
3609.0003402920688131
 21
234.9545016066925882
 31
0.0
  0
LINE
  5
BB75
  8
0
 10
3608.0160883235689653
 20
235.0135567247926076
 30
0.0
 11
3609.0003402920688131
 21
235.0135567247926076
 31
0.0
  0
LINE
  5
BB76
  8
0
 10
3608.8231749376691369
 20
235.0332417640925939
 30
0.0
 11
3608.8231749376691369
 21
235.0135567247926076
 31
0.0
  0
LINE
  5
BB77
  8
0
 10
3608.1932536778690519
 20
235.0332417640925939
 30
0.0
 11
3608.1932536778690519
 21
235.0135567247926076
 31
0.0
  0
LINE
  5
BB78
  8
0
 10
3609.0003402920688131
 20
235.0726118428925986
 30
0.0
 11
3607.0381764070689314
 21
235.0726118428925986
 31
0.0
  0
ARC
  5
BB79
  8
0
 10
3607.0381764070689314
 20
235.190722079092609
 30
0.0
 40
0.1181102362000033
 50
180.0023577046987953
 51
270.0
  0
LINE
  5
BB7A
  8
0
 10
3606.9200661709692213
 20
235.1907172188905975
 30
0.0
 11
3606.9200661708678126
 21
235.5844228664585955
 31
0.0
  0
ARC
  5
BB7B
  8
0
 10
3607.0381764070730242
 20
235.5844228664886089
 30
0.0
 40
0.1181102362040107
 50
90.0000000019541346
 51
180.0000000145485046
  0
LINE
  5
BB7C
  8
0
 10
3607.0381764070689314
 20
235.7025331026925983
 30
0.0
 11
3609.0003402920688131
 21
235.7025331027591903
 31
0.0
  0
ARC
  5
BB7D
  8
0
 10
3608.9904089024262248
 20
235.692650828133111
 30
0.0
 40
0.0099314692108183
 50
0.2293509346636993
 51
84.2948250900845579
  0
ARC
  5
BB7E
  8
0
 10
3608.0448429007487903
 20
235.6928746538943926
 30
0.0
 40
0.0096604806836044
 50
91.1751460087137673
 51
181.0917804624428129
  0
LINE
  5
BB7F
  8
0
 10
3608.0351841738679468
 20
235.6926905829926113
 30
0.0
 11
3608.0351841738679468
 21
235.082454362592614
 31
0.0
  0
ARC
  5
BB80
  8
0
 10
3608.0450344024120568
 20
235.082454362592614
 30
0.0
 40
0.0098502285426392
 50
179.9999999999722888
 51
267.7330737346861724
  0
LINE
  5
BB81
  8
0
 10
3607.9594993524688107
 20
235.7025331026925983
 30
0.0
 11
3607.9594993524688107
 21
235.0726118428925986
 31
0.0
  0
LINE
  5
BB82
  8
0
 10
3611.1924109620817944
 20
235.2200655170250911
 30
0.0
 11
3610.8108486198098035
 21
235.2300570785639877
 31
0.0
  0
ARC
  5
BB83
  8
0
 10
3610.8113639140669875
 20
235.2497353723910862
 30
0.0
 40
0.019685039398437
 50
179.9999999955689987
 51
268.5000000044411763
  0
LINE
  5
BB84
  8
0
 10
3610.7916788746688326
 20
235.2497353723925926
 30
0.0
 11
3610.7916788748561885
 21
237.671078864492614
 31
0.0
  0
ARC
  5
BB85
  8
0
 10
3610.8113639142620741
 20
237.6710788644911077
 30
0.0
 40
0.0196850394065891
 50
91.5000005638850951
 51
179.9999999955493877
  0
LINE
  5
BB86
  8
0
 10
3610.8108486198098035
 20
237.6907571583211904
 30
0.0
 11
3611.1924109620817944
 21
237.7007487060820097
 31
0.0
  0
LINE
  5
BB87
  8
0
 10
3610.791678874768877
 20
236.9131630239926096
 30
0.0
 11
3609.647197978064014
 21
236.9131409577568945
 31
0.0
  0
LINE
  5
BB88
  8
0
 10
3609.1306686961538617
 20
236.9131309987816962
 30
0.0
 11
3609.0593954101691452
 21
236.9131296245926137
 31
0.0
  0
ARC
  5
BB89
  8
0
 10
3609.0593942715618141
 20
236.9721842794087934
 30
0.0
 40
0.0590546548271206
 50
180.2740124623825011
 51
270.0011046948757212
  0
LINE
  5
BB8A
  8
0
 10
3610.7916788747270402
 20
236.007651212992613
 30
0.0
 11
3610.358608062669191
 21
236.007651212992613
 31
0.0
  0
ARC
  5
BB8B
  8
0
 10
3610.358608062669191
 20
235.9485949045557049
 30
0.0
 40
0.0590563084368654
 50
90.0
 51
179.9975993070615914
  0
LINE
  5
BB8C
  8
0
 10
3610.2995517542840389
 20
235.9485973790148137
 30
0.0
 11
3610.2995509294269141
 21
235.9289110554771014
 31
0.0
  0
LINE
  5
BB8D
  8
0
 10
3610.2995509294269141
 20
235.9289110554771014
 30
0.0
 11
3609.7221739260749018
 21
235.9289110554771014
 31
0.0
  0
LINE
  5
BB8E
  8
0
 10
3609.1989466557688502
 20
236.007651212992613
 30
0.0
 11
3609.0593954101691452
 21
236.007651212992613
 31
0.0
  0
ARC
  5
BB8F
  8
0
 10
3609.0593954101691452
 20
235.9485951080118014
 30
0.0
 40
0.059056104980872
 50
90.0
 51
179.9990421618142022
  0
LINE
  5
BB90
  8
0
 10
3609.7314113496690879
 20
235.814737827092614
 30
0.0
 11
3610.3074199483689881
 21
235.814737827092614
 31
0.0
  0
LINE
  5
BB91
  8
0
 10
3610.3074199483689881
 20
235.814737827092614
 30
0.0
 11
3610.3074199483689881
 21
235.5194622365926023
 31
0.0
  0
LINE
  5
BB92
  8
0
 10
3610.3074199483689881
 20
235.5194622365926023
 30
0.0
 11
3609.7558223386358804
 21
235.5194622365926023
 31
0.0
  0
LINE
  5
BB93
  8
0
 10
3610.2956158825691091
 20
235.5194622365926023
 30
0.0
 11
3610.2956158825691091
 21
235.4387535751926066
 31
0.0
  0
ARC
  5
BB94
  8
0
 10
3610.2660883192052097
 20
235.4387535751926066
 30
0.0
 40
0.0295275633637715
 50
269.9692092006602024
 51
359.9999999999935199
  0
LINE
  5
BB95
  8
0
 10
3610.2660724510678847
 20
235.4092260160925889
 30
0.0
 11
3609.7651285189358532
 21
235.4092260160925889
 31
0.0
  0
LINE
  5
BB96
  8
0
 10
3609.7744500625690307
 20
235.5194622365926023
 30
0.0
 11
3609.7744500625690307
 21
235.814737827092614
 31
0.0
  0
LINE
  5
BB97
  8
0
 10
3609.8182069485687862
 20
235.5194622365926023
 30
0.0
 11
3609.8182069485687862
 21
235.814737827092614
 31
0.0
  0
LINE
  5
BB98
  8
0
 10
3609.8622723445691918
 20
235.5194622365926023
 30
0.0
 11
3609.8622723445691918
 21
235.814737827092614
 31
0.0
  0
LINE
  5
BB99
  8
0
 10
3609.9062348238689992
 20
235.5194622365926023
 30
0.0
 11
3609.9062348238689992
 21
235.814737827092614
 31
0.0
  0
LINE
  5
BB9A
  8
0
 10
3609.9496839204680327
 20
235.5194622365926023
 30
0.0
 11
3609.9496839204680327
 21
235.814737827092614
 31
0.0
  0
LINE
  5
BB9B
  8
0
 10
3609.992213962068945
 20
235.5194622365926023
 30
0.0
 11
3609.992213962068945
 21
235.814737827092614
 31
0.0
  0
LINE
  5
BB9C
  8
0
 10
3610.0334278568689115
 20
235.5194622365926023
 30
0.0
 11
3610.0334278568689115
 21
235.814737827092614
 31
0.0
  0
LINE
  5
BB9D
  8
0
 10
3610.0729408021688869
 20
235.5194622365926023
 30
0.0
 11
3610.0729408021688869
 21
235.814737827092614
 31
0.0
  0
LINE
  5
BB9E
  8
0
 10
3610.1103838759681821
 20
235.5194622365926023
 30
0.0
 11
3610.1103838759681821
 21
235.814737827092614
 31
0.0
  0
LINE
  5
BB9F
  8
0
 10
3610.1454074824691816
 20
235.5194622365926023
 30
0.0
 11
3610.1454074824691816
 21
235.814737827092614
 31
0.0
  0
LINE
  5
BBA0
  8
0
 10
3610.1776846156690226
 20
235.5194622365926023
 30
0.0
 11
3610.1776846156690226
 21
235.814737827092614
 31
0.0
  0
LINE
  5
BBA1
  8
0
 10
3610.2069139127688686
 20
235.5194622365926023
 30
0.0
 11
3610.2069139127688686
 21
235.814737827092614
 31
0.0
  0
LINE
  5
BBA2
  8
0
 10
3610.2328224676680293
 20
235.5194622365926023
 30
0.0
 11
3610.2328224676680293
 21
235.814737827092614
 31
0.0
  0
LINE
  5
BBA3
  8
0
 10
3610.2737430092688555
 20
235.5194622365926023
 30
0.0
 11
3610.2737430092688555
 21
235.814737827092614
 31
0.0
  0
LINE
  5
BBA4
  8
0
 10
3610.2989215515690375
 20
235.5194622365926023
 30
0.0
 11
3610.2989215515690375
 21
235.814737827092614
 31
0.0
  0
LINE
  5
BBA5
  8
0
 10
3610.2558349403689135
 20
235.5194622365926023
 30
0.0
 11
3610.2558349403689135
 21
235.814737827092614
 31
0.0
  0
LINE
  5
BBA6
  8
0
 10
3610.2956158825691091
 20
235.814737827092614
 30
0.0
 11
3610.2956158825691091
 21
235.9171000318926019
 31
0.0
  0
ARC
  5
BBA7
  8
0
 10
3610.2838048589687787
 20
235.9171000318926019
 30
0.0
 40
0.0118110235999964
 50
0.0000000000162844
 51
90.0000000000260485
  0
LINE
  5
BBA8
  8
0
 10
3609.1381449593691286
 20
267.9466275908926036
 30
0.0
 11
3607.878293047968782
 21
267.9466275908926036
 31
0.0
  0
ARC
  5
BBA9
  8
0
 10
3607.878293047968782
 20
267.9269425514925729
 30
0.0
 40
0.0196850394000023
 50
90.0
 51
179.9999999999901945
  0
LINE
  5
BBAA
  8
0
 10
3607.8586080085688081
 20
267.9269425514925729
 30
0.0
 11
3607.8586080085688081
 21
266.7261551499926213
 31
0.0
  0
ARC
  5
BBAB
  8
0
 10
3607.8782930489951468
 20
266.7261551499926213
 30
0.0
 40
0.0196850404268432
 50
179.9999999999870113
 51
269.9814935834925791
  0
LINE
  5
BBAC
  8
0
 10
3607.8782866907649804
 20
266.7064701105925906
 30
0.0
 11
3609.1381419247691156
 21
266.7064701105925906
 31
0.0
  0
ARC
  5
BBAD
  8
0
 10
3609.1381419247691156
 20
266.7261487939190943
 30
0.0
 40
0.0196786833264895
 50
270.0
 51
0.0185061259766299
  0
LINE
  5
BBAE
  8
0
 10
3610.7916788747620558
 20
268.5372209640032111
 30
0.0
 11
3610.7916788747620558
 21
266.115870136919682
 31
0.0
  0
LINE
  5
BBAF
  8
0
 10
3611.1924109620817944
 20
266.0862072493245023
 30
0.0
 11
3610.8108486198689207
 21
266.096198810892588
 31
0.0
  0
ARC
  5
BBB0
  8
0
 10
3610.8113639141602107
 20
266.1158771059518813
 30
0.0
 40
0.0196850406310779
 50
179.9796633413434961
 51
268.4999999998278781
  0
LINE
  5
BBB1
  8
0
 10
3611.1924109620817944
 20
268.5668833295068225
 30
0.0
 11
3610.8108486198689207
 21
268.5568988905926062
 31
0.0
  0
ARC
  5
BBB2
  8
0
 10
3610.8113635371819328
 20
268.5372209640032111
 30
0.0
 40
0.0196846624227834
 50
91.4989311877879743
 51
180.0010688328829929
  0
LINE
  5
BBB3
  8
0
 10
3610.791678874768877
 20
266.8344228664925026
 30
0.0
 11
3610.1420755010458379
 21
266.8344228664925026
 31
0.0
  0
LINE
  5
BBB4
  8
0
 10
3609.9845922417180191
 20
266.8344228664925026
 30
0.0
 11
3609.4334111581688376
 21
266.8344228664925026
 31
0.0
  0
LINE
  5
BBB5
  8
0
 10
3609.4334111581688376
 20
266.8344228664925026
 30
0.0
 11
3609.4334111581688376
 21
267.8186748349925779
 31
0.0
  0
LINE
  5
BBB6
  8
0
 10
3609.4334111581688376
 20
267.8186748349925779
 30
0.0
 11
3610.7916788747620558
 21
267.8186748349925779
 31
0.0
  0
ARC
  5
BBB7
  8
0
 10
3610.0644066068398388
 20
266.3656531187228893
 30
0.0
 40
0.4755159401154789
 50
93.3691867155493611
 51
99.6627165306423848
  0
ARC
  5
BBB8
  8
0
 10
3610.0633631016930849
 20
266.3833783198073206
 30
0.0
 40
0.4577600493613019
 50
85.7815387310961768
 51
93.3691867155493611
  0
ARC
  5
BBB9
  8
0
 10
3610.0617777457168813
 20
266.3618846968627736
 30
0.0
 40
0.4793120604240404
 50
80.3559300689132101
 51
85.7815387310961768
  0
LINE
  5
BBBA
  8
0
 10
3609.1578206070689703
 20
266.7261551499926213
 30
0.0
 11
3609.1578206069689259
 21
266.9722181420925722
 31
0.0
  0
ARC
  5
BBBB
  8
0
 10
3609.1971906856529131
 20
266.972218142108602
 30
0.0
 40
0.0393700786839943
 50
89.9999998311889868
 51
180.0000000232786022
  0
LINE
  5
BBBC
  8
0
 10
3609.1971906857688737
 20
267.0115882207927029
 30
0.0
 11
3609.4334111581688376
 21
267.0115882200965984
 31
0.0
  0
LINE
  5
BBBD
  8
0
 10
3609.4334111581688376
 20
267.6415094806926049
 30
0.0
 11
3609.1971906854669214
 21
267.6415088513501814
 31
0.0
  0
ARC
  5
BBBE
  8
0
 10
3609.197190580573988
 20
267.6808794541984184
 30
0.0
 40
0.039370602848391
 50
179.9998473904391858
 51
270.0001526483339944
  0
LINE
  5
BBBF
  8
0
 10
3609.157819977726831
 20
267.6808795590634986
 30
0.0
 11
3609.157820633125084
 21
267.926942551492516
 31
0.0
  0
ARC
  5
BBC0
  8
0
 10
3609.1381356423949001
 20
267.9269426023672054
 30
0.0
 40
0.0196849907302213
 50
359.9998519223776725
 51
89.9728817085734534
  0
ARC
  5
BBC1
  8
0
 10
3609.9145248773947969
 20
267.2891204764404733
 30
0.0
 40
0.8521012451331827
 50
152.6286042290122111
 51
172.7457360489102882
  0
ARC
  5
BBC2
  8
0
 10
3609.6644319971937875
 20
267.3209552225962966
 30
0.0
 40
0.5999903572475521
 50
172.7457360489102882
 51
197.7207573376431924
  0
ARC
  5
BBC3
  8
0
 10
3610.4371953946279064
 20
267.5678839909655267
 30
0.0
 40
1.411246842622387
 50
197.7207573376431924
 51
204.9662801000135062
  0
LINE
  5
BBC4
  8
0
 10
3607.8782999847690007
 20
268.4822141329926239
 30
0.0
 11
3609.1381355676689964
 21
268.4822141329926239
 31
0.0
  0
ARC
  5
BBC5
  8
0
 10
3609.1381355676689964
 20
268.4625290936926945
 30
0.0
 40
0.0196850393000041
 50
359.9999997089531121
 51
90.0
  0
LINE
  5
BBC6
  8
0
 10
3609.1578206069689259
 20
268.4625290935925932
 30
0.0
 11
3609.1578206047702224
 21
268.0294562433084025
 31
0.0
  0
ARC
  5
BBC7
  8
0
 10
3609.1381375472728905
 20
268.0294562434085037
 30
0.0
 40
0.0196830574960032
 50
269.9730329454151274
 51
359.9999997089335011
  0
LINE
  5
BBC8
  8
0
 10
3609.1381282831689532
 20
268.0097731880925949
 30
0.0
 11
3607.878293047968782
 21
268.0097731880925949
 31
0.0
  0
ARC
  5
BBC9
  8
0
 10
3607.878293047968782
 20
268.0294582274926256
 30
0.0
 40
0.0196850394000023
 50
180.0000000000098055
 51
270.0
  0
LINE
  5
BBCA
  8
0
 10
3607.8586080085688081
 20
268.0294582274926256
 30
0.0
 11
3607.8586080085688081
 21
268.4625290935925932
 31
0.0
  0
ARC
  5
BBCB
  8
0
 10
3607.8782930491911429
 20
268.4625290935925932
 30
0.0
 40
0.0196850406217948
 50
89.9798131291654357
 51
180.0000000000081002
  0
LINE
  5
BBCC
  8
0
 10
3609.0593954101691452
 20
268.0097731880925949
 30
0.0
 11
3609.0593954101691452
 21
267.9466275908926036
 31
0.0
  0
LINE
  5
BBCD
  8
0
 10
3607.957033205469088
 20
268.0097731880925949
 30
0.0
 11
3607.957033205469088
 21
267.9466275908926036
 31
0.0
  0
ARC
  5
BBCE
  8
0
 10
3608.5909077634191817
 20
268.4654853634266942
 30
0.0
 40
0.0192682970637868
 50
351.1744428073437803
 51
60.250340962238333
  0
LINE
  5
BBCF
  8
0
 10
3608.6099479246681767
 20
268.4625290935925932
 30
0.0
 11
3608.6099479246681767
 21
268.0294582274926256
 31
0.0
  0
ARC
  5
BBD0
  8
0
 10
3608.584764903478117
 20
268.0294582274926256
 30
0.0
 40
0.0251830211910473
 50
308.5854404454793212
 51
359.9999999999885745
  0
ARC
  5
BBD1
  8
0
 10
3608.9779564994291832
 20
268.461639479159885
 30
0.0
 40
0.0216518176810274
 50
2.354790961598479
 51
71.8511766380347865
  0
LINE
  5
BBD2
  8
0
 10
3608.9995900334688486
 20
268.4625290935925932
 30
0.0
 11
3608.9995899080681738
 21
268.0294582201029243
 31
0.0
  0
ARC
  5
BBD3
  8
0
 10
3608.9787089781648319
 20
268.0294582261491882
 30
0.0
 40
0.0208809299033001
 50
289.4851395299269825
 51
359.999983409427216
  0
LINE
  5
BBD4
  8
0
 10
3608.901915095168988
 20
268.4822141329926239
 30
0.0
 11
3608.901915095168988
 21
276.5686748349926916
 31
0.0
  0
LINE
  5
BBD8
  8
0
 10
3592.3664820243689064
 20
276.5686748349926916
 30
0.0
 11
3592.3664820243689064
 21
275.78127326019262
 31
0.0
  0
LINE
  5
BBD9
  8
0
 10
3608.1145135203692007
 20
268.4822141329926239
 30
0.0
 11
3608.1145135203692007
 21
276.5686748349926916
 31
0.0
  0
ARC
  5
BBDA
  8
0
 10
3606.5397103707691713
 20
276.5686748349926916
 30
0.0
 40
1.574803149600001
 50
0.0
 51
90.0
  0
LINE
  5
BBDB
  8
0
 10
3606.5397103707691713
 20
278.1434779845926073
 30
0.0
 11
3594.7286867487691779
 21
278.1434779845926073
 31
0.0
  0
ARC
  5
BBDC
  8
0
 10
3594.7286867487691779
 20
276.5686748349926916
 30
0.0
 40
1.574803149600001
 50
90.0
 51
180.0
  0
LINE
  5
BBDD
  8
0
 10
3593.1538835991691485
 20
276.5686748349926916
 30
0.0
 11
3593.1538835991691485
 21
275.78127326019262
 31
0.0
  0
LINE
  5
BBDE
  8
0
 10
3592.2641198195688048
 20
275.78127326019262
 30
0.0
 11
3593.2562451213689201
 21
275.78127326019262
 31
0.0
  0
LINE
  5
BBDF
  8
0
 10
3593.2562451213689201
 20
275.78127326019262
 30
0.0
 11
3593.2562458038692057
 21
275.6533205042925943
 31
0.0
  0
LINE
  5
BBE0
  8
0
 10
3593.2562458038692057
 20
275.6533205042925943
 30
0.0
 11
3593.2149072211691418
 21
275.6119819215925872
 31
0.0
  0
LINE
  5
BBE1
  8
0
 10
3593.2149072211691418
 20
275.6119819215925872
 30
0.0
 11
3593.2149072211900602
 21
275.1148052346377995
 31
0.0
  0
ARC
  5
BBE2
  8
0
 10
3593.0278993470487876
 20
275.2458401894049871
 30
0.0
 40
0.2283464568623652
 50
291.952736885275101
 51
324.9813717319822217
  0
ARC
  5
BBE3
  8
0
 10
3593.1397574740690288
 20
274.9683227330925774
 30
0.0
 40
0.0708661417000022
 50
111.952736876200305
 51
230.632711480888986
  0
LINE
  5
BBE4
  8
0
 10
3592.2641198195688048
 20
275.78127326019262
 30
0.0
 11
3592.2641210525680435
 21
275.6533192712926166
 31
0.0
  0
LINE
  5
BBE5
  8
0
 10
3592.2641210525680435
 20
275.6533192712926166
 30
0.0
 11
3592.3054584022688687
 21
275.6119819215925872
 31
0.0
  0
LINE
  5
BBE6
  8
0
 10
3592.3054584022688687
 20
275.6119819215925872
 30
0.0
 11
3592.3054584022688687
 21
275.1148052360925931
 31
0.0
  0
ARC
  5
BBE7
  8
0
 10
3592.492466271135072
 20
275.2458401803821175
 30
0.0
 40
0.2283464465295964
 50
215.0186268744591871
 51
248.0472634909627061
  0
ARC
  5
BBE8
  8
0
 10
3592.3806081493689817
 20
274.9683227330925774
 30
0.0
 40
0.0708661416999965
 50
309.3687346357444881
 51
68.0472631238016703
  0
LINE
  5
BBE9
  8
0
 10
3610.1420725754687737
 20
235.4092260160925889
 30
0.0
 11
3610.1420725754687737
 21
234.7458401892926076
 31
0.0
  0
LINE
  5
BBEA
  8
0
 10
3610.1420725754687737
 20
234.7458401892926076
 30
0.0
 11
3609.8233463445690177
 21
234.7458401892926076
 31
0.0
  0
LINE
  5
BBEB
  8
0
 10
3592.1952967451629775
 20
274.7939364739769985
 30
0.0
 11
3593.3234886085629114
 21
274.7939364739769985
 31
0.0
  0
ARC
  5
BBEC
  8
0
 10
3593.2977659311432035
 20
274.7982130618311203
 30
0.0
 40
0.0118110236481705
 50
0.5000001392760312
 51
90.0011369857737691
  0
LINE
  5
BBED
  8
0
 10
3593.2977656967627809
 20
274.8100240854769254
 30
0.0
 11
3592.2226088448737755
 21
274.8100027499082216
 31
0.0
  0
ARC
  5
BBEE
  8
0
 10
3592.2226090802600993
 20
274.7981410709328998
 30
0.0
 40
0.0118616789776823
 50
90.0011369857737691
 51
179.1543712051586965
  0
LINE
  5
BBEF
  8
0
 10
3592.2107486931631684
 20
274.7983161311769891
 30
0.0
 11
3592.2107486931631684
 21
274.7939364739769985
 31
0.0
  0
LINE
  5
BBF0
  8
0
 10
3593.309576505062978
 20
274.7983161311769891
 30
0.0
 11
3593.309576505062978
 21
274.7939364739769985
 31
0.0
  0
ARC
  5
BBF1
  8
0
 10
3592.7618547978190691
 20
266.3661989696838077
 30
0.0
 40
8.4464307241958245
 50
79.6905705149546009
 51
86.1873827841120743
  0
ARC
  5
BBF2
  8
0
 10
3592.7563974640070228
 20
266.3361972691304231
 30
0.0
 40
8.4769247322701347
 50
72.3153621857145339
 51
79.6905705149546009
  0
ARC
  5
BBF3
  8
0
 10
3592.7642109131038524
 20
266.3607027235283908
 30
0.0
 40
8.4512037820147299
 50
65.4936102538126477
 51
72.3153621857145339
  0
ARC
  5
BBF4
  8
0
 10
3596.2370598636130126
 20
273.9789226656030792
 30
0.0
 40
0.0787516371002189
 50
14.6919452533345201
 51
65.4936102538121503
  0
ARC
  5
BBF5
  8
0
 10
3595.5501557182260512
 20
273.7988199451377795
 30
0.0
 40
0.7888743693582856
 50
345.3080547466655048
 51
14.6919452533345201
  0
ARC
  5
BBF6
  8
0
 10
3596.2375043772499339
 20
273.6186006754917912
 30
0.0
 40
0.0782920981091059
 50
295.2433464445383038
 51
345.3080547466655048
  0
ARC
  5
BBF7
  8
0
 10
3630.7833603093731654
 20
201.3945798116575077
 30
0.0
 40
79.9824694927305728
 50
115.5628167315190069
 51
115.6413905245559022
  0
ARC
  5
BBF8
  8
0
 10
3596.1669449640749008
 20
273.5107224814482265
 30
0.0
 40
0.0114944889987284
 50
269.6412427775601941
 51
295.9608608115233892
  0
LINE
  5
BBF9
  8
0
 10
3596.1668729918628742
 20
273.4992282177768743
 30
0.0
 11
3589.3519123621058498
 21
273.4992282177768743
 31
0.0
  0
ARC
  5
BBFA
  8
0
 10
3589.3519123621058498
 20
273.5110392424804786
 30
0.0
 40
0.0118110247035578
 50
244.3978978821828889
 51
269.9999993027653886
  0
ARC
  5
BBFB
  8
0
 10
9610.7142431451648008
 20
12840.0065746465406846
 30
0.0
 40
13934.6310867675201735
 50
244.3976708719563931
 51
244.3981218724466089
  0
ARC
  5
BBFC
  8
0
 10
3589.2819173452630821
 20
273.6187942926770233
 30
0.0
 40
0.0787401575000081
 50
194.7521183512037055
 51
244.3978962443082992
  0
ARC
  5
BBFD
  8
0
 10
3589.9639343347907925
 20
273.7988199451523883
 30
0.0
 40
0.7841169302169558
 50
165.2168893585520948
 51
194.7831106414477915
  0
ARC
  5
BBFE
  8
0
 10
3589.2810284385968771
 20
273.9798361115804255
 30
0.0
 40
0.0776317766466696
 50
114.3153748095015061
 51
165.7877802326150061
  0
ARC
  5
BBFF
  8
0
 10
3592.7593926768631718
 20
266.3482130618767201
 30
0.0
 40
8.4645669291002328
 50
104.1637307719365992
 51
114.5009752613941032
  0
ARC
  5
BC00
  8
0
 10
3592.7593926768631718
 20
266.348213061876379
 30
0.0
 40
8.4645669291005543
 50
95.540290358279762
 51
104.1637307719365992
  0
ARC
  5
BC01
  8
0
 10
3592.7491282460150614
 20
266.462985389116227
 30
0.0
 40
8.3493398128042902
 50
93.8033574708359055
 51
95.5462214036113693
  0
LINE
  5
BC02
  8
0
 10
3596.3132365912729256
 20
273.9988958102985066
 30
0.0
 11
3589.2057727369510758
 21
273.9988958102985066
 31
0.0
  0
ARC
  5
BC03
  8
0
 10
3596.1294714072778334
 20
273.5002588307730775
 30
0.0
 40
0.0196850493441149
 50
294.5430172438702812
 51
356.9989008531529748
  0
ARC
  5
BC04
  8
0
 10
3594.2219910993972007
 20
277.6714155584770083
 30
0.0
 40
4.6062992193469512
 50
289.3344091727224736
 51
294.5746000451604232
  0
LINE
  5
BC05
  8
0
 10
3592.822632662388969
 20
273.0651163396768766
 30
0.0
 11
3593.3766016364311326
 21
273.0651163396768766
 31
0.0
  0
LINE
  5
BC06
  8
0
 10
3593.5031072690339897
 20
273.0651163396768766
 30
0.0
 11
3593.9534383173049719
 21
273.0651163396768766
 31
0.0
  0
LINE
  5
BC07
  8
0
 10
3593.2533328974632241
 20
273.0651163396768766
 30
0.0
 11
3593.2578707685629524
 21
273.0197163562768878
 31
0.0
  0
ARC
  5
BC08
  8
0
 10
3593.2739730642429095
 20
273.0215456431906205
 30
0.0
 40
0.0162058698247558
 50
186.4812490516414982
 51
274.8086032306594007
  0
LINE
  5
BC09
  8
0
 10
3593.3270429322628843
 20
273.0651163396768766
 30
0.0
 11
3593.3318533299338924
 21
273.0193702863790008
 31
0.0
  0
ARC
  5
BC0A
  8
0
 10
3593.3477562842581392
 20
273.0210425516111172
 30
0.0
 40
0.0159906356116738
 50
186.0028414253891924
 51
267.6862515398782989
  0
LINE
  5
BC0B
  8
0
 10
3593.3756061821632102
 20
273.0743472442770212
 30
0.0
 11
3593.3799493717629048
 21
273.0340725976769818
 31
0.0
  0
ARC
  5
BC0C
  8
0
 10
3593.3999632501549968
 20
273.0362308802647817
 30
0.0
 40
0.020129915847773
 50
186.1549508757238129
 51
266.3065187227826982
  0
ARC
  5
BC0D
  8
0
 10
3593.4306575967498247
 20
273.511722606686476
 30
0.0
 40
0.4966113161230023
 50
266.3065187227826982
 51
276.1599010802984253
  0
ARC
  5
BC0E
  8
0
 10
3593.4809531838800467
 20
273.038039937920189
 30
0.0
 40
0.0202833400283933
 50
278.4843166189970134
 51
355.6569293610536988
  0
LINE
  5
BC0F
  8
0
 10
3593.5011782800629589
 20
273.0365039147769721
 30
0.0
 11
3593.5039556260881
 21
273.0776999017705862
 31
0.0
  0
ARC
  5
BC10
  8
0
 10
3593.503207586309145
 20
273.0775683846335937
 30
0.0
 40
0.0007595131786241
 50
9.9715865918116844
 51
76.5016698061704261
  0
ARC
  5
BC11
  8
0
 10
3593.4600294884298819
 20
272.3687249986500092
 30
0.0
 40
0.7119213051798547
 50
87.2426645068272393
 51
96.0898112352345635
  0
ARC
  5
BC12
  8
0
 10
3593.4919085387869018
 20
273.0348120633856865
 30
0.0
 40
0.0450722849747137
 50
76.2286295654172505
 51
86.987599738325116
  0
ARC
  5
BC13
  8
0
 10
3593.5018464350710019
 20
273.0753593820151082
 30
0.0
 40
0.0033248679216456
 50
62.4381753828732968
 51
76.2286295654176342
  0
ARC
  5
BC14
  8
0
 10
3593.3903954926599909
 20
273.0249963447204209
 30
0.0
 40
0.0519675306001243
 50
96.5098600658937045
 51
105.0158589820484991
  0
ARC
  5
BC15
  8
0
 10
3593.3779534039758801
 20
273.071379494189614
 30
0.0
 40
0.003944597271597
 50
105.015858982048897
 51
121.2303925756601046
  0
ARC
  5
BC16
  8
0
 10
3593.3763798067061543
 20
273.0739747043148213
 30
0.0
 40
0.0009095809675798
 50
121.2303925756307024
 51
142.9825667734949093
  0
ARC
  5
BC17
  8
0
 10
3593.3758478810168526
 20
273.0743758012562807
 30
0.0
 40
0.0002433800261821
 50
142.9841409871984013
 51
186.7383188793554041
  0
LINE
  5
BC18
  8
0
 10
3593.6129879161690042
 20
273.0651163396768766
 30
0.0
 11
3593.6099389518458338
 21
273.0215141189765973
 31
0.0
  0
ARC
  5
BC19
  8
0
 10
3593.5942292818031092
 20
273.0226126461321883
 30
0.0
 40
0.0157480314569953
 50
270.9999998502923972
 51
355.9999999535991151
  0
LINE
  5
BC1A
  8
0
 10
3593.5945041228069385
 20
273.00686701317602
 30
0.0
 11
3593.5049935048868974
 21
273.0053045997623826
 31
0.0
  0
ARC
  5
BC1B
  8
0
 10
3593.5047238526390174
 20
273.0207529690018191
 30
0.0
 40
0.0154507224585641
 50
184.4199843830488135
 51
270.9999998502923972
  0
LINE
  5
BC1C
  8
0
 10
3593.2753315613181258
 20
273.0053968134350271
 30
0.0
 11
3593.3425477306409448
 21
273.0059239736505106
 31
0.0
  0
LINE
  5
BC1D
  8
0
 10
3593.347110717454143
 20
273.005064952580824
 30
0.0
 11
3593.4350722828949074
 21
273.0063460103035027
 31
0.0
  0
ARC
  5
BC1E
  8
0
 10
3593.4348017163019904
 20
273.0249239874405021
 30
0.0
 40
0.0185799472762222
 50
270.8343872879169112
 51
329.8925076355577062
  0
LINE
  5
BC1F
  8
0
 10
3593.9181049995631838
 20
273.0651163396768766
 30
0.0
 11
3593.9156569812630551
 21
273.0222495205770201
 31
0.0
  0
ARC
  5
BC20
  8
0
 10
3593.8996940514512062
 20
273.0232521895856053
 30
0.0
 40
0.0159943888069458
 50
272.5860790896692833
 51
356.4058397204242965
  0
ARC
  5
BC21
  8
0
 10
3593.8147337216769301
 20
274.4247834094375094
 30
0.0
 40
1.420096502273783
 50
269.7882637703127102
 51
273.4590610306889857
  0
LINE
  5
BC22
  8
0
 10
3593.7895953818629096
 20
273.0651163396768766
 30
0.0
 11
3593.7950865732800594
 21
273.0186031972402816
 31
0.0
  0
ARC
  5
BC23
  8
0
 10
3593.8107923310749356
 20
273.0204573682954106
 30
0.0
 40
0.0158148277964348
 50
186.7329900228106112
 51
265.2610569197930204
  0
LINE
  5
BC24
  8
0
 10
3593.9524453266631099
 20
273.0730594956768869
 30
0.0
 11
3593.9574474425630797
 21
273.0330482467770139
 31
0.0
  0
ARC
  5
BC25
  8
0
 10
3593.977294535215151
 20
273.0355294854397812
 30
0.0
 40
0.020001590737121
 50
187.1260171195010003
 51
268.4858858159155943
  0
ARC
  5
BC26
  8
0
 10
3593.9936532464380434
 20
273.6544173654145879
 30
0.0
 40
0.639105633215072
 50
268.4858858159155943
 51
276.2061797522031839
  0
ARC
  5
BC27
  8
0
 10
3594.058657866584781
 20
273.0386246377423731
 30
0.0
 40
0.0199895530398246
 50
281.7974239182860856
 51
356.8854819404775185
  0
LINE
  5
BC28
  8
0
 10
3594.0786178937628392
 20
273.0375385687769949
 30
0.0
 11
3594.0807192168690563
 21
273.0792953038637165
 31
0.0
  0
ARC
  5
BC29
  8
0
 10
3594.0803451214828783
 20
273.0792344185647949
 30
0.0
 40
0.000377586856801
 50
8.0273497558466769
 51
70.7664454090394486
  0
ARC
  5
BC2A
  8
0
 10
3594.0787567196821328
 20
273.0760258765121762
 30
0.0
 40
0.0039551539264425
 50
64.3386116116485738
 51
78.9696016625553767
  0
ARC
  5
BC2B
  8
0
 10
3594.0555906048739416
 20
272.2959141878401965
 30
0.0
 40
0.7843586814218902
 50
88.2522139780137564
 51
97.4884513614907036
  0
ARC
  5
BC2C
  8
0
 10
3593.9542647870080145
 20
273.0702422395120834
 30
0.0
 40
0.0034592183934142
 50
105.025316238166198
 51
118.3576923606725018
  0
ARC
  5
BC2D
  8
0
 10
3593.952741457654156
 20
273.0730112271954795
 30
0.0
 40
0.0003000390140704
 50
113.5147924206000027
 51
170.7423690747096998
  0
ARC
  5
BC2E
  8
0
 10
3594.1471397217869708
 20
283.9520472411209084
 30
0.0
 40
10.8871378889427497
 50
269.6466912478229006
 51
271.0079401226971072
  0
LINE
  5
BC2F
  8
0
 10
3594.3378844584631224
 20
273.0722485852770092
 30
0.0
 11
3594.3433288165629165
 21
273.0323665194770228
 31
0.0
  0
ARC
  5
BC30
  8
0
 10
3594.3629738133281535
 20
273.0350482862086778
 30
0.0
 40
0.0198271977513717
 50
187.7734795936920875
 51
270.7156619224693941
  0
ARC
  5
BC31
  8
0
 10
3594.3491138976210095
 20
274.1446132227205794
 30
0.0
 40
1.129478695114384
 50
270.7156619224693941
 51
274.9987728650531267
  0
ARC
  5
BC32
  8
0
 10
3594.4459159149741936
 20
273.0378880977327185
 30
0.0
 40
0.0185281413797694
 50
274.9987728650531835
 51
1.059144821125577
  0
LINE
  5
BC33
  8
0
 10
3594.464440890762944
 20
273.038230581376979
 30
0.0
 11
3594.4660814255830701
 21
273.0803790305681105
 31
0.0
  0
ARC
  5
BC34
  8
0
 10
3594.4656584315539476
 20
273.0800092340493279
 30
0.0
 40
0.0005608323099417
 50
41.048049044399562
 51
89.1667074934492092
  0
ARC
  5
BC35
  8
0
 10
3594.5026732877131508
 20
271.527042906422821
 30
0.0
 40
1.5539678079705499
 50
91.36458951775559
 51
96.0873142600128034
  0
LINE
  5
BC36
  8
0
 10
3594.0874257605210005
 20
273.0650731134911098
 30
0.0
 11
3594.0851963198379053
 21
273.0225328512760825
 31
0.0
  0
ARC
  5
BC37
  8
0
 10
3594.0694698703691756
 20
273.0233570395727725
 30
0.0
 40
0.015748031599026
 50
272.0000003301406082
 51
356.9999999854014163
  0
ARC
  5
BC38
  8
0
 10
3579.4030774207390095
 20
693.0138165892395818
 30
0.0
 40
420.262210456004027
 50
271.987757724935193
 51
272.0000003301406082
  0
ARC
  5
BC39
  8
0
 10
3593.9797428042779757
 20
273.0198232915935819
 30
0.0
 40
0.0153382727518959
 50
178.477727030439695
 51
271.987757724935193
  0
LINE
  5
BC3A
  8
0
 10
3594.6014011767310876
 20
273.080830552371026
 30
0.0
 11
3594.5999220412700197
 21
273.038473652445191
 31
0.0
  0
ARC
  5
BC3B
  8
0
 10
3594.5802489934631012
 20
273.0391606503770277
 30
0.0
 40
0.0196850393999969
 50
272.9999999999794795
 51
358.0000001046253146
  0
LINE
  5
BC3C
  8
0
 10
3594.4732325968680016
 20
273.071982078058511
 30
0.0
 11
3594.4788337453660461
 21
273.0321276933893841
 31
0.0
  0
ARC
  5
BC3D
  8
0
 10
3594.4983272126628435
 20
273.0348673117770204
 30
0.0
 40
0.0196850393999997
 50
187.9999718180615105
 51
273.0000000000056275
  0
ARC
  5
BC3E
  8
0
 10
3589.0852114869558136
 20
377.1069955593659984
 30
0.0
 40
104.2324947104035004
 50
272.9774532171206829
 51
273.0225467736253222
  0
LINE
  5
BC3F
  8
0
 10
3594.7846725173899358
 20
273.158450118677024
 30
0.0
 11
3594.7833503260631005
 21
273.1122384965769925
 31
0.0
  0
ARC
  5
BC40
  8
0
 10
3594.7635084847861435
 20
273.1128055379036255
 30
0.0
 40
0.0198499420935611
 50
286.5665779666426829
 51
358.3630433267397279
  0
ARC
  5
BC41
  8
0
 10
3594.6866365967362071
 20
273.6836360291976007
 30
0.0
 40
0.5956023032795691
 50
269.4729824650635237
 51
277.9650171117048103
  0
ARC
  5
BC42
  8
0
 10
3594.6822107936018256
 20
273.1081878275194867
 30
0.0
 40
0.0201398384059662
 50
188.7579008884935945
 51
268.1120471928301185
  0
LINE
  5
BC43
  8
0
 10
3594.6623052784420906
 20
273.1051212910724075
 30
0.0
 11
3594.6574766543708392
 21
273.1379393933082156
 31
0.0
  0
ARC
  5
BC44
  8
0
 10
3594.6590381395758413
 20
273.1377847436610864
 30
0.0
 40
0.0015691247753026
 50
121.2260134083076935
 51
174.3438658420388094
  0
ARC
  5
BC45
  8
0
 10
3594.7935123882630251
 20
272.7305762589892879
 30
0.0
 40
0.4303674036093304
 50
92.5339011383900356
 51
108.321818682625107
  0
ARC
  5
BC46
  8
0
 10
3594.776293706503111
 20
273.1322247582165801
 30
0.0
 40
0.0283558111315807
 50
76.7822544445034367
 51
93.655883666949137
  0
ARC
  5
BC47
  8
0
 10
3594.7820837813028447
 20
273.1568847026805997
 30
0.0
 40
0.0030252407795599
 50
31.1614715454282702
 51
76.7468295748929137
  0
LINE
  5
BC48
  8
0
 10
3594.9333269141629899
 20
273.1366056855770239
 30
0.0
 11
3594.9383003138627828
 21
273.1046250844769929
 31
0.0
  0
ARC
  5
BC49
  8
0
 10
3594.9578809775989612
 20
273.1076701325312115
 30
0.0
 40
0.0198160215487058
 50
188.8394347385161893
 51
271.4426523784010215
  0
ARC
  5
BC4A
  8
0
 10
3594.9334661585230606
 20
274.0771139705793757
 30
0.0
 40
0.9895672466162915
 50
271.4426523784010215
 51
276.3076810233699234
  0
ARC
  5
BC4B
  8
0
 10
3595.0394318864018715
 20
273.1132012074937165
 30
0.0
 40
0.0198560175450031
 50
277.9772344501722046
 51
358.6756887532699807
  0
ARC
  5
BC4C
  8
0
 10
-28881.8786641342885559
 20
932.1553793564012267
 30
0.0
 40
32483.6241142132894311
 50
358.837477232661513
 51
358.8375605894677847
  0
ARC
  5
BC4D
  8
0
 10
3595.059145064751192
 20
273.1589899001879758
 30
0.0
 40
0.0014848912549737
 50
42.4123625224451573
 51
95.056362807516777
  0
ARC
  5
BC4E
  8
0
 10
3595.1391464205858028
 20
272.3808921259013118
 30
0.0
 40
0.783684436973029
 50
95.8687865811518236
 51
105.1698333649351014
  0
ARC
  5
BC4F
  8
0
 10
3594.9344749794390736
 20
273.1360660578927195
 30
0.0
 40
0.0012685802635561
 50
108.5667910148181932
 51
154.8239134483578994
  0
LINE
  5
BC50
  8
0
 10
3595.1546350632038411
 20
273.1600783078455947
 30
0.0
 11
3595.1538118225630569
 21
273.1129148810770175
 31
0.0
  0
ARC
  5
BC51
  8
0
 10
3595.1341297813378333
 20
273.1132584323694914
 30
0.0
 40
0.0196850393516606
 50
273.9999998423830903
 51
359.0000000435069865
  0
LINE
  5
BC52
  8
0
 10
3595.135502940214792
 20
273.0936213447805017
 30
0.0
 11
3595.0536685656929876
 21
273.0878989280890892
 31
0.0
  0
ARC
  5
BC53
  8
0
 10
3595.0522954067478167
 20
273.1075360166453265
 30
0.0
 40
0.0196850403213553
 50
226.8584233649474982
 51
273.9999998423830903
  0
LINE
  5
BC54
  8
0
 10
3595.4576421960628068
 20
273.3226840257769936
 30
0.0
 11
3595.4572034344591884
 21
273.2720618981869052
 31
0.0
  0
ARC
  5
BC55
  8
0
 10
3595.4372468374499476
 20
273.2722348697496955
 30
0.0
 40
0.0199573466004532
 50
280.2635134685456819
 51
359.5034077024159842
  0
ARC
  5
BC56
  8
0
 10
3595.3649245836982118
 20
273.6716441682831942
 30
0.0
 40
0.4258616409147727
 50
268.7226059731949022
 51
280.2635134685456819
  0
ARC
  5
BC57
  8
0
 10
3595.3559149905281629
 20
273.2657322774953741
 30
0.0
 40
0.0198498199822425
 50
189.2730774236210891
 51
268.602549638356777
  0
ARC
  5
BC58
  8
0
 10
3594.8008416152410973
 20
273.1844179420135106
 30
0.0
 40
0.5411506908875147
 50
8.2997085105485482
 51
10.7214588315322992
  0
ARC
  5
BC59
  8
0
 10
3595.3365052477179233
 20
273.2846066993453178
 30
0.0
 40
0.0039891770110532
 50
124.8800462115579961
 51
173.0311666323617885
  0
ARC
  5
BC5A
  8
0
 10
3595.49167050908909
 20
272.9937392254145152
 30
0.0
 40
0.3336281520185599
 50
96.9710473698681739
 51
118.1591396032773957
  0
ARC
  5
BC5B
  8
0
 10
3595.4517883084968162
 20
273.3097209551186779
 30
0.0
 40
0.0151923435606781
 50
72.6130556368051856
 51
92.2992834444236507
  0
ARC
  5
BC5C
  8
0
 10
3595.4558721472440084
 20
273.3224988334764021
 30
0.0
 40
0.0017797103722833
 50
5.972870696502941
 51
75.1544177790232055
  0
LINE
  5
BC5D
  8
0
 10
3595.6737826516628047
 20
273.324337518776872
 30
0.0
 11
3595.673668784821075
 21
273.2724558389410277
 31
0.0
  0
ARC
  5
BC5E
  8
0
 10
3595.6539203343900226
 20
273.2724991816720035
 30
0.0
 40
0.0197484979937418
 50
283.3555728675839873
 51
359.8742508142053111
  0
ARC
  5
BC5F
  8
0
 10
3595.5178434424788065
 20
274.3587987799950838
 30
0.0
 40
1.1144238185404001
 50
272.8512537003393845
 51
277.2499756601799845
  0
ARC
  5
BC60
  8
0
 10
3595.5724111225317756
 20
273.2655242839235825
 30
0.0
 40
0.0197887273331729
 50
191.4044843025911007
 51
272.5121312584919906
  0
LINE
  5
BC61
  8
0
 10
3595.5530131097320918
 20
273.2616113784956156
 30
0.0
 11
3595.5491064613629533
 21
273.2836713697769255
 31
0.0
  0
ARC
  5
BC62
  8
0
 10
3595.5501223936707902
 20
273.2835556876771079
 30
0.0
 40
0.0010224973364589
 50
131.3322692762795043
 51
173.5038285255533026
  0
ARC
  5
BC63
  8
0
 10
3595.7980910251772002
 20
272.7395713295634891
 30
0.0
 40
0.5988144068030824
 50
102.1924316229436016
 51
114.5336130171253046
  0
ARC
  5
BC64
  8
0
 10
3595.6718018904439305
 20
273.3210129034101215
 30
0.0
 40
0.003869946038883
 50
59.2140817035426181
 51
92.6345563479204088
  0
LINE
  5
BC65
  8
0
 10
3595.7470498633638272
 20
273.324901062415222
 30
0.0
 11
3595.74704987726318
 21
273.2725893657769802
 31
0.0
  0
ARC
  5
BC66
  8
0
 10
3595.7273648435711948
 20
273.2725893605467036
 30
0.0
 40
0.0196850336921795
 50
274.9999847765927825
 51
0.0000152233181772
  0
LINE
  5
BC67
  8
0
 10
3595.7290805020920743
 20
273.2529792338949051
 30
0.0
 11
3595.647358459365023
 21
273.2458295034757043
 31
0.0
  0
ARC
  5
BC68
  8
0
 10
3595.6456427945040559
 20
273.2654397025808066
 30
0.0
 40
0.0196851064223166
 50
230.0825639364350934
 51
274.9999847765927825
  0
ARC
  5
BC69
  8
0
 10
3592.6753916485590707
 20
282.2759056374957254
 30
0.0
 40
9.4633803204694793
 50
288.4716753168901846
 51
288.9403504746463796
  0
ARC
  5
BC6A
  8
0
 10
3594.128387923066839
 20
278.0190071665588789
 30
0.0
 40
4.9661225162771121
 50
280.810688137260513
 51
286.6705834161919029
  0
ARC
  5
BC6B
  8
0
 10
3594.2219911020620202
 20
277.6714155522791998
 30
0.0
 40
4.6062992126022957
 50
276.926745991619498
 51
278.9145791759011104
  0
ARC
  5
BC6C
  8
0
 10
3594.2025805045818743
 20
277.9250033978814827
 30
0.0
 40
4.8605625688510488
 50
273.1035957715668019
 51
275.6505768658665261
  0
LINE
  5
BC6D
  8
0
 10
3595.1094318766631659
 20
273.3200347247769741
 30
0.0
 11
3595.1085035345367942
 21
273.2714281540489196
 31
0.0
  0
ARC
  5
BC6E
  8
0
 10
3595.0882681799671445
 20
273.2718146312636236
 30
0.0
 40
0.0202390449185126
 50
278.4094713500122111
 51
358.9058347694298163
  0
ARC
  5
BC6F
  8
0
 10
3595.019540688350844
 20
273.7064877712425073
 30
0.0
 40
0.4603110254796161
 50
268.1295602246592011
 51
278.9595327662427735
  0
ARC
  5
BC70
  8
0
 10
3595.0074718885957736
 20
273.2664073849929878
 30
0.0
 40
0.0202027380674759
 50
189.2715887470579901
 51
261.5877854495893189
  0
LINE
  5
BC71
  8
0
 10
3594.9875330845629833
 20
273.2631524319770051
 30
0.0
 11
3594.9837536254731276
 21
273.2872313506721866
 31
0.0
  0
ARC
  5
BC72
  8
0
 10
3594.9872088397928565
 20
273.2877883612172809
 30
0.0
 40
0.003499823817638
 50
146.397096972633193
 51
189.1577929356797085
  0
ARC
  5
BC73
  8
0
 10
3595.0198935257872108
 20
273.2559760498543255
 30
0.0
 40
0.0490545292514108
 50
111.421835024055099
 51
136.5284579994132912
  0
ARC
  5
BC74
  8
0
 10
3595.116341500875933
 20
273.0435449091007172
 30
0.0
 40
0.2822997485122791
 50
95.1582265545788744
 51
113.8984171987877971
  0
ARC
  5
BC75
  8
0
 10
3595.0954024523748558
 20
273.2835560667660957
 30
0.0
 40
0.0413843678664941
 50
74.8647598435476453
 51
96.1610651155884142
  0
ARC
  5
BC76
  8
0
 10
3595.1032106057778037
 20
273.3174874975761099
 30
0.0
 40
0.0067225425133688
 50
22.26607705029258
 51
63.5223772566285589
  0
LINE
  5
BC77
  8
0
 10
3594.6465636290618022
 20
273.3165473724769754
 30
0.0
 11
3594.6450473530630916
 21
273.2705828486770088
 31
0.0
  0
ARC
  5
BC78
  8
0
 10
3594.6247598271429524
 20
273.271252092826785
 30
0.0
 40
0.0202985614195774
 50
282.2506205966218999
 51
358.1106141064246913
  0
ARC
  5
BC79
  8
0
 10
3594.563829692840045
 20
273.6388783854682174
 30
0.0
 40
0.3929162630654414
 50
266.9377053315910189
 51
279.5572761097769217
  0
ARC
  5
BC7A
  8
0
 10
3594.5444721509729789
 20
273.2672089690940993
 30
0.0
 40
0.0207501127304314
 50
188.9568792570580911
 51
265.4870629694888748
  0
LINE
  5
BC7B
  8
0
 10
3594.5239752301617955
 20
273.2639785715770131
 30
0.0
 11
3594.520183487462873
 21
273.2905084775770206
 31
0.0
  0
ARC
  5
BC7C
  8
0
 10
3594.5367125449070045
 20
273.2860697623339092
 30
0.0
 40
0.0171146701104116
 50
112.9747354321288952
 51
164.9684144850162113
  0
ARC
  5
BC7D
  8
0
 10
3594.6232553373251903
 20
273.1199755993500844
 30
0.0
 40
0.2043536605772474
 50
86.7404928302537712
 51
117.1412066470673068
  0
ARC
  5
BC7E
  8
0
 10
3594.6334446796909106
 20
273.3088614285060203
 30
0.0
 40
0.0152046232229787
 50
30.3645793762433804
 51
84.6037515971964353
  0
LINE
  5
BC7F
  8
0
 10
3594.3502192968630879
 20
273.1560439002769272
 30
0.0
 11
3594.3483618716632009
 21
273.1114443183769254
 31
0.0
  0
ARC
  5
BC80
  8
0
 10
3594.3283386528792107
 20
273.1122782192695126
 30
0.0
 40
0.0200405758699129
 50
283.2665795838506142
 51
357.6151982597364736
  0
ARC
  5
BC81
  8
0
 10
3594.2687547203518079
 20
273.5335691013316932
 30
0.0
 40
0.445444849950902
 50
266.7757404017464751
 51
278.2844224247431839
  0
ARC
  5
BC82
  8
0
 10
3594.2464611176228573
 20
273.1079680166236017
 30
0.0
 40
0.0193366459527888
 50
186.1463690427094946
 51
261.793583242652403
  0
LINE
  5
BC83
  8
0
 10
3594.227235626062793
 20
273.1058976661768725
 30
0.0
 11
3594.2226584307632038
 21
273.1400708576769034
 31
0.0
  0
ARC
  5
BC84
  8
0
 10
3594.2296858106569744
 20
273.136902437256424
 30
0.0
 40
0.0077086286810129
 50
106.0144953462886974
 51
155.7309123504672925
  0
ARC
  5
BC85
  8
0
 10
3594.3305677400858258
 20
272.8226415694969091
 30
0.0
 40
0.3377611240306677
 50
89.7058446580917064
 51
107.756640483881597
  0
ARC
  5
BC86
  8
0
 10
3594.3337580544889533
 20
273.1110813110216782
 30
0.0
 40
0.0493384272820519
 50
73.1975217401367075
 51
91.6913767317618067
  0
ARC
  5
BC87
  8
0
 10
3594.3473049604349399
 20
273.155420158957611
 30
0.0
 40
0.0029803372382809
 50
12.0804830397006402
 51
76.1088970568416414
  0
LINE
  5
BC88
  8
0
 10
3594.0921936170630033
 20
273.312420722277011
 30
0.0
 11
3594.0900668892631984
 21
273.2695722634769027
 31
0.0
  0
ARC
  5
BC89
  8
0
 10
3594.0697100716629393
 20
273.2705826477737219
 30
0.0
 40
0.0203818767347033
 50
283.9682337516850907
 51
357.1585299276206911
  0
ARC
  5
BC8A
  8
0
 10
3594.0210189912650094
 20
273.5454220644994052
 30
0.0
 40
0.2994565900537902
 50
262.5395933531916057
 51
280.313114244171004
  0
ARC
  5
BC8B
  8
0
 10
3593.9890651594041628
 20
273.267619494905091
 30
0.0
 40
0.0203355563116286
 50
187.478105380069394
 51
250.0816747927289896
  0
LINE
  5
BC8C
  8
0
 10
3593.9689025637630948
 20
273.2649728767776196
 30
0.0
 11
3593.9652041302629186
 21
273.294292510077014
 31
0.0
  0
ARC
  5
BC8D
  8
0
 10
3593.9712468826560325
 20
273.2950547609427758
 30
0.0
 40
0.0060906389540154
 50
147.0278714654448891
 51
187.1894883431943981
  0
ARC
  5
BC8E
  8
0
 10
3593.9854911116631229
 20
273.2858142986514167
 30
0.0
 40
0.0230695730589158
 50
117.9377583923895969
 51
147.0278714654417911
  0
ARC
  5
BC8F
  8
0
 10
3594.0434954103129712
 20
273.1764376031429151
 30
0.0
 40
0.1468749048598809
 50
99.9426177268690594
 51
117.9377583923895969
  0
ARC
  5
BC90
  8
0
 10
3594.0595081701198978
 20
273.0850898515540734
 30
0.0
 40
0.2396155119149649
 50
88.9503741415942955
 51
99.9426177268690594
  0
ARC
  5
BC91
  8
0
 10
3594.0628498422970551
 20
273.2674808357389793
 30
0.0
 40
0.0571939181140544
 50
63.2537318248484368
 51
88.9503741415942955
  0
ARC
  5
BC92
  8
0
 10
3594.085635555900808
 20
273.3126939440310821
 30
0.0
 40
0.0065637501732293
 50
357.6143245434018922
 51
63.2546970651407321
  0
LINE
  5
BC93
  8
0
 10
3593.7920369358630523
 20
273.1530002781768758
 30
0.0
 11
3593.7895475797618019
 21
273.1104247181770006
 31
0.0
  0
ARC
  5
BC94
  8
0
 10
3593.7692461746341905
 20
273.1116117237430103
 30
0.0
 40
0.0203360771139966
 50
277.5704697442434963
 51
356.6537751295384737
  0
ARC
  5
BC95
  8
0
 10
3593.7186142184427808
 20
273.4925782573827746
 30
0.0
 40
0.4046524763755305
 50
265.2800946130064972
 51
277.5704697442434963
  0
ARC
  5
BC96
  8
0
 10
3593.6886217509490962
 20
273.1094659919771175
 30
0.0
 40
0.0204368653326927
 50
187.201678785418693
 51
260.6954976343886869
  0
LINE
  5
BC97
  8
0
 10
3593.6683460626509259
 20
273.1069044000498138
 30
0.0
 11
3593.6641384102631491
 21
273.1428631491770034
 31
0.0
  0
ARC
  5
BC98
  8
0
 10
3593.6663798801141638
 20
273.1431254309914038
 30
0.0
 40
0.0022567629119254
 50
131.3311043850929991
 51
186.6740189626922017
  0
ARC
  5
BC99
  8
0
 10
3593.681711070918027
 20
273.1256933975714105
 30
0.0
 40
0.0254714393180729
 50
100.9043458936776005
 51
131.3311043850916064
  0
ARC
  5
BC9A
  8
0
 10
3593.7508307093908115
 20
272.8729606446548246
 30
0.0
 40
0.2874173415600052
 50
92.007441591047268
 51
104.9069404796170062
  0
ARC
  5
BC9B
  8
0
 10
3593.7532358998278141
 20
272.9444793982733017
 30
0.0
 40
0.2160825003300582
 50
83.4259390462760848
 51
93.3092001077744726
  0
ARC
  5
BC9C
  8
0
 10
3593.7680555537840519
 20
273.098402066862775
 30
0.0
 40
0.0615436192347283
 50
69.6039794811464816
 51
80.7251029770598052
  0
ARC
  5
BC9D
  8
0
 10
3593.7881218898260158
 20
273.1523705504375812
 30
0.0
 40
0.003965367599483
 50
9.1376316792560743
 51
69.6026741027220623
  0
LINE
  5
BC9E
  8
0
 10
3593.4737361718398461
 20
273.3104712126615823
 30
0.0
 11
3593.4713845724841121
 21
273.2684522210358864
 31
0.0
  0
ARC
  5
BC9F
  8
0
 10
3593.4513293392719788
 20
273.2695746152601259
 30
0.0
 40
0.0200866161405402
 50
284.3144161925607136
 51
356.7967743346372913
  0
ARC
  5
BCA0
  8
0
 10
3593.4058098404780139
 20
273.5434846625814771
 30
0.0
 40
0.2976853318220824
 50
262.1489260877543188
 51
279.7642384667940973
  0
ARC
  5
BCA1
  8
0
 10
3593.3706562522797867
 20
273.2684799701290217
 30
0.0
 40
0.0206393165025615
 50
186.6582923835821077
 51
254.5166579143921126
  0
ARC
  5
BCA2
  8
0
 10
5355.812352101003853
 20
462.6692284717648818
 30
0.0
 40
1772.6100931192779626
 50
186.1326988310842125
 51
186.1337554438960922
  0
ARC
  5
BCA3
  8
0
 10
3593.3533992672719251
 20
273.2996186732279966
 30
0.0
 40
0.0068139063327143
 50
133.7176675472859984
 51
188.6902523389979081
  0
ARC
  5
BCA4
  8
0
 10
3593.3839558495537858
 20
273.2676627701483199
 30
0.0
 40
0.0510279817209172
 50
106.546653071681007
 51
133.7176675472859984
  0
ARC
  5
BCA5
  8
0
 10
3593.4237922755310137
 20
273.1335782664336875
 30
0.0
 40
0.1909050526474371
 50
81.638702731458892
 51
106.546653071681007
  0
ARC
  5
BCA6
  8
0
 10
3593.4449791285928768
 20
273.2777290710039892
 30
0.0
 40
0.0452055770103981
 50
57.9483028845718806
 51
81.6387027314589631
  0
ARC
  5
BCA7
  8
0
 10
3593.462463022799966
 20
273.3056530540891913
 30
0.0
 40
0.0122596305525956
 50
23.1419264648417418
 51
57.9483028845699408
  0
LINE
  5
BCA8
  8
0
 10
3593.1553029549631901
 20
273.1495932806769815
 30
0.0
 11
3593.1521702866630221
 21
273.1092636908770146
 31
0.0
  0
ARC
  5
BCA9
  8
0
 10
3593.1318801767220066
 20
273.1108397590821824
 30
0.0
 40
0.0203512297516839
 50
278.5614572735020147
 51
355.5583733228248775
  0
ARC
  5
BCAA
  8
0
 10
3593.0877339549301723
 20
273.479071438232495
 30
0.0
 40
0.3912110050955792
 50
264.2927679347258163
 51
276.9261215908139775
  0
ARC
  5
BCAB
  8
0
 10
3593.0514714176119924
 20
273.1102995389355215
 30
0.0
 40
0.0206693765601787
 50
186.2283457485235942
 51
262.6574322520398255
  0
ARC
  5
BCAC
  8
0
 10
3594.7160552479908802
 20
273.2919644886289916
 30
0.0
 40
1.695136898581256
 50
184.935669201380108
 51
186.2283457485235942
  0
ARC
  5
BCAD
  8
0
 10
3593.0308681362789684
 20
273.146031863969597
 30
0.0
 40
0.0036651484845571
 50
124.9751747256734973
 51
178.6268201503845887
  0
ARC
  5
BCAE
  8
0
 10
3593.070669658945917
 20
273.0631271518788026
 30
0.0
 40
0.095582373306017
 50
93.5893439068053254
 51
116.0012737395312996
  0
ARC
  5
BCAF
  8
0
 10
3593.0980220385499706
 20
272.885810582645604
 30
0.0
 40
0.2747414104229173
 50
81.1251846605283475
 51
96.969272216248072
  0
ARC
  5
BCB0
  8
0
 10
3593.1345996744062177
 20
273.1202672681702097
 30
0.0
 40
0.0374486511068997
 50
59.5865292713680006
 51
81.0772275051959639
  0
ARC
  5
BCB1
  8
0
 10
3593.1509410014541572
 20
273.1490271331983877
 30
0.0
 40
0.0043985408239532
 50
7.395202801362764
 51
53.4968238845108885
  0
ARC
  5
BCB2
  8
0
 10
3589.3892781666481824
 20
273.5002588307730775
 30
0.0
 40
0.0196850493441149
 50
183.0010991468452914
 51
245.4569827561296904
  0
ARC
  5
BCB3
  8
0
 10
3591.2967584745279055
 20
277.6714155584770083
 30
0.0
 40
4.6062992193469512
 50
245.4253999548388947
 51
250.665590827277498
  0
LINE
  5
BCB4
  8
0
 10
3592.6961812466588526
 20
273.0651163396768766
 30
0.0
 11
3592.1421479374939736
 21
273.0651163396768766
 31
0.0
  0
LINE
  5
BCB5
  8
0
 10
3592.015642304892026
 20
273.0651163396768766
 30
0.0
 11
3591.5653112566219534
 21
273.0651163396768766
 31
0.0
  0
LINE
  5
BCB6
  8
0
 10
3592.2654166764627917
 20
273.0651163396768766
 30
0.0
 11
3592.2608788053630633
 21
273.0197163562768878
 31
0.0
  0
ARC
  5
BCB7
  8
0
 10
3592.2447765096840158
 20
273.0215456431906205
 30
0.0
 40
0.0162058698247558
 50
265.1913967693404857
 51
353.5187509483585018
  0
LINE
  5
BCB8
  8
0
 10
3592.1917066416631314
 20
273.0651163396768766
 30
0.0
 11
3592.1868962439930328
 21
273.0193702863790008
 31
0.0
  0
ARC
  5
BCB9
  8
0
 10
3592.1709932896678765
 20
273.0210425516111172
 30
0.0
 40
0.0159906356116738
 50
272.3137484600957237
 51
353.9971585746108076
  0
LINE
  5
BCBA
  8
0
 10
3592.1431433917618961
 20
273.0743472442770212
 30
0.0
 11
3592.138800202163111
 21
273.0340725976769818
 31
0.0
  0
ARC
  5
BCBB
  8
0
 10
3592.1187863237710189
 20
273.0362308802647817
 30
0.0
 40
0.020129915847773
 50
273.6934812772174155
 51
353.8450491242746239
  0
ARC
  5
BCBC
  8
0
 10
3592.088091977176191
 20
273.511722606686476
 30
0.0
 40
0.4966113161230023
 50
263.8400989197015747
 51
273.6934812772174155
  0
ARC
  5
BCBD
  8
0
 10
3592.0377963900468785
 20
273.038039937920189
 30
0.0
 40
0.0202833400283933
 50
184.3430706389463012
 51
261.5156833810029866
  0
LINE
  5
BCBE
  8
0
 10
3592.0175712938630568
 20
273.0365039147769721
 30
0.0
 11
3592.0147939478379158
 21
273.0776999017705862
 31
0.0
  0
ARC
  5
BCBF
  8
0
 10
3592.0155419876168708
 20
273.0775683846335937
 30
0.0
 40
0.0007595131786241
 50
103.4983301938295028
 51
170.0284134081882996
  0
ARC
  5
BCC0
  8
0
 10
3592.0587200854961338
 20
272.3687249986500092
 30
0.0
 40
0.7119213051798547
 50
83.9101887647654507
 51
92.7573354931727465
  0
ARC
  5
BCC1
  8
0
 10
3592.026841035139114
 20
273.0348120633856865
 30
0.0
 40
0.0450722849747137
 50
93.012400261674884
 51
103.7713704345827068
  0
ARC
  5
BCC2
  8
0
 10
3592.0169031388541043
 20
273.0753593820151082
 30
0.0
 40
0.0033248679216456
 50
103.7713704345822947
 51
117.5618246171267032
  0
ARC
  5
BCC3
  8
0
 10
3592.1283540812660249
 20
273.0249963447204209
 30
0.0
 40
0.0519675306001243
 50
74.9841410179514867
 51
83.4901399341063382
  0
ARC
  5
BCC4
  8
0
 10
3592.1407961699501357
 20
273.071379494189614
 30
0.0
 40
0.003944597271597
 50
58.7696074243398598
 51
74.9841410179510746
  0
ARC
  5
BCC5
  8
0
 10
3592.1423697672198614
 20
273.0739747043148213
 30
0.0
 40
0.0009095809675798
 50
37.0174332265050197
 51
58.7696074243693118
  0
ARC
  5
BCC6
  8
0
 10
3592.1429016929091631
 20
273.0743758012562807
 30
0.0
 40
0.0002433800261821
 50
353.2616811206444822
 51
37.0158590128015916
  0
LINE
  5
BCC7
  8
0
 10
3591.9057616577570116
 20
273.0651163396768766
 30
0.0
 11
3591.9088106220801819
 21
273.0215141189765973
 31
0.0
  0
ARC
  5
BCC8
  8
0
 10
3591.9245202921229065
 20
273.0226126461321883
 30
0.0
 40
0.0157480314569953
 50
184.0000000464009133
 51
269.0000001497076028
  0
LINE
  5
BCC9
  8
0
 10
3591.9242454511190772
 20
273.00686701317602
 30
0.0
 11
3592.0137560690391183
 21
273.0053045997623826
 31
0.0
  0
ARC
  5
BCCA
  8
0
 10
3592.0140257212869983
 20
273.0207529690018191
 30
0.0
 40
0.0154507224585641
 50
269.0000001497076028
 51
355.5800156169511865
  0
LINE
  5
BCCB
  8
0
 10
3592.24341801260789
 20
273.0053968134350271
 30
0.0
 11
3592.1762018432850709
 21
273.0059239736505106
 31
0.0
  0
LINE
  5
BCCC
  8
0
 10
3592.1716388564718727
 20
273.005064952580824
 30
0.0
 11
3592.0836772910311083
 21
273.0063460103035027
 31
0.0
  0
ARC
  5
BCCD
  8
0
 10
3592.0839478576240253
 20
273.0249239874405021
 30
0.0
 40
0.0185799472762222
 50
210.1074923644422938
 51
269.1656127120830888
  0
LINE
  5
BCCE
  8
0
 10
3591.6006445743628319
 20
273.0651163396768766
 30
0.0
 11
3591.6030925926629607
 21
273.0222495205770201
 31
0.0
  0
ARC
  5
BCCF
  8
0
 10
3591.6190555224748095
 20
273.0232521895856053
 30
0.0
 40
0.0159943888069458
 50
183.5941602795755898
 51
267.413920910330603
  0
ARC
  5
BCD0
  8
0
 10
3591.7040158522499951
 20
274.4247834094375094
 30
0.0
 40
1.420096502273783
 50
266.5409389693110143
 51
270.2117362296871761
  0
LINE
  5
BCD1
  8
0
 10
3591.7291541920631062
 20
273.0651163396768766
 30
0.0
 11
3591.7236630006459563
 21
273.0186031972402816
 31
0.0
  0
ARC
  5
BCD2
  8
0
 10
3591.7079572428519896
 20
273.0204573682954106
 30
0.0
 40
0.0158148277964348
 50
274.7389430802069796
 51
353.2670099771892751
  0
LINE
  5
BCD3
  8
0
 10
3591.5663042472629058
 20
273.0730594956768869
 30
0.0
 11
3591.5613021313629361
 21
273.0330482467770139
 31
0.0
  0
ARC
  5
BCD4
  8
0
 10
3591.5414550387108648
 20
273.0355294854397812
 30
0.0
 40
0.020001590737121
 50
271.514114184084292
 51
352.8739828804988861
  0
ARC
  5
BCD5
  8
0
 10
3591.5250963274879723
 20
273.6544173654145879
 30
0.0
 40
0.639105633215072
 50
263.7938202477968161
 51
271.514114184084292
  0
ARC
  5
BCD6
  8
0
 10
3591.46009170734078
 20
273.0386246377423731
 30
0.0
 40
0.0199895530398246
 50
183.1145180595223962
 51
258.2025760817140281
  0
LINE
  5
BCD7
  8
0
 10
3591.4401316801631765
 20
273.0375385687769949
 30
0.0
 11
3591.4380303570569595
 21
273.0792953038637165
 31
0.0
  0
ARC
  5
BCD8
  8
0
 10
3591.4384044524431374
 20
273.0792344185647949
 30
0.0
 40
0.000377586856801
 50
109.2335545909604946
 51
171.9726502441529021
  0
ARC
  5
BCD9
  8
0
 10
3591.4399928542438829
 20
273.0760258765121762
 30
0.0
 40
0.0039551539264425
 50
101.0303983374445949
 51
115.6613883883513978
  0
ARC
  5
BCDA
  8
0
 10
3591.4631589690520741
 20
272.2959141878401965
 30
0.0
 40
0.7843586814218902
 50
82.5115486385092964
 51
91.7477860219862436
  0
ARC
  5
BCDB
  8
0
 10
3591.5644847869180012
 20
273.0702422395120834
 30
0.0
 40
0.0034592183934142
 50
61.6423076393275267
 51
74.9746837618337736
  0
ARC
  5
BCDC
  8
0
 10
3591.566008116273224
 20
273.0730112271954795
 30
0.0
 40
0.0003000390140704
 50
9.2576309252902877
 51
66.485207579399983
  0
ARC
  5
BCDD
  8
0
 10
3591.371609852139045
 20
283.9520472411209084
 30
0.0
 40
10.8871378889427497
 50
268.9920598773027791
 51
270.3533087521770994
  0
LINE
  5
BCDE
  8
0
 10
3591.1808651154628933
 20
273.0722485852770092
 30
0.0
 11
3591.1754207573630993
 21
273.0323665194770228
 31
0.0
  0
ARC
  5
BCDF
  8
0
 10
3591.1557757605992265
 20
273.0350482862086778
 30
0.0
 40
0.0198271977513717
 50
269.2843380775307196
 51
352.2265204063078841
  0
ARC
  5
BCE0
  8
0
 10
3591.1696356763050062
 20
274.1446132227205794
 30
0.0
 40
1.129478695114384
 50
265.0012271349468733
 51
269.2843380775307196
  0
ARC
  5
BCE1
  8
0
 10
3591.0728336589509126
 20
273.0378880977327185
 30
0.0
 40
0.0185281413797694
 50
178.9408551788743864
 51
265.0012271349468165
  0
LINE
  5
BCE2
  8
0
 10
3591.0543086831630717
 20
273.038230581376979
 30
0.0
 11
3591.0526681483420361
 21
273.0803790305681105
 31
0.0
  0
ARC
  5
BCE3
  8
0
 10
3591.0530911423720681
 20
273.0800092340493279
 30
0.0
 40
0.0005608323099417
 50
90.8332925065768251
 51
138.9519509556004095
  0
ARC
  5
BCE4
  8
0
 10
3591.0160762862128649
 20
271.527042906422821
 30
0.0
 40
1.5539678079705499
 50
83.9126857399871966
 51
88.6354104822443958
  0
LINE
  5
BCE5
  8
0
 10
3591.4313238134050152
 20
273.0650731134911098
 30
0.0
 11
3591.4335532540881104
 21
273.0225328512760825
 31
0.0
  0
ARC
  5
BCE6
  8
0
 10
3591.4492797035568401
 20
273.0233570395727725
 30
0.0
 40
0.015748031599026
 50
183.0000000145986121
 51
267.9999996698593918
  0
ARC
  5
BCE7
  8
0
 10
3606.1156721531870062
 20
693.0138165892395818
 30
0.0
 40
420.262210456004027
 50
267.9999996698593918
 51
268.012242275064807
  0
ARC
  5
BCE8
  8
0
 10
3591.5390067696480401
 20
273.0198232915935819
 30
0.0
 40
0.0153382727518959
 50
268.012242275064807
 51
1.5222729695603061
  0
LINE
  5
BCE9
  8
0
 10
3590.9173483971949281
 20
273.080830552371026
 30
0.0
 11
3590.918827532655996
 21
273.038473652445191
 31
0.0
  0
ARC
  5
BCEA
  8
0
 10
3590.9385005804629145
 20
273.0391606503770277
 30
0.0
 40
0.0196850393999969
 50
181.9999998953747138
 51
267.0000000000205205
  0
LINE
  5
BCEB
  8
0
 10
3591.0455169770580142
 20
273.071982078058511
 30
0.0
 11
3591.0399158285599697
 21
273.0321276933893841
 31
0.0
  0
ARC
  5
BCEC
  8
0
 10
3591.0204223612631722
 20
273.0348673117770204
 30
0.0
 40
0.0196850393999997
 50
266.9999999999943725
 51
352.0000281819383758
  0
ARC
  5
BCED
  8
0
 10
3596.4335380869702021
 20
377.1069955593659984
 30
0.0
 40
104.2324947104035004
 50
266.9774532263747915
 51
267.0225467828792034
  0
LINE
  5
BCEE
  8
0
 10
3590.7340770565360799
 20
273.158450118677024
 30
0.0
 11
3590.7353992478638247
 21
273.1122384965769925
 31
0.0
  0
ARC
  5
BCEF
  8
0
 10
3590.7552410891398722
 20
273.1128055379036255
 30
0.0
 40
0.0198499420935611
 50
181.6369566732603005
 51
253.4334220333570045
  0
ARC
  5
BCF0
  8
0
 10
3590.8321129771911728
 20
273.6836360291976007
 30
0.0
 40
0.5956023032795691
 50
262.0349828882951897
 51
270.5270175349364763
  0
ARC
  5
BCF1
  8
0
 10
3590.8365387803241902
 20
273.1081878275194867
 30
0.0
 40
0.0201398384059662
 50
271.887952807143904
 51
351.2420991115063771
  0
LINE
  5
BCF2
  8
0
 10
3590.8564442954839251
 20
273.1051212910724075
 30
0.0
 11
3590.861272919556086
 21
273.1379393933082156
 31
0.0
  0
ARC
  5
BCF3
  8
0
 10
3590.8597114343501744
 20
273.1377847436610864
 30
0.0
 40
0.0015691247753026
 50
5.656134157961187
 51
58.773986591692271
  0
ARC
  5
BCF4
  8
0
 10
3590.7252371856629907
 20
272.7305762589892879
 30
0.0
 40
0.4303674036093304
 50
71.678181317374893
 51
87.4660988615839443
  0
ARC
  5
BCF5
  8
0
 10
3590.7424558674229047
 20
273.1322247582165801
 30
0.0
 40
0.0283558111315807
 50
86.344116333050863
 51
103.2177455554965064
  0
ARC
  5
BCF6
  8
0
 10
3590.736665792623171
 20
273.1568847026805997
 30
0.0
 40
0.0030252407795599
 50
103.2531704251071005
 51
148.8385284545717013
  0
LINE
  5
BCF7
  8
0
 10
3590.5854226597630259
 20
273.1366056855770239
 30
0.0
 11
3590.5804492600627782
 21
273.1046250844769929
 31
0.0
  0
ARC
  5
BCF8
  8
0
 10
3590.5608685963270545
 20
273.1076701325312115
 30
0.0
 40
0.0198160215487058
 50
268.5573476215989785
 51
351.1605652614837823
  0
ARC
  5
BCF9
  8
0
 10
3590.5852834154020456
 20
274.0771139705793757
 30
0.0
 40
0.9895672466162915
 50
263.6923189766300766
 51
268.5573476215989785
  0
ARC
  5
BCFA
  8
0
 10
3590.47931768752278
 20
273.1132012074937165
 30
0.0
 40
0.0198560175450031
 50
181.3243112467299056
 51
262.0227655498279091
  0
ARC
  5
BCFB
  8
0
 10
36067.3974137082186644
 20
932.1553793564012267
 30
0.0
 40
32483.6241142132894311
 50
181.1624394105321016
 51
181.1625227673384018
  0
ARC
  5
BCFC
  8
0
 10
3590.4596045091748238
 20
273.1589899001879758
 30
0.0
 40
0.0014848912549737
 50
84.9436371924832088
 51
137.5876374775548072
  0
ARC
  5
BCFD
  8
0
 10
3590.3796031533411224
 20
272.3808921259013118
 30
0.0
 40
0.783684436973029
 50
74.830166635064856
 51
84.1312134188481906
  0
ARC
  5
BCFE
  8
0
 10
3590.5842745944869421
 20
273.1360660578927195
 30
0.0
 40
0.0012685802635561
 50
25.1760865516421184
 51
71.4332089851817926
  0
LINE
  5
BCFF
  8
0
 10
3590.3641145107221746
 20
273.1600783078455947
 30
0.0
 11
3590.3649377513629588
 21
273.1129148810770175
 31
0.0
  0
ARC
  5
BD00
  8
0
 10
3590.3846197925881825
 20
273.1132584323694914
 30
0.0
 40
0.0196850393516606
 50
180.9999999564913082
 51
266.0000001576169097
  0
LINE
  5
BD01
  8
0
 10
3590.3832466337121332
 20
273.0936213447805017
 30
0.0
 11
3590.4650810082330281
 21
273.0878989280890892
 31
0.0
  0
ARC
  5
BD02
  8
0
 10
3590.4664541671768347
 20
273.1075360166453265
 30
0.0
 40
0.0196850403213553
 50
266.0000001576169097
 51
313.1415766350525018
  0
LINE
  5
BD03
  8
0
 10
3590.061107377863209
 20
273.3226840257769936
 30
0.0
 11
3590.0615461394668273
 21
273.2720618981869052
 31
0.0
  0
ARC
  5
BD04
  8
0
 10
3590.0815027364760681
 20
273.2722348697496955
 30
0.0
 40
0.0199573466004532
 50
180.4965922975839874
 51
259.7364865314542044
  0
ARC
  5
BD05
  8
0
 10
3590.1538249902278039
 20
273.6716441682831942
 30
0.0
 40
0.4258616409147727
 50
259.7364865314542044
 51
271.2773940268049842
  0
ARC
  5
BD06
  8
0
 10
3590.1628345833978528
 20
273.2657322774953741
 30
0.0
 40
0.0198498199822425
 50
271.3974503616431093
 51
350.7269225763789109
  0
ARC
  5
BD07
  8
0
 10
3590.7179079586858279
 20
273.1844179420135106
 30
0.0
 40
0.5411506908875147
 50
169.2785411684677115
 51
171.7002914894513879
  0
ARC
  5
BD08
  8
0
 10
3590.1822443262071829
 20
273.2846066993453178
 30
0.0
 40
0.0039891770110532
 50
6.9688333676381831
 51
55.1199537884419684
  0
ARC
  5
BD09
  8
0
 10
3590.0270790648369257
 20
272.9937392254145152
 30
0.0
 40
0.3336281520185599
 50
61.8408603967225332
 51
83.0289526301318261
  0
ARC
  5
BD0A
  8
0
 10
3590.0669612654291996
 20
273.3097209551186779
 30
0.0
 40
0.0151923435606781
 50
87.7007165555763777
 51
107.3869443631948002
  0
ARC
  5
BD0B
  8
0
 10
3590.0628774266820074
 20
273.3224988334764021
 30
0.0
 40
0.0017797103722833
 50
104.8455822209767945
 51
174.0271293034969915
  0
LINE
  5
BD0C
  8
0
 10
3589.844966922263211
 20
273.324337518776872
 30
0.0
 11
3589.8450807891058503
 21
273.2724558389410277
 31
0.0
  0
ARC
  5
BD0D
  8
0
 10
3589.8648292395359931
 20
273.2724991816720035
 30
0.0
 40
0.0197484979937418
 50
180.125749185793012
 51
256.6444271324160127
  0
ARC
  5
BD0E
  8
0
 10
3590.0009061314472092
 20
274.3587987799950838
 30
0.0
 40
1.1144238185404001
 50
262.7500243398200155
 51
267.1487462996606155
  0
ARC
  5
BD0F
  8
0
 10
3589.9463384513937854
 20
273.2655242839235825
 30
0.0
 40
0.0197887273331729
 50
267.4878687415080094
 51
348.5955156974089277
  0
LINE
  5
BD10
  8
0
 10
3589.9657364641930144
 20
273.2616113784956156
 30
0.0
 11
3589.9696431125630625
 21
273.2836713697769255
 31
0.0
  0
ARC
  5
BD11
  8
0
 10
3589.9686271802552255
 20
273.2835556876771079
 30
0.0
 40
0.0010224973364589
 50
6.4961714744467454
 51
48.6677307237204531
  0
ARC
  5
BD12
  8
0
 10
3589.7206585487488155
 20
272.7395713295634891
 30
0.0
 40
0.5988144068030824
 50
65.4663869828746954
 51
77.8075683770564268
  0
ARC
  5
BD13
  8
0
 10
3589.8469476834820853
 20
273.3210129034101215
 30
0.0
 40
0.003869946038883
 50
87.3654436520796054
 51
120.7859182964572966
  0
LINE
  5
BD14
  8
0
 10
3589.7716997105621886
 20
273.324901062415222
 30
0.0
 11
3589.7716996966628358
 21
273.2725893657769802
 31
0.0
  0
ARC
  5
BD15
  8
0
 10
3589.7913847303548209
 20
273.2725893605467036
 30
0.0
 40
0.0196850336921795
 50
179.9999847766817993
 51
265.0000152234072175
  0
LINE
  5
BD16
  8
0
 10
3589.7896690718339414
 20
273.2529792338949051
 30
0.0
 11
3589.8713911145619022
 21
273.2458295034757043
 31
0.0
  0
ARC
  5
BD17
  8
0
 10
3589.8731067794219598
 20
273.2654397025808066
 30
0.0
 40
0.0196851064223166
 50
265.0000152234072175
 51
309.9174360635647076
  0
ARC
  5
BD18
  8
0
 10
3592.843357925366945
 20
282.2759056374957254
 30
0.0
 40
9.4633803204694793
 50
251.059649525353592
 51
251.5283246831099007
  0
ARC
  5
BD19
  8
0
 10
3591.3903616508591767
 20
278.0190071665588789
 30
0.0
 40
4.9661225162771121
 50
253.3294165838082108
 51
259.189311862739487
  0
ARC
  5
BD1A
  8
0
 10
3591.296758471863086
 20
277.6714155522791998
 30
0.0
 40
4.6062992126022957
 50
261.0854208240988896
 51
263.0732540083806157
  0
ARC
  5
BD1B
  8
0
 10
3591.3161690693441415
 20
277.9250033978814827
 30
0.0
 40
4.8605625688510488
 50
264.3494231341334739
 51
266.8964042284331981
  0
LINE
  5
BD1C
  8
0
 10
3590.4093176972628498
 20
273.3200347247769741
 30
0.0
 11
3590.4102460393892216
 21
273.2714281540489196
 31
0.0
  0
ARC
  5
BD1D
  8
0
 10
3590.4304813939579617
 20
273.2718146312636236
 30
0.0
 40
0.0202390449185126
 50
181.0941652305702121
 51
261.5905286499877889
  0
ARC
  5
BD1E
  8
0
 10
3590.4992088855751717
 20
273.7064877712425073
 30
0.0
 40
0.4603110254796161
 50
261.0404672337572265
 51
271.8704397753407989
  0
ARC
  5
BD1F
  8
0
 10
3590.5112776853297873
 20
273.2664073849929878
 30
0.0
 40
0.0202027380674759
 50
278.4122145504106811
 51
350.7284112529420099
  0
LINE
  5
BD20
  8
0
 10
3590.5312164893630325
 20
273.2631524319770051
 30
0.0
 11
3590.5349959484528881
 21
273.2872313506721866
 31
0.0
  0
ARC
  5
BD21
  8
0
 10
3590.5315407341331593
 20
273.2877883612172809
 30
0.0
 40
0.003499823817638
 50
350.8422070643202915
 51
33.6029030273667288
  0
ARC
  5
BD22
  8
0
 10
3590.4988560481388049
 20
273.2559760498543255
 30
0.0
 40
0.0490545292514108
 50
43.4715420005867017
 51
68.5781649759449152
  0
ARC
  5
BD23
  8
0
 10
3590.4024080730500827
 20
273.0435449091007172
 30
0.0
 40
0.2822997485122791
 50
66.1015828012121602
 51
84.8417734454211541
  0
ARC
  5
BD24
  8
0
 10
3590.4233471215497957
 20
273.2835560667660957
 30
0.0
 40
0.0413843678664941
 50
83.8389348844115858
 51
105.1352401564522978
  0
ARC
  5
BD25
  8
0
 10
3590.415538968148212
 20
273.3174874975761099
 30
0.0
 40
0.0067225425133688
 50
116.4776227433713984
 51
157.7339229497073916
  0
LINE
  5
BD26
  8
0
 10
3590.8721859448628493
 20
273.3165473724769754
 30
0.0
 11
3590.8737022208629242
 21
273.2705828486770088
 31
0.0
  0
ARC
  5
BD27
  8
0
 10
3590.8939897467830633
 20
273.271252092826785
 30
0.0
 40
0.0202985614195774
 50
181.889385893575195
 51
257.7493794033781001
  0
ARC
  5
BD28
  8
0
 10
3590.9549198810859707
 20
273.6388783854682174
 30
0.0
 40
0.3929162630654414
 50
260.4427238902230783
 51
273.0622946684089811
  0
ARC
  5
BD29
  8
0
 10
3590.9742774229530369
 20
273.2672089690940993
 30
0.0
 40
0.0207501127304314
 50
274.5129370305111252
 51
351.0431207429418237
  0
LINE
  5
BD2A
  8
0
 10
3590.994774343762856
 20
273.2639785715770131
 30
0.0
 11
3590.9985660864631427
 21
273.2905084775770206
 31
0.0
  0
ARC
  5
BD2B
  8
0
 10
3590.9820370290190112
 20
273.2860697623339092
 30
0.0
 40
0.0171146701104116
 50
15.03158551498381
 51
67.0252645678710763
  0
ARC
  5
BD2C
  8
0
 10
3590.8954942365999159
 20
273.1199755993500844
 30
0.0
 40
0.2043536605772474
 50
62.8587933529326293
 51
93.2595071697462572
  0
ARC
  5
BD2D
  8
0
 10
3590.8853048942360147
 20
273.3088614285060203
 30
0.0
 40
0.0152046232229787
 50
95.3962484028035647
 51
149.6354206237566018
  0
LINE
  5
BD2E
  8
0
 10
3591.1685302770629278
 20
273.1560439002769272
 30
0.0
 11
3591.1703877022628149
 21
273.1114443183769254
 31
0.0
  0
ARC
  5
BD2F
  8
0
 10
3591.190410921046805
 20
273.1122782192695126
 30
0.0
 40
0.0200405758699129
 50
182.3848017402634127
 51
256.7334204161492721
  0
ARC
  5
BD30
  8
0
 10
3591.2499948535751173
 20
273.5335691013316932
 30
0.0
 40
0.445444849950902
 50
261.7155775752568161
 51
273.2242595982535249
  0
ARC
  5
BD31
  8
0
 10
3591.2722884563031585
 20
273.1079680166236017
 30
0.0
 40
0.0193366459527888
 50
278.206416757347597
 51
353.853630957290477
  0
LINE
  5
BD32
  8
0
 10
3591.2915139478632227
 20
273.1058976661768725
 30
0.0
 11
3591.2960911431628119
 21
273.1400708576769034
 31
0.0
  0
ARC
  5
BD33
  8
0
 10
3591.2890637632690414
 20
273.136902437256424
 30
0.0
 40
0.0077086286810129
 50
24.2690876495326791
 51
73.9855046537113026
  0
ARC
  5
BD34
  8
0
 10
3591.1881818338401899
 20
272.8226415694969091
 30
0.0
 40
0.3377611240306677
 50
72.243359516118332
 51
90.2941553419343563
  0
ARC
  5
BD35
  8
0
 10
3591.1849915194361529
 20
273.1110813110216782
 30
0.0
 40
0.0493384272820519
 50
88.3086232682382075
 51
106.8024782598633067
  0
ARC
  5
BD36
  8
0
 10
3591.1714446134919854
 20
273.155420158957611
 30
0.0
 40
0.0029803372382809
 50
103.8911029431582023
 51
167.9195169602992905
  0
LINE
  5
BD37
  8
0
 10
3591.4265559568630124
 20
273.312420722277011
 30
0.0
 11
3591.4286826846628173
 21
273.2695722634769027
 31
0.0
  0
ARC
  5
BD38
  8
0
 10
3591.4490395022639859
 20
273.2705826477737219
 30
0.0
 40
0.0203818767347033
 50
182.8414700723793089
 51
256.0317662483147956
  0
ARC
  5
BD39
  8
0
 10
3591.4977305826600968
 20
273.5454220644994052
 30
0.0
 40
0.2994565900537902
 50
259.6868857558291097
 51
277.4604066468083943
  0
ARC
  5
BD3A
  8
0
 10
3591.5296844145218529
 20
273.267619494905091
 30
0.0
 40
0.0203355563116286
 50
289.918325207270982
 51
352.521894619930606
  0
LINE
  5
BD3B
  8
0
 10
3591.5498470101629209
 20
273.2649728767776196
 30
0.0
 11
3591.5535454436630971
 21
273.294292510077014
 31
0.0
  0
ARC
  5
BD3C
  8
0
 10
3591.5475026912699832
 20
273.2950547609427758
 30
0.0
 40
0.0060906389540154
 50
352.8105116568056019
 51
32.9721285345551109
  0
ARC
  5
BD3D
  8
0
 10
3591.5332584622628929
 20
273.2858142986514167
 30
0.0
 40
0.0230695730589158
 50
32.9721285345581805
 51
62.0622416076103534
  0
ARC
  5
BD3E
  8
0
 10
3591.4752541636130445
 20
273.1764376031429151
 30
0.0
 40
0.1468749048598809
 50
62.0622416076103534
 51
80.0573822731309264
  0
ARC
  5
BD3F
  8
0
 10
3591.4592414038061179
 20
273.0850898515540734
 30
0.0
 40
0.2396155119149649
 50
80.0573822731309264
 51
91.0496258584057188
  0
ARC
  5
BD40
  8
0
 10
3591.4558997316289606
 20
273.2674808357389793
 30
0.0
 40
0.0571939181140544
 50
91.0496258584057188
 51
116.7462681751514992
  0
ARC
  5
BD41
  8
0
 10
3591.4331140180261173
 20
273.3126939440310821
 30
0.0
 40
0.0065637501732293
 50
116.7453029348591969
 51
182.3856754565979941
  0
LINE
  5
BD42
  8
0
 10
3591.7267126380629634
 20
273.1530002781768758
 30
0.0
 11
3591.7292019941628496
 21
273.1104247181770006
 31
0.0
  0
ARC
  5
BD43
  8
0
 10
3591.7495033992909157
 20
273.1116117237430103
 30
0.0
 40
0.0203360771139966
 50
183.3462248704614979
 51
262.4295302557565037
  0
ARC
  5
BD44
  8
0
 10
3591.8001353554827801
 20
273.4925782573827746
 30
0.0
 40
0.4046524763755305
 50
262.4295302557565037
 51
274.7199053869933891
  0
ARC
  5
BD45
  8
0
 10
3591.8301278229760101
 20
273.1094659919771175
 30
0.0
 40
0.0204368653326927
 50
279.3045023656111994
 51
352.7983212145812217
  0
LINE
  5
BD46
  8
0
 10
3591.8504035112750898
 20
273.1069044000498138
 30
0.0
 11
3591.8546111636628666
 21
273.1428631491770034
 31
0.0
  0
ARC
  5
BD47
  8
0
 10
3591.8523696938132161
 20
273.1431254309914038
 30
0.0
 40
0.0022567629119254
 50
353.3259810373078267
 51
48.668895614907008
  0
ARC
  5
BD48
  8
0
 10
3591.8370385030079888
 20
273.1256933975714105
 30
0.0
 40
0.0254714393180729
 50
48.668895614908358
 51
79.0956541063223426
  0
ARC
  5
BD49
  8
0
 10
3591.7679188645352042
 20
272.8729606446548246
 30
0.0
 40
0.2874173415600052
 50
75.0930595203829938
 51
87.9925584089527035
  0
ARC
  5
BD4A
  8
0
 10
3591.7655136740982016
 20
272.9444793982733017
 30
0.0
 40
0.2160825003300582
 50
86.6907998922255416
 51
96.5740609537239436
  0
ARC
  5
BD4B
  8
0
 10
3591.7506940201419638
 20
273.098402066862775
 30
0.0
 40
0.0615436192347283
 50
99.2748970229401948
 51
110.3960205188535042
  0
ARC
  5
BD4C
  8
0
 10
3591.7306276840999999
 20
273.1523705504375812
 30
0.0
 40
0.003965367599483
 50
110.397325897277895
 51
170.8623683207439115
  0
LINE
  5
BD4D
  8
0
 10
3592.0450134020861697
 20
273.3104712126615823
 30
0.0
 11
3592.0473650014419036
 21
273.2684522210358864
 31
0.0
  0
ARC
  5
BD4E
  8
0
 10
3592.0674202346540369
 20
273.2695746152601259
 30
0.0
 40
0.0200866161405402
 50
183.203225665362794
 51
255.6855838074392864
  0
ARC
  5
BD4F
  8
0
 10
3592.1129397334480018
 20
273.5434846625814771
 30
0.0
 40
0.2976853318220824
 50
260.235761533205789
 51
277.8510739122457949
  0
ARC
  5
BD50
  8
0
 10
3592.1480933216457743
 20
273.2684799701290217
 30
0.0
 40
0.0206393165025615
 50
285.4833420856078874
 51
353.341707616417807
  0
ARC
  5
BD51
  8
0
 10
1829.7063974729210258
 20
462.6692284717648818
 30
0.0
 40
1772.6100931192779626
 50
353.8662445561038794
 51
353.8673011689157875
  0
ARC
  5
BD52
  8
0
 10
3592.1653503066540907
 20
273.2996186732279966
 30
0.0
 40
0.0068139063327143
 50
351.3097476610021204
 51
46.2823324527139519
  0
ARC
  5
BD53
  8
0
 10
3592.1347937243717752
 20
273.2676627701483199
 30
0.0
 40
0.0510279817209172
 50
46.2823324527139519
 51
73.4533469283190072
  0
ARC
  5
BD54
  8
0
 10
3592.094957298395002
 20
273.1335782664336875
 30
0.0
 40
0.1909050526474371
 50
73.4533469283190072
 51
98.3612972685411222
  0
ARC
  5
BD55
  8
0
 10
3592.0737704453331389
 20
273.2777290710039892
 30
0.0
 40
0.0452055770103981
 50
98.3612972685410654
 51
122.0516971154280981
  0
ARC
  5
BD56
  8
0
 10
3592.0562865511260497
 20
273.3056530540891913
 30
0.0
 40
0.0122596305525956
 50
122.0516971154300023
 51
156.8580735351582973
  0
LINE
  5
BD57
  8
0
 10
3592.3634466189628256
 20
273.1495932806769815
 30
0.0
 11
3592.3665792872639031
 21
273.1092636908770146
 31
0.0
  0
ARC
  5
BD58
  8
0
 10
3592.3868693972040091
 20
273.1108397590821824
 30
0.0
 40
0.0203512297516839
 50
184.4416266771750941
 51
261.4385427264979853
  0
ARC
  5
BD59
  8
0
 10
3592.4310156189958434
 20
273.479071438232495
 30
0.0
 40
0.3912110050955792
 50
263.0738784091860225
 51
275.7072320652741837
  0
ARC
  5
BD5A
  8
0
 10
3592.4672781563140234
 20
273.1102995389355215
 30
0.0
 40
0.0206693765601787
 50
277.3425677479601745
 51
353.7716542514763773
  0
ARC
  5
BD5B
  8
0
 10
3590.8026943259360451
 20
273.2919644886289916
 30
0.0
 40
1.695136898581256
 50
353.7716542514763773
 51
355.0643307986197783
  0
ARC
  5
BD5C
  8
0
 10
3592.4878814376470473
 20
273.146031863969597
 30
0.0
 40
0.0036651484845571
 50
1.3731798496153651
 51
55.0248252743264317
  0
ARC
  5
BD5D
  8
0
 10
3592.4480799149800987
 20
273.0631271518788026
 30
0.0
 40
0.095582373306017
 50
63.998726260468672
 51
86.410656093194703
  0
ARC
  5
BD5E
  8
0
 10
3592.4207275353760451
 20
272.885810582645604
 30
0.0
 40
0.2747414104229173
 50
83.030727783751928
 51
98.8748153394716667
  0
ARC
  5
BD5F
  8
0
 10
3592.3841498995197981
 20
273.1202672681702097
 30
0.0
 40
0.0374486511068997
 50
98.9227724948040361
 51
120.4134707286320065
  0
ARC
  5
BD60
  8
0
 10
3592.3678085724718585
 20
273.1490271331983877
 30
0.0
 40
0.0043985408239532
 50
126.5031761154890972
 51
172.6047971986371863
  0
LINE
  5
BD61
  8
0
 10
3592.8231737164628612
 20
273.3031951088768778
 30
0.0
 11
3592.8200180541111877
 21
273.2672652235696091
 31
0.0
  0
ARC
  5
BD62
  8
0
 10
3592.7994589400841505
 20
273.2690708965233171
 30
0.0
 40
0.0206382563307427
 50
278.9805709718718276
 51
354.9806861099668822
  0
ARC
  5
BD63
  8
0
 10
3592.7599010471271868
 20
273.5193789258048014
 30
0.0
 40
0.2740528108022637
 50
260.4696851023896897
 51
278.9805709718718276
  0
ARC
  5
BD64
  8
0
 10
3592.7176544178578297
 20
273.2677409918075
 30
0.0
 40
0.0188931989688198
 50
181.4439285921444025
 51
260.4696851023895192
  0
ARC
  5
BD65
  8
0
 10
3562.4497144021770509
 20
270.6287329070215719
 30
0.0
 40
30.3639102783081682
 50
4.9851173288279131
 51
5.0531787144885891
  0
ARC
  5
BD66
  8
0
 10
3592.702971501058073
 20
273.3043080894636887
 30
0.0
 40
0.0074435065598859
 50
120.885225057576605
 51
188.5943674511881909
  0
ARC
  5
BD67
  8
0
 10
3592.7486953532929874
 20
273.2278643711978816
 30
0.0
 40
0.0965182657545797
 50
92.8547332183244265
 51
120.885225057576605
  0
ARC
  5
BD68
  8
0
 10
3592.7592303722740326
 20
273.1471359920901136
 30
0.0
 40
0.1777900564851357
 50
78.732853150105754
 51
94.9503705146019428
  0
ARC
  5
BD69
  8
0
 10
3592.784181622541837
 20
273.2608876109352991
 30
0.0
 40
0.0613967818674873
 50
57.1901468675457494
 51
80.8284904463869651
  0
ARC
  5
BD6A
  8
0
 10
3592.810596094354878
 20
273.3018593724586935
 30
0.0
 40
0.0126483504721427
 50
6.0620578659598721
 51
57.1901468675501619
  0
LINE
  5
BD6B
  8
0
 10
3592.8235840467627895
 20
273.0759754276770082
 30
0.0
 11
3592.8200191995269961
 21
273.0352863109292798
 31
0.0
  0
ARC
  5
BD6C
  8
0
 10
3592.7999830882858987
 20
273.0370417109350001
 30
0.0
 40
0.0201128611299503
 50
277.3532764908363788
 51
354.9929978002666076
  0
ARC
  5
BD6D
  8
0
 10
3592.7592557669349844
 20
273.5064553427214946
 30
0.0
 40
0.4912731305108162
 50
265.0044059486543233
 51
275.0566924104654731
  0
ARC
  5
BD6E
  8
0
 10
3592.7190477450858452
 20
273.037144752377003
 30
0.0
 40
0.0202602581419878
 50
184.7294319406250906
 51
262.7078218682790975
  0
LINE
  5
BD6F
  8
0
 10
3592.6988564697830952
 20
273.0354742848799106
 30
0.0
 11
3592.6952046084229551
 21
273.0759377040051845
 31
0.0
  0
ARC
  5
BD70
  8
0
 10
3592.6956390602372267
 20
273.0759834410039275
 30
0.0
 40
0.0004368526647899
 50
125.5239890645032972
 51
186.0096880039789085
  0
ARC
  5
BD71
  8
0
 10
3592.7017351605959448
 20
273.0636372412361084
 30
0.0
 40
0.0142005589123033
 50
96.8476621753984546
 51
116.5616583643881938
  0
ARC
  5
BD72
  8
0
 10
3592.7536696159518215
 20
272.6103296015879209
 30
0.0
 40
0.4704733036572961
 50
89.3051885628450179
 51
96.5451691624085839
  0
ARC
  5
BD73
  8
0
 10
3592.7669046908899873
 20
272.6845955421292729
 30
0.0
 40
0.3962443226452381
 50
82.0038421224133742
 51
91.0888678051449432
  0
ARC
  5
BD74
  8
0
 10
3592.8212576481869291
 20
273.0740980678319261
 30
0.0
 40
0.0029894163849721
 50
38.9028763426765209
 51
75.1276836775660115
  0
LINE
  5
BD75
  8
0
 10
3592.8236178973629649
 20
273.0651163396768766
 30
0.0
 11
3592.8197050716648846
 21
273.020421676099204
 31
0.0
  0
ARC
  5
BD76
  8
0
 10
3592.8037701059488427
 20
273.0218167138589251
 30
0.0
 40
0.0159959139385243
 50
275.81274416870599
 51
354.9967567778195985
  0
ARC
  5
BD77
  8
0
 10
3592.7597876168188122
 20
273.4538603966702226
 30
0.0
 40
0.4502725575739266
 50
263.9447812268575717
 51
275.81274416870599
  0
ARC
  5
BD78
  8
0
 10
3592.7150475771090896
 20
273.0218965321683982
 30
0.0
 40
0.0160354122490417
 50
185.2777451728404969
 51
260.0968968530877987
  0
LINE
  5
BD79
  8
0
 10
3592.6990801469628423
 20
273.0204215336769948
 30
0.0
 11
3592.695167456362924
 21
273.0651163396768766
 31
0.0
  0
ARC
  5
BD7A
  8
0
 10
3592.7615033471970492
 20
274.507088083475594
 30
0.0
 40
0.5256349804812042
 50
35.1909756622434884
 51
50.6468258978607224
  0
ARC
  5
BD7B
  8
0
 10
3592.7585915740942255
 20
274.5073761754886732
 30
0.0
 40
0.5252405620729326
 50
129.3500727302146913
 51
144.8182790525002872
  0
ARC
  5
BD7C
  8
0
 10
3608.508214307768867
 20
258.3167063310925755
 30
0.0
 40
0.7874015748000005
 50
142.8605085420811918
 51
271.0327278878261836
  0
ARC
  5
BD7D
  8
0
 10
3608.508214307768867
 20
258.3167063310925755
 30
0.0
 40
0.7874015748000005
 50
309.2209122220834274
 51
84.868985203188771
  0
LINE
  5
BD7E
  8
0
 10
3607.8644671989691233
 20
258.7697731433926265
 30
0.0
 11
3607.8436380804191685
 21
258.8203435822044867
 31
0.0
  0
ARC
  5
BD7F
  8
0
 10
3607.8546088639650407
 20
258.8248622645900241
 30
0.0
 40
0.0118649307679467
 50
104.4235668597737003
 51
202.385944037184089
  0
LINE
  5
BD80
  8
0
 10
3607.8516534489690457
 20
258.8363532220926118
 30
0.0
 11
3608.6771465224028361
 21
259.1368081295739216
 31
0.0
  0
ARC
  5
BD81
  8
0
 10
3608.6822472097210266
 20
259.126055987358427
 30
0.0
 40
0.0119006541318472
 50
17.8113869620946801
 51
115.3791018373186006
  0
LINE
  5
BD82
  8
0
 10
3608.6935774490812037
 20
259.1296962132850012
 30
0.0
 11
3608.7100542660991778
 21
259.0777988821130862
 31
0.0
  0
ARC
  5
BD83
  8
0
 10
3607.8927104472809333
 20
258.7826916511251056
 30
0.0
 40
0.0154001352706089
 50
11.5542728285543408
 51
142.3152655148194867
  0
LINE
  5
BD84
  8
0
 10
3607.9077985052131226
 20
258.7857762376706887
 30
0.0
 11
3608.3525678048081318
 21
257.5639519993071076
 31
0.0
  0
ARC
  5
BD85
  8
0
 10
3608.4498504381222119
 20
257.6841928426870254
 30
0.0
 40
0.154666645277295
 50
231.0248973575268963
 51
253.3098727673151132
  0
ARC
  5
BD86
  8
0
 10
3608.9034821676559659
 20
257.8862585862510741
 30
0.0
 40
0.2128873991257447
 50
332.9989040112459975
 51
347.4805382929282018
  0
LINE
  5
BD87
  8
0
 10
3609.1113076221849951
 20
257.8401107247219102
 30
0.0
 11
3608.6638608814228064
 21
259.0694605681130156
 31
0.0
  0
ARC
  5
BD88
  8
0
 10
3608.6790853378402062
 20
259.0698044178391228
 30
0.0
 40
0.0152283789271646
 50
82.6120343022294747
 51
181.2934877155535958
  0
LINE
  5
BD89
  8
0
 10
3608.1004449889051102
 20
258.256557734001774
 30
0.0
 11
3608.8592156730392162
 21
258.5327276776924919
 31
0.0
  0
LINE
  5
BD8A
  8
0
 10
3608.8794137126142232
 20
258.477234018834281
 30
0.0
 11
3608.1206455011438266
 21
258.2010649751634901
 31
0.0
  0
LINE
  5
BD8B
  8
0
 10
3608.2889831032211987
 20
257.7386253179437858
 30
0.0
 11
3609.0477307090600334
 21
258.0147868617311815
 31
0.0
  0
LINE
  5
BD8C
  8
0
 10
3608.9458290783850316
 20
257.9776977013498822
 30
0.0
 11
3608.980165746369039
 21
257.8833584815926088
 31
0.0
  0
LINE
  5
BD8D
  8
0
 10
3608.980165746369039
 20
257.8833584815926088
 30
0.0
 11
3608.4252300005691723
 21
257.681378388192627
 31
0.0
  0
LINE
  5
BD8E
  8
0
 10
3608.4252300005691723
 20
257.681378388192627
 30
0.0
 11
3608.3908924913621377
 21
257.7757173018115964
 31
0.0
  0
LINE
  5
BD8F
  8
0
 10
3608.4475312560912243
 20
258.0058159397652275
 30
0.0
 11
3608.754540747070223
 21
258.1175582560925932
 31
0.0
  0
LINE
  5
BD90
  8
0
 10
3608.754540747070223
 20
258.1175582560925932
 30
0.0
 11
3608.7946985354951721
 21
257.9528332281847156
 31
0.0
  0
ARC
  5
BD91
  8
0
 10
3608.7696300178431557
 20
257.9520852804241144
 30
0.0
 40
0.0250796731058171
 50
307.2536979252633955
 51
1.7089778161590921
  0
ARC
  5
BD92
  8
0
 10
3608.6130157851371223
 20
258.1610619399705229
 30
0.0
 40
0.2862289871026847
 50
291.4693388094361808
 51
306.8845879293680809
  0
LINE
  5
BD93
  8
0
 10
3608.447527222869212
 20
258.0058144717925757
 30
0.0
 11
3608.5226673024731099
 21
257.8537867528297056
 31
0.0
  0
ARC
  5
BD94
  8
0
 10
3608.5408229232771191
 20
257.8671309928432152
 30
0.0
 40
0.022532095071126
 50
216.3155969561454981
 51
269.0346048485117194
  0
ARC
  5
BD95
  8
0
 10
3608.526376287254152
 20
258.1527286082372825
 30
0.0
 40
0.3084474477965594
 50
272.6139285174933207
 51
286.7018397533219058
  0
LINE
  5
BD96
  8
0
 10
3609.0380521169640815
 20
258.0413785755458207
 30
0.0
 11
3608.7946993499781456
 21
257.9528054119383
 31
0.0
  0
LINE
  5
BD97
  8
0
 10
3608.5226643320597759
 20
257.8537927627401132
 30
0.0
 11
3608.2793033262728386
 21
257.7652166004538117
 31
0.0
  0
LINE
  5
BD98
  8
0
 10
3607.9255371424687837
 20
257.7617775291926137
 30
0.0
 11
3607.9255371424687837
 21
257.7112385519861846
 31
0.0
  0
ARC
  5
BD99
  8
0
 10
3607.9451020080609851
 20
257.7112385519861846
 30
0.0
 40
0.0195648655914909
 50
180.0000000000065086
 51
223.809521868772805
  0
ARC
  5
BD9A
  8
0
 10
3608.5081197023250752
 20
258.3162080170656054
 30
0.0
 40
0.8459583841628994
 50
226.9819986523708053
 51
270.0064075169036073
  0
ARC
  5
BD9B
  8
0
 10
3608.5056794231140884
 20
258.5451175263480081
 30
0.0
 40
1.074870877188455
 50
270.1351216504618833
 51
272.057753067381725
  0
LINE
  5
BD9C
  8
0
 10
3608.4607632400679904
 20
257.6943114296926183
 30
0.0
 11
3608.6667281295690373
 21
257.1434080564926035
 31
0.0
  0
LINE
  5
BD9D
  8
0
 10
3608.9448489901778885
 20
257.870504233568397
 30
0.0
 11
3609.1506346081691845
 21
257.3201351570925794
 31
0.0
  0
ARC
  5
BD9E
  8
0
 10
3608.5082143102749797
 20
258.3757614524006954
 30
0.0
 40
0.8464566969675718
 50
226.4986163591088939
 51
234.451255989015209
  0
ARC
  5
BD9F
  8
0
 10
3608.5043864971858056
 20
258.3704047018454162
 30
0.0
 40
0.8398728584549745
 50
234.451255989015209
 51
261.5725971195047919
  0
LINE
  5
BDA0
  8
0
 10
3607.959001709369204
 20
257.7526948820926123
 30
0.0
 11
3607.959001709369204
 21
257.7316694878128942
 31
0.0
  0
ARC
  5
BDA1
  8
0
 10
3608.297546790583965
 20
258.6272181959511727
 30
0.0
 40
1.1740457116589369
 50
307.4004488045544008
 51
312.5113130365244274
  0
LINE
  5
BDA2
  8
0
 10
3609.0908914731689947
 20
257.7617775291926137
 30
0.0
 11
3609.0908914731689947
 21
257.7112385537795944
 31
0.0
  0
ARC
  5
BDA3
  8
0
 10
3609.0712064249560171
 20
257.7112385537795944
 30
0.0
 40
0.0196850482132973
 50
319.7643603169959192
 51
0.0000000000048853
  0
ARC
  5
BDA4
  8
0
 10
3608.5467992749681798
 20
258.2693199688554841
 30
0.0
 40
0.7853651934520837
 50
307.7717441122126161
 51
313.3819280960996139
  0
LINE
  5
BDA5
  8
0
 10
3609.0574269061689847
 20
257.7322514127664022
 30
0.0
 11
3609.0574269061689847
 21
257.7524663451325182
 31
0.0
  0
LINE
  5
BDA6
  8
0
 10
3608.6367963534689807
 20
259.2819233736926208
 30
0.0
 11
3607.8094905548691713
 21
258.9521948214925828
 31
0.0
  0
LINE
  5
BDA7
  8
0
 10
3607.8094905548691713
 20
258.9521948214925828
 30
0.0
 11
3607.8516534489690457
 21
258.8363532220926118
 31
0.0
  0
LINE
  5
BDA8
  8
0
 10
3608.6258153377521012
 20
259.2775468125468024
 30
0.0
 11
3608.6770524865310108
 21
259.1367739033153725
 31
0.0
  0
ARC
  5
BDA9
  8
0
 10
3608.50941430210014
 20
258.3195903297323071
 30
0.0
 40
0.8433941169948326
 50
46.8487470873264371
 51
78.7815680593788557
  0
ARC
  5
BDAA
  8
0
 10
3609.0701467896901704
 20
258.9217859696669848
 30
0.0
 40
0.0207483142506289
 50
358.9281055384641945
 51
39.1631228834036094
  0
LINE
  5
BDAB
  8
0
 10
3609.0908914731689947
 20
258.9213978310285142
 30
0.0
 11
3609.0908914695728527
 21
258.8716351362888872
 31
0.0
  0
ARC
  5
BDAC
  8
0
 10
3608.508214307768867
 20
258.2576512129925845
 30
0.0
 40
0.8464566928999792
 50
46.4986166578958873
 51
76.2498247359946788
  0
LINE
  5
BDAD
  8
0
 10
3609.0574269061689847
 20
258.8808828928926005
 30
0.0
 11
3609.0574269061689847
 21
258.9017431743723137
 31
0.0
  0
LINE
  5
BDAE
  8
0
 10
3608.6367963534689807
 20
259.2819233736926208
 30
0.0
 11
3608.684126588064828
 21
259.3207151756653275
 31
0.0
  0
ARC
  5
BDAF
  8
0
 10
3608.6476711342720591
 20
259.365194810345713
 30
0.0
 40
0.0575103296161369
 50
309.3380038742087095
 51
23.0660383982086614
  0
ARC
  5
BDB0
  8
0
 10
3599.7816269430481952
 20
255.789289024419304
 30
0.0
 40
9.6175124301500698
 50
21.9720802479549917
 51
33.7502401363439901
  0
ARC
  5
BDB1
  8
0
 10
3601.7816256192581932
 20
257.1189651707375106
 30
0.0
 40
7.2158479886076288
 50
33.7944236646118412
 51
54.3861666673566688
  0
ARC
  5
BDB2
  8
0
 10
3591.7411980880201554
 20
242.243561129420101
 30
0.0
 40
25.1606576160217017
 50
55.5243083458744024
 51
57.1087629295389618
  0
ARC
  5
BDB3
  8
0
 10
3599.581518518332814
 20
254.0205326444524871
 30
0.0
 40
11.0154514111810204
 50
58.0872064702307966
 51
63.6173554674866395
  0
ARC
  5
BDB4
  8
0
 10
3599.910166884265891
 20
254.6623429088380135
 30
0.0
 40
10.2944526744710494
 50
63.6686777675416522
 51
69.4532152471853976
  0
ARC
  5
BDB5
  8
0
 10
3600.1756661557201369
 20
255.3754656968446
 30
0.0
 40
9.5335118494425153
 50
69.4431400396727554
 51
79.7540665069799246
  0
ARC
  5
BDB6
  8
0
 10
3601.8481376427698706
 20
264.7010070186839243
 30
0.0
 40
0.0592117668194395
 50
77.6351260582820828
 51
152.9551712152752998
  0
ARC
  5
BDB7
  8
0
 10
3601.7572446313160981
 20
264.1761894883114792
 30
0.0
 40
0.5918784652659336
 50
78.8770158071738763
 51
79.9219630911574939
  0
LINE
  5
BDB8
  8
0
 10
3601.7954006207851307
 20
264.7279298684968012
 30
0.0
 11
3601.5389633956688158
 21
264.2247336468926164
 31
0.0
  0
ARC
  5
BDB9
  8
0
 10
3601.5915879017179577
 20
264.197920121798802
 30
0.0
 40
0.0590618638790887
 50
153.0000000046144066
 51
244.9925900096660882
  0
ARC
  5
BDBA
  8
0
 10
2729.4463716686677799
 20
-1608.0092723891550577
 30
0.0
 40
2065.3215446879307819
 50
64.928189501439121
 51
65.0221090124133951
  0
ARC
  5
BDBB
  8
0
 10
3601.3398231840928929
 20
257.1736710924391787
 30
0.0
 40
6.4443688758755497
 50
46.2264842450401616
 51
59.2551110107135273
  0
ARC
  5
BDBC
  8
0
 10
3600.7626167921921478
 20
256.493159559404603
 30
0.0
 40
7.335268285200228
 50
33.5584492745415588
 51
46.6482436626885999
  0
ARC
  5
BDBD
  8
0
 10
3600.7885338123692236
 20
256.5136510274601847
 30
0.0
 40
7.302344146127516
 50
20.5488194820661292
 51
33.5368769104050628
  0
ARC
  5
BDBE
  8
0
 10
3610.2765493506540224
 20
260.4669239635319968
 30
0.0
 40
2.992736007454206
 50
207.6775468200874002
 51
209.9887213072128986
  0
ARC
  5
BDBF
  8
0
 10
3607.7317186281329668
 20
259.0055485593608182
 30
0.0
 40
0.0584937683072604
 50
216.1218989226964027
 51
272.7965301913637859
  0
ARC
  5
BDC0
  8
0
 10
3607.6665790991642098
 20
260.5077887746197121
 30
0.0
 40
1.562144753592716
 50
272.4946253194765973
 51
275.248993826137621
  0
LINE
  5
BDC1
  8
0
 10
3601.7954318808360767
 20
264.7279910137347088
 30
0.0
 11
3604.5843442373688958
 21
263.4443249803925937
 31
0.0
  0
ARC
  5
BDC2
  8
0
 10
3603.6539400783940437
 20
261.4229147474059118
 30
0.0
 40
2.2252530707902829
 50
58.3656784993850692
 51
65.2845767562066328
  0
ARC
  5
BDC3
  8
0
 10
3606.6722061543741802
 20
267.9790237531266257
 30
0.0
 40
5.015601845121898
 50
248.3414621294147082
 51
261.5834178449493947
  0
LINE
  5
BDC4
  8
0
 10
3604.8210896945679451
 20
263.3175218696925981
 30
0.0
 11
3604.5722362289448029
 21
262.8102686725081867
 31
0.0
  0
ARC
  5
BDC5
  8
0
 10
3604.513264108266867
 20
262.8403541707594968
 30
0.0
 40
0.0662030831779874
 50
257.113814639296379
 51
332.9709270438390831
  0
ARC
  5
BDC6
  8
0
 10
3596.0791895192269294
 20
252.1313885281041109
 30
0.0
 40
14.0636328270136808
 50
10.8625455537341793
 51
21.6507410565871901
  0
ARC
  5
BDC7
  8
0
 10
3595.2112394276778105
 20
251.9648360332959953
 30
0.0
 40
14.94741848821565
 50
358.3183607251258991
 51
10.8625455537341793
  0
ARC
  5
BDC8
  8
0
 10
3560.2854940352049198
 20
252.9902060715868117
 30
0.0
 40
49.8882123391752614
 50
353.9200928532798116
 51
358.3183607251258991
  0
ARC
  5
BDC9
  8
0
 10
3673.407952289631794
 20
240.2129640790134886
 30
0.0
 40
63.9553528317872377
 50
173.2714988677753922
 51
178.6350481777811012
  0
ARC
  5
BDCA
  8
0
 10
3670.1205269208758182
 20
241.5403170646872866
 30
0.0
 40
60.6500970497988021
 50
179.8147403787789926
 51
184.3755169787631871
  0
ARC
  5
BDCB
  8
0
 10
3596.2921917351118282
 20
252.195544849479802
 30
0.0
 40
13.3270589888783508
 50
5.9145893716196802
 51
21.7936202539238302
  0
ARC
  5
BDCC
  8
0
 10
3591.1855041775697828
 20
251.6665057759659021
 30
0.0
 40
18.4610769233679193
 50
355.3486675754832049
 51
5.9145893716196802
  0
ARC
  5
BDCD
  8
0
 10
3399.8314931471750242
 20
267.2350440835032259
 30
0.0
 40
210.4473705030235919
 50
354.2953340673964817
 51
355.3486675754832049
  0
ARC
  5
BDCE
  8
0
 10
3677.6745970128072258
 20
239.4797634814877938
 30
0.0
 40
68.7786060231315162
 50
174.2953340673965101
 51
176.8434647451838941
  0
ARC
  5
BDCF
  8
0
 10
3696.2028220697079632
 20
243.0235172242157944
 30
0.0
 40
87.2862916667428408
 50
182.5110016474783947
 51
184.6102727403485915
  0
ARC
  5
BDD0
  8
0
 10
3795.6176303964848557
 20
251.0401828202444108
 30
0.0
 40
187.0238023732383965
 50
184.6102727403485915
 51
185.7295226582295129
  0
ARC
  5
BDD1
  8
0
 10
3594.4782698849921871
 20
230.8591271027187872
 30
0.0
 40
15.1254428809702901
 50
1.7982169592768911
 51
5.729522658229552
  0
ARC
  5
BDD2
  8
0
 10
3609.8512267086198335
 20
231.3417628563605888
 30
0.0
 40
0.2550882792929033
 50
181.7982169592752086
 51
251.3504554005018008
  0
ARC
  5
BDD3
  8
0
 10
3726.5196787022919125
 20
245.3211969138504003
 30
0.0
 40
117.1745371469237966
 50
184.1148914514733121
 51
185.1781637401304863
  0
ARC
  5
BDD4
  8
0
 10
5940.7814615473953381
 20
445.9839577910354933
 30
0.0
 40
2340.5100463697731357
 50
185.1781637401304863
 51
185.2536915842655958
  0
ARC
  5
BDD5
  8
0
 10
3601.2374502615361962
 20
231.2778517138602865
 30
0.0
 40
8.87519310963477
 50
0.3843277191167438
 51
2.5539651579982059
  0
ARC
  5
BDD6
  8
0
 10
3609.8323436233208668
 20
231.3487095295317033
 30
0.0
 40
0.2803289497921382
 50
341.6119950638920955
 51
357.684601292849095
  0
ARC
  5
BDD7
  8
0
 10
3609.8579613729489211
 20
231.3401935947076993
 30
0.0
 40
0.2533328344809548
 50
292.6738501148975047
 51
341.6119950638920955
  0
ARC
  5
BDD8
  8
0
 10
3609.8542109739801163
 20
231.3491707183297024
 30
0.0
 40
0.2630618755921626
 50
251.250550762860513
 51
292.6738501148975047
  0
LINE
  5
BDD9
  8
0
 10
3610.1044485116690339
 20
234.7458401892926076
 30
0.0
 11
3610.1044485116690339
 21
231.6591583692585061
 31
0.0
  0
ARC
  5
BDDA
  8
0
 10
3580.2190498340028171
 20
235.3158194850659868
 30
0.0
 40
28.6210481373930108
 50
354.7392162911070272
 51
357.991692540605527
  0
ARC
  5
BDDB
  8
0
 10
3614.1989313871940794
 20
232.1870574893096943
 30
0.0
 40
5.50257274309023
 50
174.7392162911069988
 51
193.2865532442689016
  0
ARC
  5
BDDC
  8
0
 10
3633.2939614092260854
 20
241.8441286449240124
 30
0.0
 40
26.7787409746131218
 50
204.0697768547807982
 51
209.5678198746529119
  0
ARC
  5
BDDD
  8
0
 10
3605.7272199348749382
 20
226.6461313630263135
 30
0.0
 40
4.713226433518682
 50
1.872732445997574
 51
24.8932772092401393
  0
ARC
  5
BDDE
  8
0
 10
3579.766036242636801
 20
235.2953738482825088
 30
0.0
 40
28.435749601535349
 50
354.6383853051830783
 51
358.0197356086666218
  0
ARC
  5
BDDF
  8
0
 10
3613.6645403137431458
 20
232.113933560253713
 30
0.0
 40
5.6117193288440399
 50
174.638385305183192
 51
191.9457514850894881
  0
ARC
  5
BDE0
  8
0
 10
3615.6507968920509484
 20
233.2851534731769902
 30
0.0
 40
7.831926517273005
 50
197.3287062269704109
 51
213.271997879385907
  0
ARC
  5
BDE1
  8
0
 10
3605.2710830480341428
 20
226.5629541672807932
 30
0.0
 40
4.5348002250171398
 50
2.7986924249439249
 51
32.3345582662682816
  0
ARC
  5
BDE2
  8
0
 10
3555.3860487815882152
 20
225.6370642123877985
 30
0.0
 40
50.8813233178776301
 50
355.2259633712658911
 51
358.270477735019881
  0
ARC
  5
BDE3
  8
0
 10
3626.944479519846027
 20
219.5175271927408005
 30
0.0
 40
20.9386409790025603
 50
174.8353043759767047
 51
181.2745827684327935
  0
ARC
  5
BDE4
  8
0
 10
3608.8536018029840307
 20
219.1148562509411022
 30
0.0
 40
2.8432824508267629
 50
181.2713407976978885
 51
193.8874889324245885
  0
ARC
  5
BDE5
  8
0
 10
3606.7169735903039509
 20
218.5865893248233931
 30
0.0
 40
0.6423176477349966
 50
193.8874889324245885
 51
205.146603459992491
  0
ARC
  5
BDE6
  8
0
 10
3606.2086846324941689
 20
218.34798503206531
 30
0.0
 40
0.0808110376630659
 50
205.1466034600005912
 51
318.053030247037384
  0
ARC
  5
BDE7
  8
0
 10
3604.1670222473321701
 20
221.3009194418121979
 30
0.0
 40
3.6686759586691409
 50
304.9523620410038234
 51
327.4791899668088035
  0
ARC
  5
BDE8
  8
0
 10
3594.4995434114180171
 20
228.0437911356466998
 30
0.0
 40
15.4529812580766297
 50
325.6685042095747917
 51
339.2526890958444028
  0
ARC
  5
BDE9
  8
0
 10
3596.6293961080141344
 20
227.4449210710666023
 30
0.0
 40
13.2505245710724893
 50
338.4118072172573193
 51
351.6672555192394043
  0
ARC
  5
BDEA
  8
0
 10
3452.756205832048181
 20
231.0638885269108016
 30
0.0
 40
153.0086932065277097
 50
355.9503397671256835
 51
357.3919197967406944
  0
ARC
  5
BDEB
  8
0
 10
3614.3557217170778131
 20
219.6229922374675994
 30
0.0
 40
8.9953118124279108
 50
175.9503397671255982
 51
184.0496602328742881
  0
ARC
  5
BDEC
  8
0
 10
3609.348167973461841
 20
219.2684682605191142
 30
0.0
 40
3.9752239899464552
 50
184.0496602328742881
 51
198.7192683242869862
  0
ARC
  5
BDED
  8
0
 10
3606.2925015390610497
 20
218.3650845446530013
 30
0.0
 40
0.8010929756884632
 50
207.7007467986578888
 51
241.4059197036760054
  0
ARC
  5
BDEE
  8
0
 10
3606.1716775203808538
 20
218.4976834654181914
 30
0.0
 40
0.8762524699777529
 50
252.5626674680339079
 51
303.8906153903201925
  0
ARC
  5
BDEF
  8
0
 10
3602.131297511259163
 20
223.1989900950732988
 30
0.0
 40
7.0698203822201728
 50
309.8372021974652171
 51
332.4631779730672179
  0
ARC
  5
BDF0
  8
0
 10
3593.3253143746778733
 20
228.5686557865562918
 30
0.0
 40
17.3744182379265091
 50
330.1865406414884205
 51
342.9158945013280118
  0
ARC
  5
BDF1
  8
0
 10
3598.3457367182459166
 20
227.0683315357053118
 30
0.0
 40
12.1348347265264707
 50
342.7234719305627095
 51
353.2397874524945109
  0
LINE
  5
BDF2
  8
0
 10
3601.7039635532278226
 20
263.9930661785255097
 30
0.0
 11
3601.6834275418877951
 21
263.9334252692491987
 31
0.0
  0
ARC
  5
BDF3
  8
0
 10
3601.7020401125600984
 20
263.9270164474016838
 30
0.0
 40
0.0196850396111785
 50
161.0000005204146021
 51
244.9999993620610894
  0
LINE
  5
BDF4
  8
0
 10
3601.7479192079681525
 20
263.971148526092577
 30
0.0
 11
3601.7278047721688381
 21
263.9127318268925819
 31
0.0
  0
ARC
  5
BDF5
  8
0
 10
3601.7464337639139558
 20
263.9063173655551964
 30
0.0
 40
0.0197024020791776
 50
161.0000410469708925
 51
242.7246674861050906
  0
LINE
  5
BDF6
  8
0
 10
3601.8771296122690728
 20
263.9078711096926213
 30
0.0
 11
3601.8579122278470095
 21
263.8520617239282728
 31
0.0
  0
ARC
  5
BDF7
  8
0
 10
3601.8765245067729666
 20
263.84565277829671
 30
0.0
 40
0.0196848040616417
 50
160.9993833927451874
 51
245.0011233046554935
  0
LINE
  5
BDF8
  8
0
 10
3601.6937208551389631
 20
263.9091757428066103
 30
0.0
 11
3601.8379916169687931
 21
263.8419011817925934
 31
0.0
  0
ARC
  5
BDF9
  8
0
 10
3601.8463108712830945
 20
263.8597418802618222
 30
0.0
 40
0.0196850327458962
 50
245.0000000245177034
 51
302.9357987136115753
  0
LINE
  5
BDFA
  8
0
 10
3601.8682056988691329
 20
263.8278121239926008
 30
0.0
 11
3601.9680990692349951
 21
263.7812310802963225
 31
0.0
  0
ARC
  5
BDFB
  8
0
 10
3601.9764183263569066
 20
263.7990717847316091
 30
0.0
 40
0.0196850393398079
 50
244.9999999549989127
 51
328.9999999513880198
  0
LINE
  5
BDFC
  8
0
 10
3601.9932916983830182
 20
263.7889332399511204
 30
0.0
 11
3602.000720908331914
 21
263.8012975216145719
 31
0.0
  0
ARC
  5
BDFD
  8
0
 10
3601.9966973774198777
 20
263.8029490256556073
 30
0.0
 40
0.0043492834585639
 50
337.6837437497453038
 51
21.3526603143654512
  0
ARC
  5
BDFE
  8
0
 10
3601.7599568751838888
 20
263.6428905711546804
 30
0.0
 40
0.2900147857604202
 50
33.8732819874879496
 51
52.19066468627652
  0
ARC
  5
BDFF
  8
0
 10
3601.7486761371860666
 20
263.6551613643578094
 30
0.0
 40
0.2877054727501951
 50
48.9159273084283868
 51
60.9907457056338487
  0
ARC
  5
BE00
  8
0
 10
3601.8769648225011224
 20
263.8851997136965792
 30
0.0
 40
0.0243220329914256
 50
62.4902473372251421
 51
83.1734041765128467
  0
ARC
  5
BE01
  8
0
 10
3601.8799618806660874
 20
263.9059006735832895
 30
0.0
 40
0.0034502699504532
 50
91.7609094094503064
 51
145.1732964166264139
  0
LINE
  5
BE02
  8
0
 10
3601.9967806709501019
 20
263.7331839548425023
 30
0.0
 11
3601.979136725969056
 21
263.6825790057926042
 31
0.0
  0
ARC
  5
BE03
  8
0
 10
3601.9976449866871917
 20
263.6761259070357823
 30
0.0
 40
0.0196009744236491
 50
160.7783563041498951
 51
245.2216437204353952
  0
LINE
  5
BE04
  8
0
 10
3602.0542098653818357
 20
263.704495324659888
 30
0.0
 11
3602.0372367369582207
 21
263.6554865257493248
 31
0.0
  0
ARC
  5
BE05
  8
0
 10
3602.0558009994711028
 20
263.6490571983887889
 30
0.0
 40
0.0196460706751216
 50
160.8975883727576104
 51
245.1024118978411934
  0
ARC
  5
BE06
  8
0
 10
3589.0672661538651482
 20
235.6645695709366919
 30
0.0
 40
30.8321542853259594
 50
64.8975879964238374
 51
65.1024118978412218
  0
ARC
  5
BE07
  8
0
 10
3602.1557581791998928
 20
263.6024463998372767
 30
0.0
 40
0.0196460706350472
 50
244.897587996422601
 51
329.1024121535725726
  0
LINE
  5
BE08
  8
0
 10
3602.1726162076829496
 20
263.592358041839816
 30
0.0
 11
3602.181230854479054
 21
263.6066952219692894
 31
0.0
  0
ARC
  5
BE09
  8
0
 10
3602.1803542531911262
 20
263.6070731085068246
 30
0.0
 40
0.0009544815155555
 50
336.6824603473199886
 51
20.4631742914693291
  0
ARC
  5
BE0A
  8
0
 10
3601.7872852223817972
 20
263.2248065775966097
 30
0.0
 40
0.5491721021454467
 50
44.1616798067503993
 51
54.7081372945159004
  0
ARC
  5
BE0B
  8
0
 10
3601.8897272039798736
 20
263.3946951101117975
 30
0.0
 40
0.3516213470917133
 50
52.3387720516552974
 51
61.7030791153480465
  0
ARC
  5
BE0C
  8
0
 10
3602.0550436060489119
 20
263.7014162274861064
 30
0.0
 40
0.003189978511649
 50
64.635770415651578
 51
105.1509217254058939
  0
LINE
  5
BE0D
  8
0
 10
3601.9894300392347759
 20
263.6583294793962864
 30
0.0
 11
3602.0474664050530009
 21
263.6312666776300944
 31
0.0
  0
LINE
  5
BE0E
  8
0
 10
3602.0475300439611601
 20
263.6312370023205176
 30
0.0
 11
3602.0475300439597959
 21
263.6312370023213134
 31
0.0
  0
LINE
  5
BE0F
  8
0
 10
3602.0828146653921067
 20
263.80762443619858
 30
0.0
 11
3602.0648832221631892
 21
263.7555495642765209
 31
0.0
  0
ARC
  5
BE10
  8
0
 10
3602.0834955010900558
 20
263.7491406186447875
 30
0.0
 40
0.0196848040616417
 50
160.9993833927451874
 51
245.0011233046554935
  0
LINE
  5
BE11
  8
0
 10
3602.0751766931848579
 20
263.731299964340792
 30
0.0
 11
3602.1750700635520843
 21
263.6847189206445137
 31
0.0
  0
ARC
  5
BE12
  8
0
 10
3602.1833893206739958
 20
263.7025596250798003
 30
0.0
 40
0.0196850393398079
 50
244.9999999549989127
 51
328.9999999513880198
  0
LINE
  5
BE13
  8
0
 10
3602.2002626927010169
 20
263.6924210802991979
 30
0.0
 11
3602.209679741868058
 21
263.7080935138926066
 31
0.0
  0
ARC
  5
BE14
  8
0
 10
3602.2036655203569353
 20
263.7110535351220051
 30
0.0
 40
0.0067031773116657
 50
333.7949584375019754
 51
18.6182940719643
  0
ARC
  5
BE15
  8
0
 10
3602.0295718398178906
 20
263.6056012609893173
 30
0.0
 40
0.2100878195408111
 50
30.8058340917622111
 51
55.8130459733560684
  0
ARC
  5
BE16
  8
0
 10
3602.0266187130978324
 20
263.6276586700857933
 30
0.0
 40
0.1940690659596094
 50
51.4284403138324535
 51
69.5119103659020823
  0
ARC
  5
BE17
  8
0
 10
3602.0886550152549717
 20
263.7901622436838238
 30
0.0
 40
0.0201689481105637
 50
73.0193118428035461
 51
94.3468967688708062
  0
ARC
  5
BE18
  8
0
 10
3602.0872247734178018
 20
263.805279254599327
 30
0.0
 40
0.0049948903418132
 50
91.1295139703896666
 51
151.9971077185246884
  0
LINE
  5
BE19
  8
0
 10
3602.220222637768984
 20
263.6230543229925729
 30
0.0
 11
3602.2045290512692191
 21
263.5774768384926006
 31
0.0
  0
ARC
  5
BE1A
  8
0
 10
3602.2231416217168771
 20
263.5710680165158237
 30
0.0
 40
0.0196850394412405
 50
160.9999999524063981
 51
244.9999999022496979
  0
ARC
  5
BE1B
  8
0
 10
3602.3230351497568336
 20
263.5244868994658987
 30
0.0
 40
0.0196850394612375
 50
245.0000001478204865
 51
328.9999999465979954
  0
LINE
  5
BE1C
  8
0
 10
3602.3399085218861728
 20
263.5143483546215748
 30
0.0
 11
3602.3501072106769243
 21
263.5313218230862731
 31
0.0
  0
ARC
  5
BE1D
  8
0
 10
3602.343658518382199
 20
263.5325759779505006
 30
0.0
 40
0.0065695157152297
 50
348.9943833025766935
 51
39.2616021997756803
  0
ARC
  5
BE1E
  8
0
 10
3602.1230859167089875
 20
263.3392340296242082
 30
0.0
 40
0.2998801763779303
 50
41.1927974973642606
 51
56.7419179723405094
  0
ARC
  5
BE1F
  8
0
 10
3602.0742833770741527
 20
263.291343950527903
 30
0.0
 40
0.3669785221347321
 50
54.4703321786824119
 51
63.3811788679862076
  0
ARC
  5
BE20
  8
0
 10
3602.2082154474837807
 20
263.5570332914053893
 30
0.0
 40
0.0694451883748136
 50
63.9532562399068922
 51
74.7242299087857873
  0
ARC
  5
BE21
  8
0
 10
3602.2232771884928297
 20
263.6121829643440151
 30
0.0
 40
0.0122757693955805
 50
74.7222607024080645
 51
95.3616369519980083
  0
ARC
  5
BE22
  8
0
 10
3602.2227563040428322
 20
263.6214984777358268
 30
0.0
 40
0.0029732338041437
 50
102.157935997823401
 51
148.4472148702953973
  0
LINE
  5
BE23
  8
0
 10
3602.2148223645358485
 20
263.5532273119962952
 30
0.0
 11
3602.314715892644017
 21
263.5066461948925962
 31
0.0
  0
LINE
  5
BE24
  8
0
 10
3602.9033533213691953
 20
263.1614110822926023
 30
0.0
 11
3602.8886048261360884
 21
263.1368654641617013
 31
0.0
  0
ARC
  5
BE25
  8
0
 10
3602.871731454114979
 20
263.1470040088702262
 30
0.0
 40
0.0196850392975988
 50
244.9999998212605021
 51
329.0000001216862984
  0
LINE
  5
BE26
  8
0
 10
3602.8634121969689659
 20
263.1291633044925788
 30
0.0
 11
3602.7635186688848989
 21
263.1757444220176012
 31
0.0
  0
ARC
  5
BE27
  8
0
 10
3602.771837926120952
 20
263.1935851265872088
 30
0.0
 40
0.0196850395094718
 50
161.0000014339782979
 51
244.9999998212616106
  0
LINE
  5
BE28
  8
0
 10
3602.7532253554431918
 20
263.1999939481048045
 30
0.0
 11
3602.7642865285502012
 21
263.2321179299746063
 31
0.0
  0
ARC
  5
BE29
  8
0
 10
3602.7656015519651191
 20
263.2283056752864923
 30
0.0
 40
0.0040326879856354
 50
66.9681180846408353
 51
109.031688355370207
  0
ARC
  5
BE2A
  8
0
 10
3602.4988266343871146
 20
262.5478391994057006
 30
0.0
 40
0.7349233265789187
 50
56.6032170007308011
 51
68.5835687170826134
  0
LINE
  5
BE2B
  8
0
 10
3602.759290568022152
 20
263.2257398018389267
 30
0.0
 11
3602.7458791903482052
 21
263.2034195211829228
 31
0.0
  0
ARC
  5
BE2C
  8
0
 10
3602.7290058182788925
 20
263.2135580659863763
 30
0.0
 40
0.0196850393878807
 50
245.0000000578629056
 51
328.9999999572791012
  0
LINE
  5
BE2D
  8
0
 10
3602.7206865611360627
 20
263.1957173614962926
 30
0.0
 11
3602.620793032968777
 21
263.2422984786927032
 31
0.0
  0
ARC
  5
BE2E
  8
0
 10
3602.6291122900602204
 20
263.2601391830946795
 30
0.0
 40
0.0196850392969761
 50
160.9999997476313069
 51
244.9999999942446038
  0
LINE
  5
BE2F
  8
0
 10
3602.6104997197721787
 20
263.2665480050911242
 30
0.0
 11
3602.6174901303261322
 21
263.2868496311701279
 31
0.0
  0
LINE
  5
BE30
  8
0
 10
3602.7495909082690559
 20
263.2745239887926232
 30
0.0
 11
3602.7355902627768955
 21
263.2512230017063075
 31
0.0
  0
ARC
  5
BE31
  8
0
 10
3602.7187168907230443
 20
263.2613615464597956
 30
0.0
 40
0.0196850393492505
 50
244.9973108284798116
 51
329.0000000593561822
  0
LINE
  5
BE32
  8
0
 10
3602.7103967962689239
 20
263.2435212324926965
 30
0.0
 11
3602.6105062918259136
 21
263.2901066476151186
 31
0.0
  0
ARC
  5
BE33
  8
0
 10
3602.6188270758580074
 20
263.3079484402057915
 30
0.0
 40
0.0196866708654479
 50
161.0194143864690091
 51
244.9973108284798116
  0
LINE
  5
BE34
  8
0
 10
3602.6002107921549396
 20
263.3143514856406
 30
0.0
 11
3602.612893958425957
 21
263.3512266607377796
 31
0.0
  0
ARC
  5
BE35
  8
0
 10
3602.6161952159491193
 20
263.3477845878650214
 30
0.0
 40
0.0047692941717209
 50
72.4118338447233754
 51
133.8037138452336023
  0
ARC
  5
BE36
  8
0
 10
3602.5134075473820303
 20
263.0247711344392201
 30
0.0
 40
0.3437427355128962
 50
46.5995365049585288
 51
72.3490421298809139
  0
LINE
  5
BE37
  8
0
 10
3602.5188601003687836
 20
263.3774803945926237
 30
0.0
 11
3602.5070349758038901
 21
263.3578000823761727
 31
0.0
  0
ARC
  5
BE38
  8
0
 10
3602.4901616036331689
 20
263.3679386272102079
 30
0.0
 40
0.0196850394913242
 50
245.0000002390110865
 51
329.0000000346631737
  0
LINE
  5
BE39
  8
0
 10
3602.4818423465349042
 20
263.3500979225963192
 30
0.0
 11
3602.3819489755328505
 21
263.3966789659863252
 31
0.0
  0
ARC
  5
BE3A
  8
0
 10
3602.3902683139999681
 20
263.4145198450962084
 30
0.0
 40
0.0196852320263751
 50
161.0005031930901112
 51
245.0000002390098928
  0
LINE
  5
BE3B
  8
0
 10
3602.3716555051692012
 20
263.4209285662926163
 30
0.0
 11
3602.3857917613659083
 21
263.4619844066222072
 31
0.0
  0
ARC
  5
BE3C
  8
0
 10
3602.1710241355849575
 20
262.9767670514204951
 30
0.0
 40
0.5306232325032147
 50
49.0407120179297991
 51
66.1247894249462149
  0
LINE
  5
BE3D
  8
0
 10
3602.302918972714906
 20
263.5032708164239921
 30
0.0
 11
3602.2879984627102203
 21
263.4599384816251018
 31
0.0
  0
ARC
  5
BE3E
  8
0
 10
3602.3066110344020672
 20
263.4535296632811878
 30
0.0
 40
0.0196850394350737
 50
161.0000111293128953
 51
244.999999925363511
  0
LINE
  5
BE3F
  8
0
 10
3602.2982917772310429
 20
263.4356889587638761
 30
0.0
 11
3602.3819454807539842
 21
263.3966805960449733
 31
0.0
  0
LINE
  5
BE40
  8
0
 10
3602.9263349632688005
 20
263.2743712447925759
 30
0.0
 11
3602.9263349632688005
 21
263.2743712447925759
 31
0.0
  0
LINE
  5
BE41
  8
0
 10
3602.9263349632688005
 20
263.2743712447925759
 30
0.0
 11
3602.9106219289042201
 21
263.2482203334300266
 31
0.0
  0
ARC
  5
BE42
  8
0
 10
3602.8937485474120876
 20
263.2583588719900263
 30
0.0
 40
0.0196850442488844
 50
244.9618423127996891
 51
329.0000296592558016
  0
LINE
  5
BE43
  8
0
 10
3602.8854174085690829
 20
263.2405237074926276
 30
0.0
 11
3602.7855786889890624
 21
263.287160240332696
 31
0.0
  0
ARC
  5
BE44
  8
0
 10
3602.7939259409049555
 20
263.305029899429087
 30
0.0
 40
0.0197231166595748
 50
161.3140404945887099
 51
244.9618423128002007
  0
LINE
  5
BE45
  8
0
 10
3602.7752424530690405
 20
263.3113488085925837
 30
0.0
 11
3602.7870790166589359
 21
263.3463466675809741
 31
0.0
  0
ARC
  5
BE46
  8
0
 10
3602.7958704753741586
 20
263.3390494463977802
 30
0.0
 40
0.0114253745374944
 50
79.3209148701836284
 51
140.3061288893945004
  0
ARC
  5
BE47
  8
0
 10
3602.7496505638109738
 20
263.1025939458126004
 30
0.0
 40
0.2523555879585223
 50
47.199379251523581
 51
78.9571133100765365
  0
ARC
  5
BE48
  8
0
 10
3602.9049004177950337
 20
263.2737171924555923
 30
0.0
 40
0.021444387786481
 50
1.7472198187568111
 51
40.8830743618653329
  0
LINE
  5
BE49
  8
0
 10
3602.6092959246971077
 20
263.4170452517146259
 30
0.0
 11
3602.5962152172692186
 21
263.3948305796926093
 31
0.0
  0
ARC
  5
BE4A
  8
0
 10
3602.5794175212931805
 20
263.4047215988496191
 30
0.0
 40
0.0194934565964184
 50
244.4909340770653898
 51
329.5090663097171841
  0
LINE
  5
BE4B
  8
0
 10
3602.5710225880347934
 20
263.3871284198963281
 30
0.0
 11
3602.4715468646759291
 21
263.4345952285124781
 31
0.0
  0
ARC
  5
BE4C
  8
0
 10
3602.4801816115577822
 20
263.4526909825178222
 30
0.0
 40
0.0200503158763035
 50
164.7671129610048126
 51
244.4909340770653898
  0
LINE
  5
BE4D
  8
0
 10
3602.4608357466408961
 20
263.4579590635131012
 30
0.0
 11
3602.4748683170691947
 21
263.4987126073925765
 31
0.0
  0
ARC
  5
BE4E
  8
0
 10
3602.4797790768548111
 20
263.4959188521916076
 30
0.0
 40
0.0056498344929361
 50
81.1605058373108932
 51
150.3642410442072901
  0
ARC
  5
BE4F
  8
0
 10
3602.4220210981161472
 20
263.268485489089926
 30
0.0
 40
0.2402780212831955
 50
52.89605122925731
 51
75.877664954208953
  0
ARC
  5
BE50
  8
0
 10
3602.5112253837401113
 20
263.363008635635822
 30
0.0
 40
0.1119722594254245
 50
28.8546513163929212
 51
60.1414602277736279
  0
LINE
  5
BE51
  8
0
 10
3602.7992488180689179
 20
263.4453861573925906
 30
0.0
 11
3602.7840999098548309
 21
263.4201733148954077
 31
0.0
  0
ARC
  5
BE52
  8
0
 10
3602.7672266620761548
 20
263.4303114531045935
 30
0.0
 40
0.0196847234423752
 50
244.9991719385303952
 51
329.0008280608968221
  0
LINE
  5
BE53
  8
0
 10
3602.7589072806349577
 20
263.4124711551962719
 30
0.0
 11
3602.65901442573022
 21
263.4590537160573263
 31
0.0
  0
ARC
  5
BE54
  8
0
 10
3602.6673346223610679
 20
263.4768957620826768
 30
0.0
 40
0.0196866522891825
 50
180.0081059813581135
 51
244.999171938531191
  0
ARC
  5
BE55
  8
0
 10
3602.6673163814498366
 20
263.4768957595019856
 30
0.0
 40
0.0196684113786692
 50
160.9918940184435883
 51
180.0081059813468016
  0
LINE
  5
BE56
  8
0
 10
3602.6487204392551575
 20
263.4833017988405004
 30
0.0
 11
3602.6626376179301587
 21
263.5237016522457907
 31
0.0
  0
ARC
  5
BE57
  8
0
 10
3602.6731676991730637
 20
263.5185146567598053
 30
0.0
 40
0.0117382934503163
 50
89.446326311166473
 51
153.775679360628402
  0
ARC
  5
BE58
  8
0
 10
3602.6718822501661634
 20
263.4232964219265227
 30
0.0
 40
0.1069651278107153
 50
63.5456350844265216
 51
89.2506700789229939
  0
ARC
  5
BE59
  8
0
 10
3602.6487936771300156
 20
263.345683134891317
 30
0.0
 40
0.187254053830888
 50
37.397046096759702
 51
67.8040647130559933
  0
ARC
  5
BE5A
  8
0
 10
3602.7850798822159959
 20
263.4507901343110916
 30
0.0
 40
0.015164488443183
 50
339.123343811293978
 51
34.6360836756051924
  0
LINE
  5
BE5B
  8
0
 10
3602.4848666567809232
 20
263.5921331540972119
 30
0.0
 11
3602.4697177485682005
 21
263.5669203115999721
 31
0.0
  0
ARC
  5
BE5C
  8
0
 10
3602.4528445007867958
 20
263.5770584498092148
 30
0.0
 40
0.0196847234423752
 50
244.9991719385303952
 51
329.0008280608968221
  0
LINE
  5
BE5D
  8
0
 10
3602.4445251193478725
 20
263.5592181519008932
 30
0.0
 11
3602.3446322644422253
 21
263.605800712761777
 31
0.0
  0
ARC
  5
BE5E
  8
0
 10
3602.3529524610730732
 20
263.6236427587871844
 30
0.0
 40
0.0196866522891825
 50
180.0081059813581135
 51
244.999171938531191
  0
ARC
  5
BE5F
  8
0
 10
3602.3529342201632062
 20
263.6236427562067206
 30
0.0
 40
0.0196684113786692
 50
160.9918940184435883
 51
180.0081059813468016
  0
LINE
  5
BE60
  8
0
 10
3602.3343382779657986
 20
263.6300487955451217
 30
0.0
 11
3602.3482554566430736
 21
263.670448648950412
 31
0.0
  0
ARC
  5
BE61
  8
0
 10
3602.3587855378841596
 20
263.6652616534644267
 30
0.0
 40
0.0117382934503163
 50
89.446326311166473
 51
153.775679360628402
  0
ARC
  5
BE62
  8
0
 10
3602.3575000888781688
 20
263.5700434186310872
 30
0.0
 40
0.1069651278107153
 50
63.5456350844265216
 51
89.2506700789229939
  0
ARC
  5
BE63
  8
0
 10
3602.3344115158429304
 20
263.4924301315958814
 30
0.0
 40
0.187254053830888
 50
37.397046096759702
 51
67.8040647130556806
  0
ARC
  5
BE64
  8
0
 10
3602.4706977209280012
 20
263.5975371310158266
 30
0.0
 40
0.015164488443183
 50
339.123343811293978
 51
34.6360836756051924
  0
LINE
  5
BE65
  8
0
 10
3601.5919923674691745
 20
264.1325448216925906
 30
0.0
 11
3601.5895270938522117
 21
264.1277064498007121
 31
0.0
  0
ARC
  5
BE66
  8
0
 10
3601.6070665924198693
 20
264.118769628893574
 30
0.0
 40
0.019685039444872
 50
152.9999999605944083
 51
209.2727682290434927
  0
ARC
  5
BE67
  8
0
 10
3601.6294042442368664
 20
264.1312909780816085
 30
0.0
 40
0.0452927506703336
 50
209.2727682290455959
 51
224.0486199899046085
  0
ARC
  5
BE68
  8
0
 10
3604.553872001109994
 20
266.9602165061331789
 30
0.0
 40
4.1141170654140939
 50
224.0486199899046085
 51
226.8997587081140921
  0
ARC
  5
BE69
  8
0
 10
3601.7489664512381751
 20
263.9699218638103844
 30
0.0
 40
0.0016128914465293
 50
53.4123149086705524
 51
130.4885117920416917
  0
ARC
  5
BE6A
  8
0
 10
3601.2581318708807885
 20
263.3087156823600026
 30
0.0
 40
0.8250885739423335
 50
42.7752138486889635
 51
53.4123149086705524
  0
LINE
  5
BE6B
  8
0
 10
3601.8960007524929097
 20
263.8148510776022135
 30
0.0
 11
3602.0493828730768655
 21
263.6905576998868241
 31
0.0
  0
LINE
  5
BE6C
  8
0
 10
3602.173855314094908
 20
263.5944202612508889
 30
0.0
 11
3602.2035244725161647
 21
263.5726673667138016
 31
0.0
  0
LINE
  5
BE6D
  8
0
 10
3602.2604508221497781
 20
263.5319259056133774
 30
0.0
 11
3602.3817036704108432
 21
263.4501113896700986
 31
0.0
  0
LINE
  5
BE6E
  8
0
 10
3602.5122697967440217
 20
263.3665122874724034
 30
0.0
 11
3602.6001312574639996
 21
263.3141153992878003
 31
0.0
  0
LINE
  5
BE6F
  8
0
 10
3602.7270071584248399
 20
263.2435073526772271
 30
0.0
 11
3602.7616443166598401
 21
263.224444388836389
 31
0.0
  0
LINE
  5
BE70
  8
0
 10
3604.456037158979143
 20
262.7097531820269865
 30
0.0
 11
3604.4235498655411902
 21
262.6556852471109096
 31
0.0
  0
ARC
  5
BE71
  8
0
 10
3604.4066764933550076
 20
262.6658237921532191
 30
0.0
 40
0.0196850396111785
 50
245.0000006950479019
 51
328.9999995366869143
  0
LINE
  5
BE72
  8
0
 10
3604.410993112864162
 20
262.7293367716227976
 30
0.0
 11
3604.3791726352178557
 21
262.6763786893754968
 31
0.0
  0
ARC
  5
BE73
  8
0
 10
3604.3622843876701154
 20
262.6865261886953817
 30
0.0
 40
0.0197024020791776
 50
247.2753325710216927
 51
328.9999590101388094
  0
LINE
  5
BE74
  8
0
 10
3604.2794649526708781
 20
262.7876437444638782
 30
0.0
 11
3604.2490651794801124
 21
262.7370487922123061
 31
0.0
  0
ARC
  5
BE75
  8
0
 10
3604.2321919000009984
 20
262.7471870341976796
 30
0.0
 40
0.0196848040616417
 50
244.9988767524492062
 51
329.0006166643623828
  0
LINE
  5
BE76
  8
0
 10
3604.3983572363499661
 20
262.6479830873644801
 30
0.0
 11
3604.2540864745101317
 21
262.7152576483583175
 31
0.0
  0
ARC
  5
BE77
  8
0
 10
3604.262405728820795
 20
262.7330983468286831
 30
0.0
 40
0.0196850327458962
 50
187.0642013434880937
 51
245.0000000325916005
  0
LINE
  5
BE78
  8
0
 10
3604.2238723925761406
 20
262.7293467060856074
 30
0.0
 11
3604.123979022090225
 21
262.7759277495252945
 31
0.0
  0
ARC
  5
BE79
  8
0
 10
3604.1322982791662071
 20
262.7937684539820111
 30
0.0
 40
0.0196850393398079
 50
161.0000001057192947
 51
245.0000001021101923
  0
LINE
  5
BE7A
  8
0
 10
3604.1136857087972203
 20
262.8001772758759103
 30
0.0
 11
3604.1183818939398407
 21
262.8138159879342766
 31
0.0
  0
ARC
  5
BE7B
  8
0
 10
3604.1222332952538636
 20
262.8117953507755828
 30
0.0
 40
0.0043492834585639
 50
108.6473397427270982
 51
152.3162563073607885
  0
ARC
  5
BE7C
  8
0
 10
3604.1517952674407752
 20
262.5275580132275763
 30
0.0
 40
0.2900147857604202
 50
77.8093353708329118
 51
96.1267180696164303
  0
ARC
  5
BE7D
  8
0
 10
3604.1684463589999723
 20
262.5268039804187197
 30
0.0
 40
0.2877054727501951
 50
69.0092543514723928
 51
81.0840727486766468
  0
ARC
  5
BE7E
  8
0
 10
3604.2622035805870837
 20
262.7729446157201778
 30
0.0
 40
0.0243220329914256
 50
46.8265958805817419
 51
67.5097527198851566
  0
ARC
  5
BE7F
  8
0
 10
3604.2761349640059052
 20
262.7885468160105233
 30
0.0
 40
0.0034502699504532
 50
344.8267036404718056
 51
38.2390906476541588
  0
LINE
  5
BE80
  8
0
 10
3604.068736610428914
 20
262.7670150341609769
 30
0.0
 11
3604.0413122796808238
 21
262.7209707538880252
 31
0.0
  0
ARC
  5
BE81
  8
0
 10
3604.0244720385608161
 20
262.7310009322208089
 30
0.0
 40
0.0196009744236491
 50
244.7783563366855901
 51
329.2216437529542077
  0
LINE
  5
BE82
  8
0
 10
3604.0098450700561443
 20
262.7925676533495221
 30
0.0
 11
3603.9832122686798357
 21
262.748063233905782
 31
0.0
  0
ARC
  5
BE83
  8
0
 10
3603.9663542402458916
 20
262.7581515920620063
 30
0.0
 40
0.0196460706751216
 50
244.897588159247789
 51
329.1024116843506135
  0
ARC
  5
BE84
  8
0
 10
3590.8778622942868424
 20
234.8202747259304886
 30
0.0
 40
30.8321542853259594
 50
64.8975881592477322
 51
65.1024120606781196
  0
ARC
  5
BE85
  8
0
 10
3603.8663970603502094
 20
262.8047623902568262
 30
0.0
 40
0.0196460706350472
 50
160.8975879035311038
 51
245.1024120606793133
  0
LINE
  5
BE86
  8
0
 10
3603.847832797927822
 20
262.8111917177562873
 30
0.0
 11
3603.8532783268569801
 21
262.8270066818146233
 31
0.0
  0
ARC
  5
BE87
  8
0
 10
3603.8541312731867947
 20
262.8265780670540721
 30
0.0
 40
0.0009544815155555
 50
109.5368257656433002
 51
153.3175397097793962
  0
ARC
  5
BE88
  8
0
 10
3603.8139580246929654
 20
262.2797535305344923
 30
0.0
 40
0.5491721021454467
 50
75.291862762574155
 51
85.8383202503543714
  0
ARC
  5
BE89
  8
0
 10
3603.878251754305893
 20
262.4674308850720195
 30
0.0
 40
0.3516213470917133
 50
68.2969209417551042
 51
77.661228005439753
  0
ARC
  5
BE8A
  8
0
 10
3604.0069504266070908
 20
262.7912271302390081
 30
0.0
 40
0.003189978511649
 50
24.8490783317047494
 51
65.3642296414427761
  0
LINE
  5
BE8B
  8
0
 10
3604.0161196505141561
 20
262.7132685941834893
 30
0.0
 11
3603.9580832847200327
 21
262.7403313960008973
 31
0.0
  0
LINE
  5
BE8C
  8
0
 10
3603.9580196458118735
 20
262.7403610713105877
 30
0.0
 11
3603.9580196458141472
 21
262.7403610713097919
 31
0.0
  0
LINE
  5
BE8D
  8
0
 10
3604.0704597417620789
 20
262.8807703165991825
 30
0.0
 11
3604.042094185078895
 21
262.8335609516810223
 31
0.0
  0
ARC
  5
BE8E
  8
0
 10
3604.0252209055988715
 20
262.8436991936662821
 30
0.0
 40
0.0196848040616417
 50
244.9988767524492062
 51
329.0006166643623828
  0
LINE
  5
BE8F
  8
0
 10
3604.0169013981740136
 20
262.8258588655542098
 30
0.0
 11
3603.9170080276880981
 21
262.872439908993897
 31
0.0
  0
ARC
  5
BE90
  8
0
 10
3603.9253272847640801
 20
262.8902806134506136
 30
0.0
 40
0.0196850393398079
 50
161.0000001057192947
 51
245.0000001021101923
  0
LINE
  5
BE91
  8
0
 10
3603.9067147143950933
 20
262.8966894353445127
 30
0.0
 11
3603.9126673325167758
 21
262.9139773596637042
 31
0.0
  0
ARC
  5
BE92
  8
0
 10
3603.9188007074039888
 20
262.9112728636716838
 30
0.0
 40
0.0067031773116657
 50
111.3817059851336069
 51
156.2050416195993989
  0
ARC
  5
BE93
  8
0
 10
3603.9499248397660267
 20
262.7101259519171208
 30
0.0
 40
0.2100878195408111
 50
74.1869540837509902
 51
99.1941659653476222
  0
ARC
  5
BE94
  8
0
 10
3603.9687200286871303
 20
262.7220419548920063
 30
0.0
 40
0.1940690659596094
 50
60.4880896911913695
 51
78.5715597432680113
  0
ARC
  5
BE95
  8
0
 10
3604.0533288216988694
 20
262.8740198031542832
 30
0.0
 40
0.0201689481105637
 50
35.653103288223349
 51
56.9806882143219582
  0
ARC
  5
BE96
  8
0
 10
3604.0658284656319665
 20
262.882641201666388
 30
0.0
 40
0.0049948903418132
 50
338.0028923385760891
 51
38.8704860867184934
  0
LINE
  5
BE97
  8
0
 10
3603.8407466900721374
 20
262.8673915481622885
 30
0.0
 11
3603.8159199543338218
 21
262.8260729210892919
 31
0.0
  0
ARC
  5
BE98
  8
0
 10
3603.7990465821940234
 20
262.836211465876886
 30
0.0
 40
0.0196850394412405
 50
245.0000001548594923
 51
329.0000001046973921
  0
ARC
  5
BE99
  8
0
 10
3603.6991530541649809
 20
262.882792582950799
 30
0.0
 40
0.0196850394612375
 50
161.0000001105067895
 51
244.9999999092887037
  0
LINE
  5
BE9A
  8
0
 10
3603.680540483680943
 20
262.8892014048826127
 30
0.0
 11
3603.6869873240711968
 21
262.9079243889866007
 31
0.0
  0
ARC
  5
BE9B
  8
0
 10
3603.6920932019452266
 20
262.9037905593012852
 30
0.0
 40
0.0065695157152297
 50
90.7383978573284651
 51
141.0056167545263861
  0
ARC
  5
BE9C
  8
0
 10
3603.6857660124928771
 20
262.610544334661995
 30
0.0
 40
0.2998801763779303
 50
73.2580820847646237
 51
88.8072025597473669
  0
ARC
  5
BE9D
  8
0
 10
3603.6804497513858223
 20
262.5423762708895765
 30
0.0
 40
0.3669785221347321
 50
66.618821189114044
 51
75.5296678784236661
  0
ARC
  5
BE9E
  8
0
 10
3603.7978897188891096
 20
262.8157560056416173
 30
0.0
 40
0.0694451883748136
 50
55.2757701483107695
 51
66.0467438172022554
  0
ARC
  5
BE9F
  8
0
 10
3603.8304553188368118
 20
262.862743495120128
 30
0.0
 40
0.0122757693955805
 50
34.6383631051097325
 51
55.2777393546889613
  0
ARC
  5
BEA0
  8
0
 10
3603.8379262341700269
 20
262.8683323710761783
 30
0.0
 40
0.0029732338041437
 50
341.5527851868083076
 51
27.842064059279771
  0
LINE
  5
BEA1
  8
0
 10
3603.7907273250921207
 20
262.8183707613206934
 30
0.0
 11
3603.6908337969780405
 21
262.8649518784121142
 31
0.0
  0
LINE
  5
BEA2
  8
0
 10
3603.0479995113901168
 20
263.0939614562504971
 30
0.0
 11
3603.0386766270430599
 21
263.0668858342165208
 31
0.0
  0
ARC
  5
BEA3
  8
0
 10
3603.0572891973529295
 20
263.0604770122810123
 30
0.0
 40
0.0196850392975988
 50
160.9999999354155875
 51
245.000000235848205
  0
LINE
  5
BEA4
  8
0
 10
3603.0489699403351551
 20
263.0426363078432246
 30
0.0
 11
3603.1488634687570993
 21
262.99605519104108
 31
0.0
  0
ARC
  5
BEA5
  8
0
 10
3603.1571827258621852
 20
263.0138958956708848
 30
0.0
 40
0.0196850395094718
 50
245.0000002358474944
 51
328.9999986231292723
  0
LINE
  5
BEA6
  8
0
 10
3603.1740560977991663
 20
263.0037573504118882
 30
0.0
 11
3603.1915545105512138
 21
263.0328795981421877
 31
0.0
  0
ARC
  5
BEA7
  8
0
 10
3603.1877888732751671
 20
263.0314364944395038
 30
0.0
 40
0.0040326879856354
 50
20.9683117017380383
 51
63.031881972471389
  0
ARC
  5
BEA8
  8
0
 10
3602.8380009229322241
 20
262.3896796314137987
 30
0.0
 40
0.7349233265789187
 50
61.416431340007243
 51
73.3967830563895802
  0
LINE
  5
BEA9
  8
0
 10
3603.1898799224691174
 20
263.0249526886020135
 30
0.0
 11
3603.1814022629259853
 21
263.0003317774010156
 31
0.0
  0
ARC
  5
BEAA
  8
0
 10
3603.2000148333390825
 20
262.9939229554894951
 30
0.0
 40
0.0196850393878807
 50
161.0000000998261953
 51
244.9999999992463131
  0
LINE
  5
BEAB
  8
0
 10
3603.1916955762349062
 20
262.9760822509808804
 30
0.0
 11
3603.2915891044581258
 21
262.9295011339041821
 31
0.0
  0
ARC
  5
BEAC
  8
0
 10
3603.2999083615281961
 20
262.9473418383162198
 30
0.0
 40
0.0196850392969761
 50
245.0000000628645012
 51
329.0000003094727958
  0
LINE
  5
BEAD
  8
0
 10
3603.3167817335811378
 20
262.9372032936634014
 30
0.0
 11
3603.3278403321160113
 21
262.9556078925342035
 31
0.0
  0
LINE
  5
BEAE
  8
0
 10
3603.2334855988801792
 20
263.0488801891133903
 30
0.0
 11
3603.2246354486787823
 21
263.0231774866330738
 31
0.0
  0
ARC
  5
BEAF
  8
0
 10
3603.2432480190441311
 20
263.0167686647009759
 30
0.0
 40
0.0196850393492505
 50
160.9999999977493133
 51
245.002689228622188
  0
LINE
  5
BEB0
  8
0
 10
3603.2349295993121814
 20
262.9989275697985249
 30
0.0
 11
3603.3348244763251387
 21
262.9523515316819271
 31
0.0
  0
ARC
  5
BEB1
  8
0
 10
3603.3431435854968186
 20
262.9701941052725829
 30
0.0
 40
0.0196866708654479
 50
245.002689228622188
 51
328.9805856706354916
  0
LINE
  5
BEB2
  8
0
 10
3603.3600149193848665
 20
262.9600490028765876
 30
0.0
 11
3603.3801103601931572
 21
262.9934677775974023
 31
0.0
  0
ARC
  5
BEB3
  8
0
 10
3603.375351571963165
 20
262.9937841657792887
 30
0.0
 40
0.0047692941717209
 50
356.1962862118812154
 51
57.5881662123799316
  0
ARC
  5
BEB4
  8
0
 10
3603.193979550982931
 20
262.7074151976466965
 30
0.0
 40
0.3437427355128962
 50
57.6509579272262229
 51
83.4004635521391862
  0
LINE
  5
BEB5
  8
0
 10
3603.4606656860291878
 20
262.9383092380779203
 30
0.0
 11
3603.4531907357909404
 21
262.9166004062608977
 31
0.0
  0
ARC
  5
BEB6
  8
0
 10
3603.4718033062940776
 20
262.9101915842904873
 30
0.0
 40
0.0196850394913242
 50
161.0000000224466987
 51
244.9999998180736895
  0
LINE
  5
BEB7
  8
0
 10
3603.4634840490648457
 20
262.892350879737819
 30
0.0
 11
3603.563377419725839
 21
262.8457698356140213
 31
0.0
  0
ARC
  5
BEB8
  8
0
 10
3603.5716967583239239
 20
262.8636107146626273
 30
0.0
 40
0.0196852320263751
 50
244.9999998180992975
 51
328.9994968640161233
  0
LINE
  5
BEB9
  8
0
 10
3603.5885702064911129
 20
262.8534719224830951
 30
0.0
 11
3603.6109341944647895
 21
262.8906911084802118
 31
0.0
  0
ARC
  5
BEBA
  8
0
 10
3603.3772861050961183
 20
262.4142778580280719
 30
0.0
 40
0.5306232325032147
 50
63.8752106321416235
 51
80.9592880391793983
  0
LINE
  5
BEBB
  8
0
 10
3603.6958310210320633
 20
262.8537452620021782
 30
0.0
 11
3603.6722272457518557
 21
262.8144620002935881
 31
0.0
  0
ARC
  5
BEBC
  8
0
 10
3603.6553538755952104
 20
262.8246005483695171
 30
0.0
 40
0.0196850394350737
 50
245.000000131745594
 51
328.9999889277860916
  0
LINE
  5
BEBD
  8
0
 10
3603.6470346184878508
 20
262.8067598438223058
 30
0.0
 11
3603.5633809148230284
 21
262.8457682062398817
 31
0.0
  0
LINE
  5
BEBE
  8
0
 10
3603.119759701413841
 20
263.184175808236489
 30
0.0
 11
3603.119759701413841
 21
263.184175808236489
 31
0.0
  0
LINE
  5
BEBF
  8
0
 10
3603.119759701413841
 20
263.184175808236489
 30
0.0
 11
3603.1098270849111032
 21
263.1553294437608201
 31
0.0
  0
ARC
  5
BEC0
  8
0
 10
3603.1284396565988573
 20
263.14892061061812
 30
0.0
 40
0.0196850442488844
 50
160.9999703978517971
 51
245.0381577443077106
  0
LINE
  5
BEC1
  8
0
 10
3603.1201322807851284
 20
263.1310743652380779
 30
0.0
 11
3603.2200330295718231
 21
263.0845708544644026
 31
0.0
  0
ARC
  5
BEC2
  8
0
 10
3603.2283564724989446
 20
263.1024516158745996
 30
0.0
 40
0.0197231166595748
 50
245.038157744307
 51
328.6859595625144834
  0
LINE
  5
BEC3
  8
0
 10
3603.2452065522470548
 20
263.0922009503730123
 30
0.0
 11
3603.2644080711970673
 21
263.1237644742791986
 31
0.0
  0
ARC
  5
BEC4
  8
0
 10
3603.2531670347261752
 20
263.1258085590014275
 30
0.0
 40
0.0114253745374944
 50
349.6938711677153151
 51
50.6790851869105126
  0
ARC
  5
BEC5
  8
0
 10
3603.1017411991169865
 20
262.938411386418295
 30
0.0
 40
0.2523555879585223
 50
51.0428867470144425
 51
82.8006208055932689
  0
ARC
  5
BEC6
  8
0
 10
3603.1330365285220978
 20
263.1673355770607827
 30
0.0
 40
0.021444387786481
 50
89.1169256952461666
 51
128.2527802383571895
  0
LINE
  5
BEC7
  8
0
 10
3603.4328430975251649
 20
263.033018898672708
 30
0.0
 11
3603.4242337881519234
 21
263.0087191794975752
 31
0.0
  0
ARC
  5
BEC8
  8
0
 10
3603.4426080992648167
 20
263.0022092224173775
 30
0.0
 40
0.0194934565964184
 50
160.4909337473924893
 51
245.5090659800625872
  0
LINE
  5
BEC9
  8
0
 10
3603.4345271013908132
 20
262.9844696529909811
 30
0.0
 11
3603.534830548849186
 21
262.9387779044359945
 31
0.0
  0
ARC
  5
BECA
  8
0
 10
3603.5431423923218972
 20
262.9570242307738113
 30
0.0
 40
0.0200503158763035
 50
245.509065980038713
 51
325.2328870960996028
  0
LINE
  5
BECB
  8
0
 10
3603.5596132587729699
 20
262.9455906956641797
 30
0.0
 11
3603.5818123221602036
 21
262.9825361413414839
 31
0.0
  0
ARC
  5
BECC
  8
0
 10
3603.5765156059660512
 20
262.9845022103539804
 30
0.0
 40
0.0056498344929361
 50
339.6357590129031223
 51
48.8394942197924422
  0
ARC
  5
BECD
  8
0
 10
3603.4394176552659701
 20
262.794065683727581
 30
0.0
 40
0.2402780212831955
 50
54.1223351028840511
 51
77.1039488278463949
  0
ARC
  5
BECE
  8
0
 10
3603.4544871767648146
 20
262.9231584384756957
 30
0.0
 40
0.1119722594254245
 50
69.8585398293415949
 51
101.1453487407040939
  0
LINE
  5
BECF
  8
0
 10
3603.332454124386004
 20
263.196748440011504
 30
0.0
 11
3603.3228774970230006
 21
263.1689372002837217
 31
0.0
  0
ARC
  5
BED0
  8
0
 10
3603.3414896760768897
 20
263.1625282122290059
 30
0.0
 40
0.0196847234423752
 50
160.9991719962131071
 51
245.0008281185756118
  0
LINE
  5
BED1
  8
0
 10
3603.3331708103278288
 20
263.1446876738497735
 30
0.0
 11
3603.4330650116980905
 21
263.0981080004905834
 31
0.0
  0
ARC
  5
BED2
  8
0
 10
3603.4413846925867801
 20
263.1159502870104916
 30
0.0
 40
0.0196866522891825
 50
245.0008281185749865
 51
309.9918940757390828
  0
ARC
  5
BED3
  8
0
 10
3603.4413964156419752
 20
263.1159363120037256
 30
0.0
 40
0.0196684113786692
 50
309.9918940757639803
 51
329.0081060386684157
  0
LINE
  5
BED4
  8
0
 10
3603.4582569677231731
 20
263.1058087165508255
 30
0.0
 11
3603.4802592608762097
 21
263.1424384191632271
 31
0.0
  0
ARC
  5
BED5
  8
0
 10
3603.4695171860507799
 20
263.1471707929433137
 30
0.0
 40
0.0117382934503163
 50
336.224320696472887
 51
40.5536737459354768
  0
ARC
  5
BED6
  8
0
 10
3603.3974020571290566
 20
263.0849809802363097
 30
0.0
 40
0.1069651278107153
 50
40.7493299781741811
 51
66.4543649726840044
  0
ARC
  5
BED7
  8
0
 10
3603.3527878786239853
 20
263.0174052478653266
 30
0.0
 40
0.187254053830888
 50
62.1959353440600324
 51
92.6029539603405851
  0
ARC
  5
BED8
  8
0
 10
3603.3457014272908054
 20
263.1893680148559156
 30
0.0
 40
0.015164488443183
 50
95.3639163814885933
 51
150.8766562458164913
  0
LINE
  5
BED9
  8
0
 10
3603.6469498038841266
 20
263.0502448838952887
 30
0.0
 11
3603.6373731765211232
 21
263.022433644167279
 31
0.0
  0
ARC
  5
BEDA
  8
0
 10
3603.6559853555750124
 20
263.0160246561126769
 30
0.0
 40
0.0196847234423752
 50
160.9991719962131071
 51
245.0008281185756118
  0
LINE
  5
BEDB
  8
0
 10
3603.6476664898268609
 20
262.9981841177333877
 30
0.0
 11
3603.7475606911962132
 21
262.9516044443743112
 31
0.0
  0
ARC
  5
BEDC
  8
0
 10
3603.7558803720849028
 20
262.9694467308942194
 30
0.0
 40
0.0196866522891825
 50
245.0008281185749865
 51
309.9918940757390828
  0
ARC
  5
BEDD
  8
0
 10
3603.7558920951391883
 20
262.9694327558873965
 30
0.0
 40
0.0196684113786692
 50
309.9918940757639803
 51
329.0081060386684157
  0
LINE
  5
BEDE
  8
0
 10
3603.772752647220841
 20
262.9593051604344964
 30
0.0
 11
3603.7947549403738776
 21
262.9959348630467844
 31
0.0
  0
ARC
  5
BEDF
  8
0
 10
3603.784012865549812
 20
263.0006672368269847
 30
0.0
 40
0.0117382934503163
 50
336.224320696472887
 51
40.5536737459354768
  0
ARC
  5
BEE0
  8
0
 10
3603.7118977366280888
 20
262.9384774241199807
 30
0.0
 40
0.1069651278107153
 50
40.7493299781741811
 51
66.4543649726840044
  0
ARC
  5
BEE1
  8
0
 10
3603.6672835581221079
 20
262.8709016917491113
 30
0.0
 40
0.187254053830888
 50
62.1959353440600324
 51
92.6029539603405851
  0
ARC
  5
BEE2
  8
0
 10
3603.6601971067898376
 20
263.0428644587395866
 30
0.0
 40
0.015164488443183
 50
95.3639163814885933
 51
150.8766562458164913
  0
LINE
  5
BEE3
  8
0
 10
3604.6342903799959458
 20
262.7122969241066812
 30
0.0
 11
3604.6327359287938634
 21
262.7086348665482092
 31
0.0
  0
ARC
  5
BEE4
  8
0
 10
3604.6146157544321795
 20
262.7163264241942784
 30
0.0
 40
0.019685039444872
 50
280.7272318280607806
 51
337.0000000965122808
  0
ARC
  5
BEE5
  8
0
 10
3604.6098492985552184
 20
262.7414866263512749
 30
0.0
 40
0.0452927506703336
 50
265.9513800671822992
 51
280.7272318280607237
  0
ARC
  5
BEE6
  8
0
 10
3604.8971203362261804
 20
266.8001571790280195
 30
0.0
 40
4.1141170654140939
 50
263.100241348986799
 51
265.9513800671822992
  0
ARC
  5
BEE7
  8
0
 10
3604.4093802800421145
 20
262.7293505231916129
 30
0.0
 40
0.0016128914465293
 50
359.5114882650586878
 51
76.5876851484332946
  0
ARC
  5
BEE8
  8
0
 10
3604.2183693464430689
 20
261.9283342793440283
 30
0.0
 40
0.8250885739423335
 50
76.5876851484332946
 51
87.2247862084002747
  0
LINE
  5
BEE9
  8
0
 10
3604.196077338917803
 20
262.7423077524045993
 30
0.0
 11
3604.0022709609061167
 21
262.779911030197411
 31
0.0
  0
LINE
  5
BEEA
  8
0
 10
3603.8486160673969607
 20
262.8134664974252246
 30
0.0
 11
3603.8128814159831563
 21
262.8222119002463728
 31
0.0
  0
LINE
  5
BEEB
  8
0
 10
3603.7450800938750035
 20
262.8396319075878864
 30
0.0
 11
3603.6044667100291008
 21
262.8799276209289815
 31
0.0
  0
LINE
  5
BEEC
  8
0
 10
3603.4564997940437934
 20
262.9262106092448903
 30
0.0
 11
3603.3598851906599521
 21
262.959836322385911
 31
0.0
  0
LINE
  5
BEED
  8
0
 10
3603.2242420317570577
 20
263.0116429236420004
 30
0.0
 11
3603.1873746180758644
 21
263.0259230892356186
 31
0.0
  0
ARC
  5
BEEE
  8
0
 10
3604.934510411967949
 20
267.3284193288906181
 30
0.0
 40
4.6437007873978349
 50
244.0049838189015077
 51
245.9950161806015103
  0
LINE
  5
BEEF
  8
0
 10
3603.0648189801690933
 20
263.1339566706926121
 30
0.0
 11
3603.0478025909628741
 21
263.1056360020817237
 31
0.0
  0
ARC
  5
BEF0
  8
0
 10
3603.0309293048558175
 20
263.1157742656779988
 30
0.0
 40
0.0196848208731828
 50
244.9994272513017961
 51
329.000572682512427
  0
LINE
  5
BEF1
  8
0
 10
3603.0226099617348154
 20
263.0979338423962872
 30
0.0
 11
3602.9227168992570114
 21
263.1445159581293751
 31
0.0
  0
ARC
  5
BEF2
  8
0
 10
3602.9310364814728018
 20
263.162356894141908
 30
0.0
 40
0.019685386611749
 50
161.0041343612805065
 51
244.9994272513031035
  0
LINE
  5
BEF3
  8
0
 10
3602.9124231203550153
 20
263.1687644860405726
 30
0.0
 11
3602.9231777555100962
 21
263.2000055374384146
 31
0.0
  0
ARC
  5
BEF4
  8
0
 10
3602.9281081486637959
 20
263.1949655607734258
 30
0.0
 40
0.0070505419247527
 50
75.5181884174663907
 51
134.3702921735423104
  0
ARC
  5
BEF5
  8
0
 10
3602.847584019291844
 20
262.8526564351761863
 30
0.0
 40
0.3587016851044682
 50
53.3663193011070192
 51
76.7380679277912208
  0
ARC
  5
BEF6
  8
0
 10
3603.0558148862660346
 20
263.13361118883779
 30
0.0
 40
0.0090107194339931
 50
2.197327902982706
 51
49.8897970046670025
  0
LINE
  5
BEF7
  8
0
 10
3603.1401300679581254
 20
263.2946179914088134
 30
0.0
 11
3603.1211784387692205
 21
263.2629910154926165
 31
0.0
  0
ARC
  5
BEF8
  8
0
 10
3603.1043154059461813
 20
263.2730957420995992
 30
0.0
 40
0.0196587735061667
 50
244.9310346382341095
 51
329.068965390676226
  0
LINE
  5
BEF9
  8
0
 10
3603.0959858095689015
 20
263.2552888557926281
 30
0.0
 11
3602.9961484221889805
 21
263.3019901783006276
 31
0.0
  0
ARC
  5
BEFA
  8
0
 10
3603.0045072752300257
 20
263.3198596090649062
 30
0.0
 40
0.0197278224852399
 50
161.4995087854030942
 51
244.9310346382353032
  0
LINE
  5
BEFB
  8
0
 10
3602.9857989681690924
 20
263.3261194993925756
 30
0.0
 11
3602.9981135869229547
 21
263.3614958896559983
 31
0.0
  0
ARC
  5
BEFC
  8
0
 10
3603.0099292462541598
 20
263.3531641049557948
 30
0.0
 40
0.0144578159387385
 50
97.2303538349753325
 51
144.8105118113433036
  0
ARC
  5
BEFD
  8
0
 10
3603.0178496672378969
 20
263.2701018642428039
 30
0.0
 40
0.0978908601762468
 50
70.7832064693022716
 51
95.7103342550516061
  0
ARC
  5
BEFE
  8
0
 10
3602.9850127440117831
 20
263.1484779197206763
 30
0.0
 40
0.2237280518993451
 50
53.6454104733030874
 51
73.0949622942801938
  0
ARC
  5
BEFF
  8
0
 10
3603.085481835038081
 20
263.278235261188172
 30
0.0
 40
0.0598037200283664
 50
22.8361108012215617
 51
57.4771858781888412
  0
ARC
  5
BF00
  8
0
 10
3603.1335941866132089
 20
263.298495522064627
 30
0.0
 40
0.0075995387312614
 50
329.3206909878924193
 51
22.8361108012155505
  0
LINE
  5
BF01
  8
0
 10
3611.1727400790318825
 20
227.4537679800926071
 30
0.0
 11
3611.0368450103251234
 21
227.4537679800926071
 31
0.0
  0
LINE
  5
BF02
  8
0
 10
3611.174742006687211
 20
224.8553424098925859
 30
0.0
 11
3611.0371574112250528
 21
224.8553424098925859
 31
0.0
  0
LINE
  5
BF03
  8
0
 10
3608.4158294809199106
 20
228.7614217506059049
 30
0.0
 11
3606.1944592567228938
 21
228.7614217506059049
 31
0.0
  0
LINE
  5
BF04
  8
0
 10
3606.2806544266818491
 20
227.3475581004884134
 30
0.0
 11
3605.5608910471851232
 21
227.3475581004884134
 31
0.0
  0
LINE
  5
BF06
  8
0
 10
3611.1924109620817944
 20
268.5668833295068225
 30
0.0
 11
3611.1924109620817944
 21
266.0862072493245023
 31
0.0
  0
LINE
  5
BF07
  8
0
 10
3611.1924109620817944
 20
237.7007487060820097
 30
0.0
 11
3611.1924109620817944
 21
235.2200655170250911
 31
0.0
  0
ARC
  5
C4C1
  8
0
 10
3604.7071561091611329
 20
224.5286030886105948
 30
0.0
 40
2.2164624844514642
 50
90.696867694338053
 51
106.8077011111937935
  0
LINE
  5
C4F6
  8
0
 10
3606.1432149642728291
 20
226.8021884501926024
 30
0.0
 11
3606.1432149642728291
 21
226.7430489630719137
 31
0.0
  0
ARC
  5
C5D8
  8
0
 10
3606.539710370767807
 20
276.5686748349925779
 30
0.0
 40
2.362204724399994
 50
0.0
 51
90.0
  0
ARC
  5
C5D9
  8
0
 10
3594.7286867487678137
 20
276.5686748349925779
 30
0.0
 40
2.3622047244000051
 50
90.0
 51
179.9999999999984084
  0
LINE
  5
C90A
  8
0
 10
3603.538371746526991
 20
226.2429670221694096
 30
0.0
 11
3608.2487157133000437
 21
226.2429670221694096
 31
0.0
  0
LINE
  5
C90B
  8
0
 10
3604.6801987480248499
 20
226.7449016347594011
 30
0.0
 11
3605.6859924495079213
 21
226.7449016347594011
 31
0.0
  0
LINE
  5
C90C
  8
0
 10
3606.155683678717196
 20
226.7449016347594011
 30
0.0
 11
3607.0525219715777894
 21
226.7449016347594011
 31
0.0
  0
ARC
  5
C90D
  8
0
 10
3605.9210180588352159
 20
228.2925478036547133
 30
0.0
 40
1.565389951780632
 50
261.3650356027433759
 51
275.1104770115539964
  0
ARC
  5
C90E
  8
0
 10
3605.9235343124628344
 20
228.2644118421281973
 30
0.0
 40
1.537141697616071
 50
275.1104770115539964
 51
278.6864272967557099
  0
LINE
  5
C90F
  8
0
 10
3609.4833119341210477
 20
226.7447004634539951
 30
0.0
 11
3609.2082422668331674
 21
226.7448634350056977
 31
0.0
  0
ARC
  5
C910
  8
0
 10
3609.1681764079871755
 20
225.3962511784729941
 30
0.0
 40
1.349207282635047
 50
88.2983028834412806
 51
107.0777835466169989
  0
ARC
  5
C911
  8
0
 10
3609.0447734074500659
 20
225.8198609391577918
 30
0.0
 40
0.9080588774391944
 50
107.4841039214822018
 51
132.0928271879947999
  0
ARC
  5
C912
  8
0
 10
3609.0669823146508861
 20
225.8081011517890033
 30
0.0
 40
0.9317123888051106
 50
132.6215301626814096
 51
150.4550967503627135
  0
ARC
  5
C913
  8
0
 10
3608.2918230441778178
 20
226.2429382625448113
 30
0.0
 40
0.0431073404718697
 50
145.2105813613476926
 51
199.9586255875059919
  0
ARC
  5
C914
  8
0
 10
3609.4950047229440315
 20
226.5917510347100006
 30
0.0
 40
1.295739769863302
 50
196.2933696134271884
 51
211.9601570122551948
  0
ARC
  5
C915
  8
0
 10
3608.9999971325660226
 20
226.2829143849739921
 30
0.0
 40
0.7122908939948455
 50
211.9601570122551948
 51
248.5612503456027014
  0
ARC
  5
C916
  8
0
 10
3609.0479286796121414
 20
226.5483423209963973
 30
0.0
 40
0.9782772475086851
 50
251.6317141320957091
 51
267.5998764374705843
  0
ARC
  5
C917
  8
0
 10
3609.1752191702021264
 20
228.8237359761967014
 30
0.0
 40
3.2571615573246149
 50
267.0388940781600127
 51
270.5809606953101252
  0
LINE
  5
C918
  8
0
 10
3609.2082451702690378
 20
225.5667418567925893
 30
0.0
 11
3609.5034486058771108
 21
225.5667418567925893
 31
0.0
  0
LINE
  5
C919
  8
0
 10
3610.8888227666948296
 20
224.9304311221474961
 30
0.0
 11
3610.8888227666948296
 21
227.3686090542304044
 31
0.0
  0
LINE
  5
C91A
  8
0
 10
3606.539710370767807
 20
278.930879559392622
 30
0.0
 11
3594.7286867487678137
 21
278.930879559392622
 31
0.0
  0
ENDSEC
  0
EOF
