  0
SECTION
  2
HEADER
  9
$ACADVER
  1
AC1009
  9
$INSBASE
 10
398.1761449961625203
 20
96.0069425806003807
 30
0.0
  9
$EXTMIN
 10
397.2903231491479801
 20
86.6783451245832453
 30
-0.0000000349181948
  9
$EXTMAX
 10
400.6834582540088263
 20
96.8778842151092476
 30
0.0000000814935746
  9
$LIMMIN
 10
0.0
 20
0.0
  9
$LIMMAX
 10
11.6929133858000007
 20
8.2677165353999982
  9
$ORTHOMODE
 70
     0
  9
$REGENMODE
 70
     1
  9
$FILLMODE
 70
     1
  9
$QTEXTMODE
 70
     0
  9
$MIRRTEXT
 70
     0
  9
$DRAGMODE
 70
     2
  9
$LTSCALE
 40
0.6431102362
  9
$OSMODE
 70
  4095
  9
$ATTMODE
 70
     1
  9
$TEXTSIZE
 40
0.2
  9
$TRACEWID
 40
0.05
  9
$TEXTSTYLE
  7
STANDARD
  9
$CLAYER
  8
0
  9
$CELTYPE
  6
BYLAYER
  9
$CECOLOR
 62
   256
  9
$DIMSCALE
 40
1.0
  9
$DIMASZ
 40
0.1875
  9
$DIMEXO
 40
0.0625
  9
$DIMDLI
 40
0.4443307087
  9
$DIMRND
 40
0.0
  9
$DIMDLE
 40
0.0
  9
$DIMEXE
 40
0.125
  9
$DIMTP
 40
0.01
  9
$DIMTM
 40
0.01
  9
$DIMTXT
 40
1.0
  9
$DIMCEN
 40
0.1052362205
  9
$DIMTSZ
 40
0.0
  9
$DIMTOL
 70
     1
  9
$DIMLIM
 70
     0
  9
$DIMTIH
 70
     0
  9
$DIMTOH
 70
     1
  9
$DIMSE1
 70
     0
  9
$DIMSE2
 70
     0
  9
$DIMTAD
 70
     0
  9
$DIMZIN
 70
     0
  9
$DIMBLK
  1

  9
$DIMASO
 70
     1
  9
$DIMSHO
 70
     1
  9
$DIMPOST
  1
\X
  9
$DIMAPOST
  1

  9
$DIMALT
 70
     1
  9
$DIMALTD
 70
     2
  9
$DIMALTF
 40
25.3999999999999986
  9
$DIMLFAC
 40
1.0
  9
$DIMTOFL
 70
     0
  9
$DIMTVP
 40
0.0
  9
$DIMTIX
 70
     0
  9
$DIMSOXD
 70
     0
  9
$DIMSAH
 70
     0
  9
$DIMBLK1
  1

  9
$DIMBLK2
  1

  9
$DIMSTYLE
  2
STANDARD
  9
$DIMCLRD
 70
     0
  9
$DIMCLRE
 70
     0
  9
$DIMCLRT
 70
     0
  9
$DIMTFAC
 40
1.0
  9
$DIMGAP
 40
0.09
  9
$LUNITS
 70
     2
  9
$LUPREC
 70
     4
  9
$SKETCHINC
 40
0.1
  9
$FILLETRAD
 40
0.0
  9
$AUNITS
 70
     0
  9
$AUPREC
 70
     0
  9
$MENU
  1
.
  9
$ELEVATION
 40
0.0
  9
$PELEVATION
 40
0.0
  9
$THICKNESS
 40
0.0
  9
$LIMCHECK
 70
     0
  9
$BLIPMODE
 70
     0
  9
$CHAMFERA
 40
0.0
  9
$CHAMFERB
 40
0.0
  9
$SKPOLY
 70
     0
  9
$TDCREATE
 40
2458172.5207638889551163
  9
$TDUPDATE
 40
2459054.9004513891413808
  9
$TDINDWG
 40
0.269823588
  9
$TDUSRTIMER
 40
0.269823588
  9
$USRTIMER
 70
     1
  9
$ANGBASE
 50
0.0
  9
$ANGDIR
 70
     0
  9
$PDMODE
 70
     0
  9
$PDSIZE
 40
0.3125
  9
$PLINEWID
 40
0.0
  9
$COORDS
 70
     1
  9
$SPLFRAME
 70
     0
  9
$SPLINETYPE
 70
     6
  9
$SPLINESEGS
 70
     8
  9
$ATTDIA
 70
     1
  9
$ATTREQ
 70
     1
  9
$HANDLING
 70
     1
  9
$HANDSEED
  5
E8BD
  9
$SURFTAB1
 70
     6
  9
$SURFTAB2
 70
     6
  9
$SURFTYPE
 70
     6
  9
$SURFU
 70
     6
  9
$SURFV
 70
     6
  9
$UCSNAME
  2

  9
$UCSORG
 10
0.0
 20
0.0
 30
0.0
  9
$UCSXDIR
 10
1.0
 20
0.0
 30
0.0
  9
$UCSYDIR
 10
0.0
 20
1.0
 30
0.0
  9
$PUCSNAME
  2

  9
$PUCSORG
 10
0.0
 20
0.0
 30
0.0
  9
$PUCSXDIR
 10
1.0
 20
0.0
 30
0.0
  9
$PUCSYDIR
 10
0.0
 20
1.0
 30
0.0
  9
$USERI1
 70
     0
  9
$USERI2
 70
     0
  9
$USERI3
 70
     0
  9
$USERI4
 70
     0
  9
$USERI5
 70
     0
  9
$USERR1
 40
0.0
  9
$USERR2
 40
0.0
  9
$USERR3
 40
0.0
  9
$USERR4
 40
0.0
  9
$USERR5
 40
0.0
  9
$WORLDVIEW
 70
     1
  9
$SHADEDGE
 70
     3
  9
$SHADEDIF
 70
    70
  9
$TILEMODE
 70
     1
  9
$MAXACTVP
 70
    64
  9
$PLIMCHECK
 70
     0
  9
$PEXTMIN
 10
1.0000000000000000E+20
 20
1.0000000000000000E+20
 30
1.0000000000000000E+20
  9
$PEXTMAX
 10
-1.0000000000000000E+20
 20
-1.0000000000000000E+20
 30
-1.0000000000000000E+20
  9
$PLIMMIN
 10
0.0
 20
0.0
  9
$PLIMMAX
 10
12.0
 20
9.0
  9
$UNITMODE
 70
     0
  9
$VISRETAIN
 70
     1
  9
$PLINEGEN
 70
     0
  9
$PSLTSCALE
 70
     1
  0
ENDSEC
  0
SECTION
  2
TABLES
  0
TABLE
  2
VPORT
 70
     1
  0
VPORT
  2
*ACTIVE
 70
     0
 10
0.0
 20
0.0
 11
1.0
 21
1.0
 12
-30.6423984064753085
 22
22.0755731576275593
 13
0.0
 23
0.0
 14
1.0
 24
1.0
 15
0.0
 25
0.0
 16
0.0
 26
0.0
 36
14.6338572656650907
 17
429.6292891080536833
 27
69.7025415122186871
 37
0.0
 40
10.2844173631239997
 41
2.6486111111111108
 42
50.0
 43
0.0
 44
0.0
 50
0.0
 51
0.0
 71
     0
 72
   100
 73
     1
 74
     1
 75
     0
 76
     0
 77
     0
 78
     0
  0
ENDTAB
  0
TABLE
  2
LTYPE
 70
     2
  0
LTYPE
  2
CONTINUOUS
 70
     0
  3
Solid line
 72
    65
 73
     0
 40
0.0
  0
LTYPE
  2
PHANTOM2
 70
     0
  3
___ _ _ ___ _ _ ___ _ _ ___ _ _
 72
    65
 73
     6
 40
1.25
 49
0.625
 49
-0.125
 49
0.125
 49
-0.125
 49
0.125
 49
-0.125
  0
ENDTAB
  0
TABLE
  2
LAYER
 70
     2
  0
LAYER
  2
0
 70
     0
 62
   255
  6
CONTINUOUS
  0
LAYER
  2
DEFPOINTS
 70
     0
 62
     7
  6
CONTINUOUS
  0
ENDTAB
  0
TABLE
  2
STYLE
 70
     1
  0
STYLE
  2
STANDARD
 70
     0
 40
0.0
 41
0.8
 50
0.0
 71
     0
 42
0.2
  3
txt
  4

  0
ENDTAB
  0
TABLE
  2
VIEW
 70
     0
  0
ENDTAB
  0
TABLE
  2
UCS
 70
     0
  0
ENDTAB
  0
TABLE
  2
APPID
 70
    10
  0
APPID
  2
ACAD
 70
     0
  0
APPID
  2
ACAD_MLEADERVER
 70
     0
  0
APPID
  2
ACAD_EXEMPT_FROM_CAD_STANDARDS
 70
     0
  0
APPID
  2
ACAD_DSTYLE_DIMJAG
 70
     0
  0
APPID
  2
ACAD_DSTYLE_DIMTALN
 70
     0
  0
APPID
  2
ACAD_NAV_VCDISPLAY
 70
     0
  0
APPID
  2
ACAECLAYERSTANDARD
 70
     0
  0
APPID
  2
ACCMTRANSPARENCY
 70
     0
  0
APPID
  2
DCO15
 70
     0
  0
APPID
  2
ACDBATTR
 70
     0
  0
ENDTAB
  0
TABLE
  2
DIMSTYLE
 70
     1
  0
DIMSTYLE
  2
STANDARD
 70
     0
  3

  4

  5

  6

  7

 40
1.0
 41
0.1875
 42
0.0625
 43
0.38
 44
0.125
 45
0.0
 46
0.0
 47
0.01
 48
0.01
140
0.15625
141
0.09
142
0.0
143
25.3999999999999986
144
1.0
145
0.0
146
1.0
147
0.09
 71
     1
 72
     0
 73
     1
 74
     1
 75
     0
 76
     0
 77
     0
 78
     4
170
     0
171
     2
172
     0
173
     0
174
     0
175
     0
176
     0
177
     0
178
     0
  0
ENDTAB
  0
ENDSEC
  0
SECTION
  2
BLOCKS
  0
BLOCK
  8
0
  2
$MODEL_SPACE
 70
     0
 10
0.0
 20
0.0
 30
0.0
  3
$MODEL_SPACE
  1

  0
ENDBLK
  5
21
  8
0
  0
BLOCK
 67
     1
  8
0
  2
$PAPER_SPACE
 70
     0
 10
0.0
 20
0.0
 30
0.0
  3
$PAPER_SPACE
  1

  0
ENDBLK
  5
1D
 67
     1
  8
0
  0
BLOCK
  8
0
  2
_FILLED
 70
     0
 10
0.0
 20
0.0
 30
0.0
  3
_FILLED
  1

  0
SOLID
  5
87E2
  8
0
  6
BYBLOCK
 62
     0
 10
0.0
 20
0.0
 30
0.0
 11
-1.0
 21
0.1666666667
 31
0.0
 12
-1.0
 22
-0.1666666667
 32
0.0
 13
-1.0
 23
-0.1666666667
 33
0.0
  0
ENDBLK
  5
87E3
  8
0
  6
BYBLOCK
 62
     0
  0
ENDSEC
  0
SECTION
  2
ENTITIES
  0
ATTDEF
  5
E050
  8
DEFPOINTS
 10
398.1765950559026237
 20
96.0105996698327289
 30
0.0
 40
0.001
  1
K-99480T-4E
  3

  2
MODELNUMBER
 70
     0
1001
ACDBATTR
1070
     0
1070
     1
  0
ATTDEF
  5
E051
  8
DEFPOINTS
 10
398.1765950559026237
 20
96.0089330031660637
 30
0.0
 40
0.001
  1
KUMIN
  3

  2
TRADENAME
 70
     0
1001
ACDBATTR
1070
     0
1070
     1
  0
ATTDEF
  5
E052
  8
DEFPOINTS
 10
398.1765950559026237
 20
96.0072663364994128
 30
0.0
 40
0.001
  1
KITCHEN SINK FAUCET
  3

  2
PRODUCT
 70
     0
1001
ACDBATTR
1070
     0
1070
     1
  0
LINE
  5
E52D
  8
0
 10
397.7233890872579991
 20
87.13241783309536
 30
0.0
 11
397.7233890872579991
 21
96.0069425806489392
 31
0.0
  0
ARC
  5
E52F
  8
0
 10
400.4162271906330943
 20
96.624340368631465
 30
0.0
 40
0.0864057828448235
 50
39.4952395343807794
 51
52.2655488927963603
  0
ARC
  5
E530
  8
0
 10
399.406291969829681
 20
95.7924221779001357
 30
0.0
 40
1.3948617500963321
 50
37.4128467678996302
 51
39.4804292060552129
  0
ARC
  5
E531
  8
0
 10
399.9291286583675742
 20
96.2367591581922568
 30
0.0
 40
0.7105014135905457
 50
29.7740859422582282
 51
34.5669909905635819
  0
ARC
  5
E532
  8
0
 10
400.013756605431297
 20
96.285175223413674
 30
0.0
 40
0.6130026710563464
 50
15.4873994020856394
 51
29.7740859422582282
  0
ARC
  5
E533
  8
0
 10
398.625376259783593
 20
95.9004720753011952
 30
0.0
 40
2.0536957321727272
 50
12.4972295582707993
 51
15.4873994020856394
  0
ARC
  5
E534
  8
0
 10
399.1169585786622065
 20
96.051976781426049
 30
0.0
 40
1.5415360681650769
 50
3.6858540482205302
 51
10.9530720178991405
  0
ARC
  5
E535
  8
0
 10
398.4444759021627078
 20
96.0066333240199583
 30
0.0
 40
2.2155435937060339
 50
356.6970829501020148
 51
3.7380539399579402
  0
ARC
  5
E536
  8
0
 10
399.1221495846282892
 20
95.962412875678055
 30
0.0
 40
1.5364563247292859
 50
348.3744856617581149
 51
356.8873756708072733
  0
ARC
  5
E537
  8
0
 10
399.4172571106104215
 20
95.9328087872641362
 30
0.0
 40
1.241811019476257
 50
338.9582577399634147
 51
346.9684209503543002
  0
ARC
  5
E538
  8
0
 10
400.1304141247554753
 20
95.6584571695295836
 30
0.0
 40
0.4777025605661775
 50
323.4730035296436199
 51
338.9582577399634147
  0
ARC
  5
E539
  8
0
 10
399.8805587280843952
 20
95.8435226872767458
 30
0.0
 40
0.7886317568548579
 50
319.9612575542558943
 51
323.4730035296436199
  0
ARC
  5
E53A
  8
0
 10
400.4099744876502882
 20
95.3986797392664556
 30
0.0
 40
0.0971360628181554
 50
303.8662524803971223
 51
319.9612575542553259
  0
ARC
  5
E53B
  8
0
 10
400.4481997085018747
 20
95.3463137501570088
 30
0.0
 40
0.0324542348414376
 50
272.5897000291730023
 51
299.3443699962696769
  0
ARC
  5
E53C
  8
0
 10
400.4467223883303859
 20
95.3797720128291502
 30
0.0
 40
0.0659450870252222
 50
267.1494411255284263
 51
272.5584679789687925
  0
ARC
  5
E53D
  8
0
 10
399.9380316639342823
 20
67.330210226051193
 30
0.0
 40
27.9882620196858305
 50
88.9652982811558957
 51
90.3450856556321042
  0
ARC
  5
E53E
  8
0
 10
399.7691697431822035
 20
95.3326408776302543
 30
0.0
 40
0.0146791926728422
 50
180.6340977424900132
 51
271.1436009003190861
  0
LINE
  5
E53F
  8
0
 10
399.7544914494579871
 20
95.3324784249503807
 30
0.0
 11
399.7544914494579871
 21
96.6823778691503719
 31
0.0
  0
ARC
  5
E540
  8
0
 10
399.7691086738195168
 20
96.681256234167293
 30
0.0
 40
0.0146601948510835
 50
89.7115612067312753
 51
175.6120765081464867
  0
LINE
  5
E541
  8
0
 10
399.7691824759580186
 20
96.6959162432503803
 30
0.0
 11
400.4434386054068113
 21
96.6999738579384029
 31
0.0
  0
ARC
  5
E542
  8
0
 10
400.4479516333113907
 20
96.5782868262297285
 30
0.0
 40
0.1217706906728368
 50
91.5290440159892569
 51
92.1239649920858454
  0
ARC
  5
E543
  8
0
 10
400.4457871571261762
 20
96.659374032890824
 30
0.0
 40
0.0406546007691963
 50
54.9964158255320612
 51
91.5290440159892569
  0
LINE
  5
E544
  8
0
 10
399.6723815061579899
 20
96.6762327831503683
 30
0.0
 11
399.6723815061579899
 21
95.3376501059503738
 31
0.0
  0
ARC
  5
E545
  8
0
 10
399.652696466758016
 20
95.3376501059503738
 30
0.0
 40
0.0196850393999988
 50
269.9999999999935199
 51
0.0
  0
LINE
  5
E546
  8
0
 10
399.652696466758016
 20
95.3179650665503857
 30
0.0
 11
398.879753759929315
 21
95.3179650665504425
 31
0.0
  0
ARC
  5
E547
  8
0
 10
398.8421221249978998
 20
94.2775798660189821
 30
0.0
 40
1.0410655625043499
 50
87.9284650710275031
 51
101.8184099643285947
  0
ARC
  5
E548
  8
0
 10
398.1761449927648755
 20
96.0069414445394074
 30
0.0
 40
0.8661417322870216
 50
301.5274034965872261
 51
306.0768134490118086
  0
ARC
  5
E549
  8
0
 10
399.6006264062579021
 20
96.2401845410507661
 30
0.0
 40
0.8661417323003977
 50
274.7521042683003998
 51
280.2325702845319029
  0
ARC
  5
E54A
  8
0
 10
399.6006264062580726
 20
95.773698348051596
 30
0.0
 40
0.8661417322987738
 50
79.7674297154616454
 51
85.2478957317029966
  0
ARC
  5
E54B
  8
0
 10
399.652696466758016
 20
96.6762327831503967
 30
0.0
 40
0.0196850394000006
 50
359.9999999999789111
 51
90.0
  0
LINE
  5
E54C
  8
0
 10
399.652696466758016
 20
96.6959178225503848
 30
0.0
 11
398.8797581689439085
 21
96.6959178225501859
 31
0.0
  0
ARC
  5
E54D
  8
0
 10
398.8371916185579948
 20
97.6665043557363362
 30
0.0
 40
0.9715194952311083
 50
258.1777155867021065
 51
272.5111844838156117
  0
ARC
  5
E54E
  8
0
 10
398.1761449927578838
 20
96.0069414444503764
 30
0.0
 40
0.8661417323999991
 50
53.8959867757104689
 51
238.484630003555111
  0
ARC
  5
E54F
  8
0
 10
398.1761449927578838
 20
96.0069414444503764
 30
0.0
 40
0.8661417323999991
 50
301.5153700042043283
 51
306.0768134758694146
  0
ARC
  5
E550
  8
0
 10
398.1761449928080197
 20
96.0069425806003807
 30
0.0
 40
0.4527559055499975
 50
0.0000000061473761
 51
179.9999999938517874
  0
ARC
  5
E551
  8
0
 10
398.1791233183968757
 20
87.1349753634228534
 30
0.0
 40
0.4557414073717008
 50
179.6784657691650864
 51
269.6255628609420114
  0
LINE
  5
E552
  8
0
 10
398.6289008983579834
 20
87.1324280298855456
 30
0.0
 11
398.6289008983579834
 21
96.0069425806489392
 31
0.0
  0
ARC
  5
E553
  8
0
 10
398.1731666106142029
 20
87.1349753624995458
 30
0.0
 40
0.4557414068621728
 50
270.3744450994694262
 51
0.3215480171682034
  0
ARC
  5
E554
  8
0
 10
398.0312875628958977
 20
96.0065925913706479
 30
0.0
 40
0.788745004626982
 50
319.2597648382302964
 51
37.5563173151933967
  0
ARC
  5
E555
  8
0
 10
397.8312710754706814
 20
95.852801949264375
 30
0.0
 40
1.041050685976709
 50
37.5563173151933967
 51
52.57178134471242
  0
ARC
  5
E556
  8
0
 10
399.1354869119739988
 20
97.5569053731632607
 30
0.0
 40
1.1048634380109981
 50
227.069939657988499
 51
232.5717813447124058
  0
ARC
  5
E557
  8
0
 10
398.4128450665435253
 20
96.7800678632742262
 30
0.0
 40
0.0438791056394251
 50
195.4423330237621883
 51
227.0699396579925917
  0
ARC
  5
E558
  8
0
 10
398.3805621645835799
 20
96.7711500034331351
 30
0.0
 40
0.0103871068472035
 50
126.6626756793930042
 51
195.4423330237654
  0
ARC
  5
E559
  8
0
 10
398.3984129914360892
 20
96.7471686945466445
 30
0.0
 40
0.0402828455941415
 50
91.6408937756995812
 51
126.6626756793934021
  0
ARC
  5
E55A
  8
0
 10
398.4134631932143975
 20
96.5255491642265753
 30
0.0
 40
0.262386665518041
 50
75.7961661471588712
 51
93.540557208444497
  0
ARC
  5
E55B
  8
0
 10
398.3767889632657102
 20
96.3165888283239013
 30
0.0
 40
0.4742183248687095
 50
65.0531385533491431
 51
77.6958295799028917
  0
ARC
  5
E55C
  8
0
 10
398.1252228553880173
 20
95.7757946660155852
 30
0.0
 40
1.0706609730919301
 50
61.3749878455204225
 51
65.0531385533491431
  0
ARC
  5
E55D
  8
0
 10
400.6267934230385777
 20
96.5159866411124483
 30
0.0
 40
0.2457426000251951
 50
132.5002168366976036
 51
146.7023203454282054
  0
ARC
  5
E55E
  8
0
 10
400.4746326850951164
 20
96.5965970476916738
 30
0.0
 40
0.0760443899342524
 50
134.4345236878687899
 51
145.3100923137934899
  0
ARC
  5
E55F
  8
0
 10
400.9088285918621182
 20
96.2926228180484145
 30
0.0
 40
0.6060683670393382
 50
145.0430132684242892
 51
159.4169041872727917
  0
ARC
  5
E560
  8
0
 10
401.2302716686741064
 20
95.8518208651179151
 30
0.0
 40
0.9526777231708781
 50
189.6308859511252933
 51
203.603898932009912
  0
ARC
  5
E561
  8
0
 10
400.887439163807187
 20
95.7081292610252632
 30
0.0
 40
0.5810194084235086
 50
204.1565639339301867
 51
215.0395839768183066
  0
ARC
  5
E562
  8
0
 10
400.5270208406781762
 20
95.4566038916370871
 30
0.0
 40
0.1415170467112981
 50
215.4418559312597097
 51
223.2919830859796093
  0
ARC
  5
E563
  8
0
 10
402.0345991131400751
 20
96.6157253598971835
 30
0.0
 40
2.0425235827406878
 50
217.9521582106511062
 51
219.5274300964159977
  0
LINE
  5
E564
  8
0
 10
400.4120309351579863
 20
96.6397696944840447
 30
0.0
 11
400.4120309351579863
 21
95.3741151279276238
 31
0.0
  0
LINE
  5
E565
  8
0
 10
400.5142810254283177
 20
96.6390785713900158
 30
0.0
 11
400.5142810254283177
 21
95.3741229666286188
 31
0.0
  0
ARC
  5
E566
  8
0
 10
403.0044833848768917
 20
95.843992050639045
 30
0.0
 40
2.744011711190641
 50
166.0458974297021939
 51
176.2642901235273882
  0
ARC
  5
E567
  8
0
 10
408.0938782226248804
 20
96.4424107320905364
 30
0.0
 40
7.8388162758033824
 50
183.0686767328026008
 51
185.4901297750087963
  0
ENDSEC
  0
EOF
