  0
SECTION
  2
HEADER
  9
$ACADVER
  1
AC1009
  9
$INSBASE
 10
405.7188892814385213
 20
96.0542836605704053
 30
0.0
  9
$EXTMIN
 10
404.8408140150216923
 20
86.7226909472062744
 30
-0.0000000349181948
  9
$EXTMAX
 10
408.2033803309520863
 20
96.9222300377323336
 30
0.0000000814935746
  9
$LIMMIN
 10
0.0
 20
0.0
  9
$LIMMAX
 10
11.6929133858000007
 20
8.2677165353999982
  9
$ORTHOMODE
 70
     0
  9
$REGENMODE
 70
     1
  9
$FILLMODE
 70
     1
  9
$QTEXTMODE
 70
     0
  9
$MIRRTEXT
 70
     0
  9
$DRAGMODE
 70
     2
  9
$LTSCALE
 40
0.6431102362
  9
$OSMODE
 70
    37
  9
$ATTMODE
 70
     1
  9
$TEXTSIZE
 40
0.2
  9
$TRACEWID
 40
0.05
  9
$TEXTSTYLE
  7
STANDARD
  9
$CLAYER
  8
0
  9
$CELTYPE
  6
BYLAYER
  9
$CECOLOR
 62
   256
  9
$DIMSCALE
 40
1.0
  9
$DIMASZ
 40
0.1875
  9
$DIMEXO
 40
0.0625
  9
$DIMDLI
 40
0.4443307087
  9
$DIMRND
 40
0.0
  9
$DIMDLE
 40
0.0
  9
$DIMEXE
 40
0.125
  9
$DIMTP
 40
0.01
  9
$DIMTM
 40
0.01
  9
$DIMTXT
 40
1.0
  9
$DIMCEN
 40
0.1052362205
  9
$DIMTSZ
 40
0.0
  9
$DIMTOL
 70
     1
  9
$DIMLIM
 70
     0
  9
$DIMTIH
 70
     0
  9
$DIMTOH
 70
     1
  9
$DIMSE1
 70
     0
  9
$DIMSE2
 70
     0
  9
$DIMTAD
 70
     0
  9
$DIMZIN
 70
     0
  9
$DIMBLK
  1

  9
$DIMASO
 70
     1
  9
$DIMSHO
 70
     1
  9
$DIMPOST
  1
\X
  9
$DIMAPOST
  1

  9
$DIMALT
 70
     1
  9
$DIMALTD
 70
     2
  9
$DIMALTF
 40
25.3999999999999986
  9
$DIMLFAC
 40
1.0
  9
$DIMTOFL
 70
     0
  9
$DIMTVP
 40
0.0
  9
$DIMTIX
 70
     0
  9
$DIMSOXD
 70
     0
  9
$DIMSAH
 70
     0
  9
$DIMBLK1
  1

  9
$DIMBLK2
  1

  9
$DIMSTYLE
  2
STANDARD
  9
$DIMCLRD
 70
     0
  9
$DIMCLRE
 70
     0
  9
$DIMCLRT
 70
     0
  9
$DIMTFAC
 40
1.0
  9
$DIMGAP
 40
0.09
  9
$LUNITS
 70
     2
  9
$LUPREC
 70
     4
  9
$SKETCHINC
 40
0.1
  9
$FILLETRAD
 40
0.0
  9
$AUNITS
 70
     0
  9
$AUPREC
 70
     0
  9
$MENU
  1
.
  9
$ELEVATION
 40
0.0
  9
$PELEVATION
 40
0.0
  9
$THICKNESS
 40
0.0
  9
$LIMCHECK
 70
     0
  9
$BLIPMODE
 70
     0
  9
$CHAMFERA
 40
0.0
  9
$CHAMFERB
 40
0.0
  9
$SKPOLY
 70
     0
  9
$TDCREATE
 40
2458172.5207638889551163
  9
$TDUPDATE
 40
2459376.0070254630409181
  9
$TDINDWG
 40
0.2757958102
  9
$TDUSRTIMER
 40
0.2757958102
  9
$USRTIMER
 70
     1
  9
$ANGBASE
 50
0.0
  9
$ANGDIR
 70
     0
  9
$PDMODE
 70
     0
  9
$PDSIZE
 40
0.3125
  9
$PLINEWID
 40
0.0
  9
$COORDS
 70
     1
  9
$SPLFRAME
 70
     0
  9
$SPLINETYPE
 70
     6
  9
$SPLINESEGS
 70
     8
  9
$ATTDIA
 70
     1
  9
$ATTREQ
 70
     1
  9
$HANDLING
 70
     1
  9
$HANDSEED
  5
E803
  9
$SURFTAB1
 70
     6
  9
$SURFTAB2
 70
     6
  9
$SURFTYPE
 70
     6
  9
$SURFU
 70
     6
  9
$SURFV
 70
     6
  9
$UCSNAME
  2

  9
$UCSORG
 10
0.0
 20
0.0
 30
0.0
  9
$UCSXDIR
 10
1.0
 20
0.0
 30
0.0
  9
$UCSYDIR
 10
0.0
 20
1.0
 30
0.0
  9
$PUCSNAME
  2

  9
$PUCSORG
 10
0.0
 20
0.0
 30
0.0
  9
$PUCSXDIR
 10
1.0
 20
0.0
 30
0.0
  9
$PUCSYDIR
 10
0.0
 20
1.0
 30
0.0
  9
$USERI1
 70
     0
  9
$USERI2
 70
     0
  9
$USERI3
 70
     0
  9
$USERI4
 70
     0
  9
$USERI5
 70
     0
  9
$USERR1
 40
0.0
  9
$USERR2
 40
0.0
  9
$USERR3
 40
0.0
  9
$USERR4
 40
0.0
  9
$USERR5
 40
0.0
  9
$WORLDVIEW
 70
     1
  9
$SHADEDGE
 70
     3
  9
$SHADEDIF
 70
    70
  9
$TILEMODE
 70
     1
  9
$MAXACTVP
 70
    64
  9
$PLIMCHECK
 70
     0
  9
$PEXTMIN
 10
1.0000000000000000E+20
 20
1.0000000000000000E+20
 30
1.0000000000000000E+20
  9
$PEXTMAX
 10
-1.0000000000000000E+20
 20
-1.0000000000000000E+20
 30
-1.0000000000000000E+20
  9
$PLIMMIN
 10
0.0
 20
0.0
  9
$PLIMMAX
 10
12.0
 20
9.0
  9
$UNITMODE
 70
     0
  9
$VISRETAIN
 70
     1
  9
$PLINEGEN
 70
     0
  9
$PSLTSCALE
 70
     1
  0
ENDSEC
  0
SECTION
  2
TABLES
  0
TABLE
  2
VPORT
 70
     1
  0
VPORT
  2
*ACTIVE
 70
     0
 10
0.0
 20
0.0
 11
1.0
 21
1.0
 12
-23.1071919350667905
 22
22.1199189802506204
 13
0.0
 23
0.0
 14
1.0
 24
1.0
 15
0.0
 25
0.0
 16
0.0
 26
0.0
 36
14.6338572656650907
 17
429.6292891080536833
 27
69.7025415122186871
 37
0.0
 40
10.2803808798829301
 41
2.17063492063492
 42
50.0
 43
0.0
 44
0.0
 50
0.0
 51
0.0
 71
     0
 72
   100
 73
     1
 74
     1
 75
     0
 76
     0
 77
     0
 78
     0
  0
ENDTAB
  0
TABLE
  2
LTYPE
 70
     2
  0
LTYPE
  2
CONTINUOUS
 70
     0
  3
Solid line
 72
    65
 73
     0
 40
0.0
  0
LTYPE
  2
PHANTOM2
 70
     0
  3
___ _ _ ___ _ _ ___ _ _ ___ _ _
 72
    65
 73
     6
 40
1.25
 49
0.625
 49
-0.125
 49
0.125
 49
-0.125
 49
0.125
 49
-0.125
  0
ENDTAB
  0
TABLE
  2
LAYER
 70
     2
  0
LAYER
  2
0
 70
     0
 62
   255
  6
CONTINUOUS
  0
LAYER
  2
DEFPOINTS
 70
     0
 62
     7
  6
CONTINUOUS
  0
ENDTAB
  0
TABLE
  2
STYLE
 70
     1
  0
STYLE
  2
STANDARD
 70
     0
 40
0.0
 41
0.8
 50
0.0
 71
     0
 42
0.2
  3
txt
  4

  0
ENDTAB
  0
TABLE
  2
VIEW
 70
     1
  0
ENDTAB
  0
TABLE
  2
UCS
 70
     0
  0
ENDTAB
  0
TABLE
  2
APPID
 70
    10
  0
APPID
  2
ACAD
 70
     0
  0
APPID
  2
ACAD_MLEADERVER
 70
     0
  0
APPID
  2
ACAD_EXEMPT_FROM_CAD_STANDARDS
 70
     0
  0
APPID
  2
ACAD_DSTYLE_DIMJAG
 70
     0
  0
APPID
  2
ACAD_DSTYLE_DIMTALN
 70
     0
  0
APPID
  2
ACAD_NAV_VCDISPLAY
 70
     0
  0
APPID
  2
ACAECLAYERSTANDARD
 70
     0
  0
APPID
  2
ACCMTRANSPARENCY
 70
     0
  0
APPID
  2
DCO15
 70
     0
  0
APPID
  2
ACDBATTR
 70
     0
  0
ENDTAB
  0
TABLE
  2
DIMSTYLE
 70
     1
  0
DIMSTYLE
  2
STANDARD
 70
     0
  3

  4

  5

  6

  7

 40
1.0
 41
0.1875
 42
0.0625
 43
0.38
 44
0.125
 45
0.0
 46
0.0
 47
0.01
 48
0.01
140
0.15625
141
0.09
142
0.0
143
25.3999999999999986
144
1.0
145
0.0
146
1.0
147
0.09
 71
     1
 72
     0
 73
     1
 74
     1
 75
     0
 76
     0
 77
     0
 78
     4
170
     0
171
     2
172
     0
173
     0
174
     0
175
     0
176
     0
177
     0
178
     0
  0
ENDTAB
  0
ENDSEC
  0
SECTION
  2
BLOCKS
  0
BLOCK
  8
0
  2
$MODEL_SPACE
 70
     0
 10
0.0
 20
0.0
 30
0.0
  3
$MODEL_SPACE
  1

  0
ENDBLK
  5
21
  8
0
  0
BLOCK
 67
     1
  8
0
  2
$PAPER_SPACE
 70
     0
 10
0.0
 20
0.0
 30
0.0
  3
$PAPER_SPACE
  1

  0
ENDBLK
  5
1D
 67
     1
  8
0
  0
ENDSEC
  0
SECTION
  2
ENTITIES
  0
ATTDEF
  5
E050
  8
DEFPOINTS
 10
405.7130804503024137
 20
96.0507185482818215
 30
0.0
 40
0.001
  1
K-99480T-4
  3

  2
MODELNUMBER
 70
     0
1001
ACDBATTR
1070
     0
1070
     1
  0
ATTDEF
  5
E051
  8
DEFPOINTS
 10
405.7130804503024137
 20
96.0490518816151564
 30
0.0
 40
0.001
  1
KUMIN
  3

  2
TRADENAME
 70
     0
1001
ACDBATTR
1070
     0
1070
     1
  0
ATTDEF
  5
E052
  8
DEFPOINTS
 10
405.7130804503024137
 20
96.047385214948477
 30
0.0
 40
0.001
  1
KITCHEN SINK FAUCET
  3

  2
PRODUCT
 70
     0
1001
ACDBATTR
1070
     0
1070
     1
  0
LINE
  5
E772
  8
0
 10
405.2661333758885007
 20
87.1797589130653847
 30
0.0
 11
405.2661333758885007
 21
96.0542836606189638
 31
0.0
  0
ARC
  5
E773
  8
0
 10
407.9589714792637096
 20
96.6716814486014755
 30
0.0
 40
0.0864057828448235
 50
39.4952395343807794
 51
52.2655488927963603
  0
ARC
  5
E774
  8
0
 10
406.9490362584602963
 20
95.8397632578701604
 30
0.0
 40
1.3948617500963321
 50
37.4128467678989765
 51
39.4804292060552129
  0
ARC
  5
E775
  8
0
 10
407.4718729469981895
 20
96.2841002381622673
 30
0.0
 40
0.7105014135905457
 50
29.7740859422582282
 51
34.5669909905635819
  0
ARC
  5
E776
  8
0
 10
407.5565008940619123
 20
96.3325163033836844
 30
0.0
 40
0.6130026710563464
 50
15.4873994020864192
 51
29.7740859422582282
  0
ARC
  5
E777
  8
0
 10
406.1681205484140946
 20
95.9478131552712057
 30
0.0
 40
2.0536957321727272
 50
12.4972295582707993
 51
15.4873994020864192
  0
ARC
  5
E778
  8
0
 10
406.6597028672928786
 20
96.0993178613960737
 30
0.0
 40
1.5415360681650769
 50
3.6858540482205302
 51
10.9530720178991405
  0
ARC
  5
E779
  8
0
 10
405.9872201907933231
 20
96.053974403989983
 30
0.0
 40
2.2155435937060339
 50
356.6970829501020148
 51
3.7380539399579402
  0
ARC
  5
E77A
  8
0
 10
406.6648938732589045
 20
96.0097539556480655
 30
0.0
 40
1.5364563247292859
 50
348.3744856617581149
 51
356.8873756708072733
  0
ARC
  5
E77B
  8
0
 10
406.9600013992410936
 20
95.9801498672341609
 30
0.0
 40
1.241811019476257
 50
338.9582577399634147
 51
346.9684209503543002
  0
ARC
  5
E77C
  8
0
 10
407.6731584133860906
 20
95.7057982494996082
 30
0.0
 40
0.4777025605661775
 50
323.4730035296436199
 51
338.9582577399634147
  0
ARC
  5
E77D
  8
0
 10
407.4233030167150105
 20
95.8908637672467847
 30
0.0
 40
0.7886317568548579
 50
319.9612575542565196
 51
323.4730035296436199
  0
ARC
  5
E77E
  8
0
 10
407.9527187762810172
 20
95.4460208192364661
 30
0.0
 40
0.0971360628181554
 50
303.8662524803971223
 51
319.9612575542565196
  0
ARC
  5
E77F
  8
0
 10
407.99094399713249
 20
95.3936548301270335
 30
0.0
 40
0.0324542348414376
 50
272.5897000291730023
 51
299.3443699962700748
  0
ARC
  5
E780
  8
0
 10
407.9894666769611149
 20
95.4271130927991749
 30
0.0
 40
0.0659450870252222
 50
267.1494411255284263
 51
272.5584679789687925
  0
ARC
  5
E781
  8
0
 10
407.4807759525648976
 20
67.3775513060212035
 30
0.0
 40
27.9882620196858305
 50
88.9652982811558957
 51
90.3450856556321042
  0
ARC
  5
E782
  8
0
 10
407.3119140318127052
 20
95.379981957600279
 30
0.0
 40
0.0146791926728422
 50
180.6340977424900132
 51
271.1436009003190861
  0
LINE
  5
E783
  8
0
 10
407.2972357380886024
 20
95.3798195049204054
 30
0.0
 11
407.2972357380886024
 21
96.7297189491203966
 31
0.0
  0
ARC
  5
E784
  8
0
 10
407.3118529624500752
 20
96.7285973141373177
 30
0.0
 40
0.0146601948510835
 50
89.7115612067312753
 51
175.6120765081464867
  0
LINE
  5
E785
  8
0
 10
407.311926764588577
 20
96.7432573232204049
 30
0.0
 11
407.9861828940374835
 21
96.7473149379084418
 31
0.0
  0
ARC
  5
E786
  8
0
 10
407.9906959219421196
 20
96.6256279061997532
 30
0.0
 40
0.1217706906728368
 50
91.5290440159892569
 51
92.1239649920858454
  0
ARC
  5
E787
  8
0
 10
407.9885314457569052
 20
96.7067151128608486
 30
0.0
 40
0.0406546007691963
 50
54.9964158255320612
 51
91.5290440159892569
  0
LINE
  5
E788
  8
0
 10
407.2151257947886052
 20
96.723573863120393
 30
0.0
 11
407.2151257947886052
 21
95.3849911859203985
 31
0.0
  0
ARC
  5
E789
  8
0
 10
407.1954407553885744
 20
95.3849911859203985
 30
0.0
 40
0.0196850393999988
 50
269.9999999999935199
 51
0.0
  0
LINE
  5
E78A
  8
0
 10
407.1954407553885744
 20
95.3653061465204246
 30
0.0
 11
406.4224980485598735
 21
95.3653061465204672
 31
0.0
  0
ARC
  5
E78B
  8
0
 10
406.3848664136285151
 20
94.3249209459890068
 30
0.0
 40
1.0410655625043499
 50
87.9284650710275031
 51
101.8184099643283957
  0
ARC
  5
E78C
  8
0
 10
405.7188892813956045
 20
96.0542825245094321
 30
0.0
 40
0.8661417322870216
 50
301.5274034965872261
 51
306.0768134490122065
  0
ARC
  5
E78D
  8
0
 10
407.1433706948885174
 20
96.2875256210207908
 30
0.0
 40
0.8661417323003977
 50
274.7521042683003998
 51
280.2325702845319029
  0
ARC
  5
E78E
  8
0
 10
407.1433706948886879
 20
95.8210394280216065
 30
0.0
 40
0.8661417322987738
 50
79.7674297154616454
 51
85.2478957317029966
  0
ARC
  5
E78F
  8
0
 10
407.1954407553885744
 20
96.7235738631204072
 30
0.0
 40
0.0196850394000006
 50
359.9999999999789111
 51
90.0
  0
LINE
  5
E790
  8
0
 10
407.1954407553885744
 20
96.7432589025203953
 30
0.0
 11
406.4225024575745238
 21
96.7432589025202105
 31
0.0
  0
ARC
  5
E791
  8
0
 10
406.3799359071886101
 20
97.7138454357063608
 30
0.0
 40
0.9715194952311083
 50
258.1777155867021065
 51
272.5111844838156117
  0
ARC
  5
E792
  8
0
 10
405.7188892813884991
 20
96.054282524420401
 30
0.0
 40
0.8661417323999991
 50
53.8959867757109379
 51
238.484630003555111
  0
ARC
  5
E793
  8
0
 10
405.7188892813884991
 20
96.054282524420401
 30
0.0
 40
0.8661417323999991
 50
301.5153700042038736
 51
306.0768134758699262
  0
ARC
  5
E794
  8
0
 10
405.7188892814385213
 20
96.0542836605704053
 30
0.0
 40
0.4527559055499975
 50
0.0000000061473761
 51
179.9999999938517874
  0
ARC
  5
E795
  8
0
 10
405.721867607027491
 20
87.1823164433928781
 30
0.0
 40
0.4557414073717008
 50
179.6784657691650864
 51
269.6255628609420114
  0
LINE
  5
E796
  8
0
 10
406.1716451869885987
 20
87.1797691098555703
 30
0.0
 11
406.1716451869885987
 21
96.0542836606189638
 31
0.0
  0
ARC
  5
E797
  8
0
 10
405.7159108992448751
 20
87.1823164424695705
 30
0.0
 40
0.4557414068621728
 50
270.3744450994694262
 51
0.3215480171682034
  0
ARC
  5
E798
  8
0
 10
405.574031851526513
 20
96.0539336713406868
 30
0.0
 40
0.788745004626982
 50
319.2597648382302964
 51
37.5563173151933967
  0
ARC
  5
E799
  8
0
 10
405.3740153641014103
 20
95.9001430292344139
 30
0.0
 40
1.041050685976709
 50
37.5563173151933967
 51
52.5717813447129174
  0
ARC
  5
E79A
  8
0
 10
406.6782312006047277
 20
97.6042464531332854
 30
0.0
 40
1.1048634380109981
 50
227.069939657988499
 51
232.571781344712889
  0
ARC
  5
E79B
  8
0
 10
405.9555893551740837
 20
96.8274089432442508
 30
0.0
 40
0.0438791056394251
 50
195.4423330237621883
 51
227.0699396579925917
  0
ARC
  5
E79C
  8
0
 10
405.9233064532141952
 20
96.8184910834031456
 30
0.0
 40
0.0103871068472035
 50
126.6626756793930042
 51
195.4423330237654
  0
ARC
  5
E79D
  8
0
 10
405.9411572800667045
 20
96.7945097745166692
 30
0.0
 40
0.0402828455941415
 50
91.6408937756995812
 51
126.6626756793930042
  0
ARC
  5
E79E
  8
0
 10
405.9562074818450128
 20
96.5728902441966142
 30
0.0
 40
0.262386665518041
 50
75.7961661471588712
 51
93.5405572084444259
  0
ARC
  5
E79F
  8
0
 10
405.9195332518963824
 20
96.363929908293926
 30
0.0
 40
0.4742183248687095
 50
65.0531385533494984
 51
77.6958295799028917
  0
ARC
  5
E7A0
  8
0
 10
405.6679671440185757
 20
95.8231357459856099
 30
0.0
 40
1.0706609730919301
 50
61.3749878455208204
 51
65.0531385533494984
  0
ARC
  5
E7A1
  8
0
 10
408.1695377116693066
 20
96.563327721082473
 30
0.0
 40
0.2457426000251951
 50
132.5002168366970068
 51
146.7023203454282054
  0
ARC
  5
E7A2
  8
0
 10
408.0173769737257885
 20
96.6439381276617127
 30
0.0
 40
0.0760443899342524
 50
134.4345236878681931
 51
145.3100923137934899
  0
ARC
  5
E7A3
  8
0
 10
408.4515728804927903
 20
96.339963898018425
 30
0.0
 40
0.6060683670393382
 50
145.0430132684242892
 51
159.4169041872727917
  0
ARC
  5
E7A4
  8
0
 10
408.7730159573047786
 20
95.8991619450879256
 30
0.0
 40
0.9526777231708781
 50
189.6308859511252933
 51
203.603898932009912
  0
ARC
  5
E7A5
  8
0
 10
408.4301834524379728
 20
95.7554703409952737
 30
0.0
 40
0.5810194084235086
 50
204.1565639339301867
 51
215.0395839768189887
  0
ARC
  5
E7A6
  8
0
 10
408.0697651293089052
 20
95.5039449716071118
 30
0.0
 40
0.1415170467112981
 50
215.4418559312597097
 51
223.2919830859796093
  0
ARC
  5
E7A7
  8
0
 10
409.5773434017708041
 20
96.6630664398672224
 30
0.0
 40
2.0425235827406878
 50
217.952158210651703
 51
219.5274300964159977
  0
LINE
  5
E7A8
  8
0
 10
407.9547752237886016
 20
96.6871107744540836
 30
0.0
 11
407.9547752237886016
 21
95.4214562078976485
 31
0.0
  0
LINE
  5
E7A9
  8
0
 10
408.0570253140589898
 20
96.6864196513600405
 30
0.0
 11
408.0570253140589898
 21
95.4214640465986434
 31
0.0
  0
ARC
  5
E7AA
  8
0
 10
410.5472276735076207
 20
95.8913331306090697
 30
0.0
 40
2.744011711190641
 50
166.0458974297021939
 51
176.2642901235273882
  0
ARC
  5
E7AB
  8
0
 10
415.6366225112556094
 20
96.4897518120605611
 30
0.0
 40
7.8388162758033824
 50
183.0686767328026008
 51
185.4901297750087963
  0
ENDSEC
  0
EOF
