  0
SECTION
  2
HEADER
  9
$ACADVER
  1
AC1009
  9
$INSBASE
 10
413.8692653348733757
 20
67.5136223361778463
 30
0.0
  9
$EXTMIN
 10
419.7898768493711827
 20
68.3519597714659994
 30
-0.0000000000112498
  9
$EXTMAX
 10
430.0257731620994832
 20
81.8679544615139321
 30
0.0000000000002956
  9
$LIMMIN
 10
0.0
 20
0.0
  9
$LIMMAX
 10
11.6929133858000007
 20
8.2677165353999982
  9
$ORTHOMODE
 70
     0
  9
$REGENMODE
 70
     1
  9
$FILLMODE
 70
     1
  9
$QTEXTMODE
 70
     0
  9
$MIRRTEXT
 70
     0
  9
$DRAGMODE
 70
     2
  9
$LTSCALE
 40
0.6431102362
  9
$OSMODE
 70
    37
  9
$ATTMODE
 70
     1
  9
$TEXTSIZE
 40
0.2
  9
$TRACEWID
 40
0.05
  9
$TEXTSTYLE
  7
STANDARD
  9
$CLAYER
  8
0
  9
$CELTYPE
  6
BYLAYER
  9
$CECOLOR
 62
   256
  9
$DIMSCALE
 40
1.0
  9
$DIMASZ
 40
0.1875
  9
$DIMEXO
 40
0.0625
  9
$DIMDLI
 40
0.4443307087
  9
$DIMRND
 40
0.0
  9
$DIMDLE
 40
0.0
  9
$DIMEXE
 40
0.125
  9
$DIMTP
 40
0.01
  9
$DIMTM
 40
0.01
  9
$DIMTXT
 40
1.0
  9
$DIMCEN
 40
0.1052362205
  9
$DIMTSZ
 40
0.0
  9
$DIMTOL
 70
     1
  9
$DIMLIM
 70
     0
  9
$DIMTIH
 70
     0
  9
$DIMTOH
 70
     1
  9
$DIMSE1
 70
     0
  9
$DIMSE2
 70
     0
  9
$DIMTAD
 70
     0
  9
$DIMZIN
 70
     0
  9
$DIMBLK
  1

  9
$DIMASO
 70
     1
  9
$DIMSHO
 70
     1
  9
$DIMPOST
  1
\X
  9
$DIMAPOST
  1

  9
$DIMALT
 70
     1
  9
$DIMALTD
 70
     2
  9
$DIMALTF
 40
25.3999999999999986
  9
$DIMLFAC
 40
1.0
  9
$DIMTOFL
 70
     0
  9
$DIMTVP
 40
0.0
  9
$DIMTIX
 70
     0
  9
$DIMSOXD
 70
     0
  9
$DIMSAH
 70
     0
  9
$DIMBLK1
  1

  9
$DIMBLK2
  1

  9
$DIMSTYLE
  2
STANDARD
  9
$DIMCLRD
 70
     0
  9
$DIMCLRE
 70
     0
  9
$DIMCLRT
 70
     0
  9
$DIMTFAC
 40
1.0
  9
$DIMGAP
 40
0.09
  9
$LUNITS
 70
     2
  9
$LUPREC
 70
     4
  9
$SKETCHINC
 40
0.1
  9
$FILLETRAD
 40
0.0
  9
$AUNITS
 70
     0
  9
$AUPREC
 70
     0
  9
$MENU
  1
.
  9
$ELEVATION
 40
0.0
  9
$PELEVATION
 40
0.0
  9
$THICKNESS
 40
0.0
  9
$LIMCHECK
 70
     0
  9
$BLIPMODE
 70
     0
  9
$CHAMFERA
 40
0.0
  9
$CHAMFERB
 40
0.0
  9
$SKPOLY
 70
     0
  9
$TDCREATE
 40
2458172.5207638889551163
  9
$TDUPDATE
 40
2459376.0081597222015262
  9
$TDINDWG
 40
0.2750434954
  9
$TDUSRTIMER
 40
0.2750434954
  9
$USRTIMER
 70
     1
  9
$ANGBASE
 50
0.0
  9
$ANGDIR
 70
     0
  9
$PDMODE
 70
     0
  9
$PDSIZE
 40
0.3125
  9
$PLINEWID
 40
0.0
  9
$COORDS
 70
     1
  9
$SPLFRAME
 70
     0
  9
$SPLINETYPE
 70
     6
  9
$SPLINESEGS
 70
     8
  9
$ATTDIA
 70
     1
  9
$ATTREQ
 70
     1
  9
$HANDLING
 70
     1
  9
$HANDSEED
  5
E77D
  9
$SURFTAB1
 70
     6
  9
$SURFTAB2
 70
     6
  9
$SURFTYPE
 70
     6
  9
$SURFU
 70
     6
  9
$SURFV
 70
     6
  9
$UCSNAME
  2

  9
$UCSORG
 10
0.0
 20
0.0
 30
0.0
  9
$UCSXDIR
 10
1.0
 20
0.0
 30
0.0
  9
$UCSYDIR
 10
0.0
 20
1.0
 30
0.0
  9
$PUCSNAME
  2

  9
$PUCSORG
 10
0.0
 20
0.0
 30
0.0
  9
$PUCSXDIR
 10
1.0
 20
0.0
 30
0.0
  9
$PUCSYDIR
 10
0.0
 20
1.0
 30
0.0
  9
$USERI1
 70
     0
  9
$USERI2
 70
     0
  9
$USERI3
 70
     0
  9
$USERI4
 70
     0
  9
$USERI5
 70
     0
  9
$USERR1
 40
0.0
  9
$USERR2
 40
0.0
  9
$USERR3
 40
0.0
  9
$USERR4
 40
0.0
  9
$USERR5
 40
0.0
  9
$WORLDVIEW
 70
     1
  9
$SHADEDGE
 70
     3
  9
$SHADEDIF
 70
    70
  9
$TILEMODE
 70
     1
  9
$MAXACTVP
 70
    64
  9
$PLIMCHECK
 70
     0
  9
$PEXTMIN
 10
1.0000000000000000E+20
 20
1.0000000000000000E+20
 30
1.0000000000000000E+20
  9
$PEXTMAX
 10
-1.0000000000000000E+20
 20
-1.0000000000000000E+20
 30
-1.0000000000000000E+20
  9
$PLIMMIN
 10
0.0
 20
0.0
  9
$PLIMMAX
 10
12.0
 20
9.0
  9
$UNITMODE
 70
     0
  9
$VISRETAIN
 70
     1
  9
$PLINEGEN
 70
     0
  9
$PSLTSCALE
 70
     1
  0
ENDSEC
  0
SECTION
  2
TABLES
  0
TABLE
  2
VPORT
 70
     1
  0
VPORT
  2
*ACTIVE
 70
     0
 10
0.0
 20
0.0
 11
1.0
 21
1.0
 12
-4.7214641023183521
 22
5.4074156042712787
 13
0.0
 23
0.0
 14
1.0
 24
1.0
 15
0.0
 25
0.0
 16
0.0
 26
0.0
 36
14.6338572656650907
 17
429.6292891080536833
 27
69.7025415122186871
 37
0.0
 40
14.0556028737692102
 41
2.103846153846153
 42
50.0
 43
0.0
 44
0.0
 50
0.0
 51
0.0
 71
     0
 72
   100
 73
     1
 74
     1
 75
     0
 76
     0
 77
     0
 78
     0
  0
ENDTAB
  0
TABLE
  2
LTYPE
 70
     2
  0
LTYPE
  2
CONTINUOUS
 70
     0
  3
Solid line
 72
    65
 73
     0
 40
0.0
  0
LTYPE
  2
PHANTOM2
 70
     0
  3
___ _ _ ___ _ _ ___ _ _ ___ _ _
 72
    65
 73
     6
 40
1.25
 49
0.625
 49
-0.125
 49
0.125
 49
-0.125
 49
0.125
 49
-0.125
  0
ENDTAB
  0
TABLE
  2
LAYER
 70
     2
  0
LAYER
  2
0
 70
     0
 62
   255
  6
CONTINUOUS
  0
LAYER
  2
DEFPOINTS
 70
     0
 62
     7
  6
CONTINUOUS
  0
ENDTAB
  0
TABLE
  2
STYLE
 70
     1
  0
STYLE
  2
STANDARD
 70
     0
 40
0.0
 41
0.8
 50
0.0
 71
     0
 42
0.2
  3
txt
  4

  0
ENDTAB
  0
TABLE
  2
VIEW
 70
     1
  0
ENDTAB
  0
TABLE
  2
UCS
 70
     0
  0
ENDTAB
  0
TABLE
  2
APPID
 70
    10
  0
APPID
  2
ACAD
 70
     0
  0
APPID
  2
ACAD_MLEADERVER
 70
     0
  0
APPID
  2
ACAD_EXEMPT_FROM_CAD_STANDARDS
 70
     0
  0
APPID
  2
ACAD_DSTYLE_DIMJAG
 70
     0
  0
APPID
  2
ACAD_DSTYLE_DIMTALN
 70
     0
  0
APPID
  2
ACAD_NAV_VCDISPLAY
 70
     0
  0
APPID
  2
ACAECLAYERSTANDARD
 70
     0
  0
APPID
  2
ACCMTRANSPARENCY
 70
     0
  0
APPID
  2
DCO15
 70
     0
  0
APPID
  2
ACDBATTR
 70
     0
  0
ENDTAB
  0
TABLE
  2
DIMSTYLE
 70
     1
  0
DIMSTYLE
  2
STANDARD
 70
     0
  3

  4

  5

  6

  7

 40
1.0
 41
0.1875
 42
0.0625
 43
0.38
 44
0.125
 45
0.0
 46
0.0
 47
0.01
 48
0.01
140
0.15625
141
0.09
142
0.0
143
25.3999999999999986
144
1.0
145
0.0
146
1.0
147
0.09
 71
     1
 72
     0
 73
     1
 74
     1
 75
     0
 76
     0
 77
     0
 78
     4
170
     0
171
     2
172
     0
173
     0
174
     0
175
     0
176
     0
177
     0
178
     0
  0
ENDTAB
  0
ENDSEC
  0
SECTION
  2
BLOCKS
  0
BLOCK
  8
0
  2
$MODEL_SPACE
 70
     0
 10
0.0
 20
0.0
 30
0.0
  3
$MODEL_SPACE
  1

  0
ENDBLK
  5
21
  8
0
  0
BLOCK
 67
     1
  8
0
  2
$PAPER_SPACE
 70
     0
 10
0.0
 20
0.0
 30
0.0
  3
$PAPER_SPACE
  1

  0
ENDBLK
  5
1D
 67
     1
  8
0
  0
ENDSEC
  0
SECTION
  2
ENTITIES
  0
ATTDEF
  5
B1E1
  8
DEFPOINTS
 10
429.141285390545022
 20
68.3601027230528899
 30
0.0
 40
0.001
  1
K-99480T-4
  3

  2
MODELNUMBER
 70
     0
1001
ACDBATTR
1070
     0
1070
     1
  0
ATTDEF
  5
B1E2
  8
DEFPOINTS
 10
429.141285390545022
 20
68.3584360563862248
 30
0.0
 40
0.001
  1
KUMIN
  3

  2
TRADENAME
 70
     0
1001
ACDBATTR
1070
     0
1070
     1
  0
ATTDEF
  5
B1E3
  8
DEFPOINTS
 10
429.141285390545022
 20
68.3567693897195596
 30
0.0
 40
0.001
  1
KITCHEN SINK FAUCET
  3

  2
PRODUCT
 70
     0
1001
ACDBATTR
1070
     0
1070
     1
  0
LINE
  5
E6DC
  8
0
 10
430.0059359326535855
 20
68.364768913256043
 30
0.0
 11
428.2854634916536156
 21
68.364768913256043
 31
0.0
  0
LINE
  5
E6DD
  8
0
 10
428.2854634916536156
 20
68.364768913256043
 30
0.0
 11
428.2854634916536156
 21
68.4051331858560445
 31
0.0
  0
ARC
  5
E6DE
  8
0
 10
428.3041543371535909
 20
68.4051331858560445
 30
0.0
 40
0.0186908455000001
 50
90.0
 51
179.9999999999909903
  0
LINE
  5
E6DF
  8
0
 10
428.2795447889704974
 20
68.4238240313560482
 30
0.0
 11
430.0118405231535803
 21
68.4238240313560482
 31
0.0
  0
LINE
  5
E6E0
  8
0
 10
430.0059359326535855
 20
68.364768913256043
 30
0.0
 11
430.0059359326535855
 21
68.4051331858560445
 31
0.0
  0
ARC
  5
E6E1
  8
0
 10
429.9872450871537239
 20
68.4051331858560445
 30
0.0
 40
0.0186908455000037
 50
359.9999999999894271
 51
89.9999999999902229
  0
LINE
  5
E6E2
  8
0
 10
430.0118405231535803
 20
68.4238240313560482
 30
0.0
 11
430.0118414444535802
 21
68.5616193069560467
 31
0.0
  0
ARC
  5
E6E3
  8
0
 10
409.5077064164341891
 20
68.5617563977199751
 30
0.0
 40
20.504135028477851
 50
359.9996169200904887
 51
2.4057643989941941
  0
ARC
  5
E6E4
  8
0
 10
420.6909798468914232
 20
69.0316015338943174
 30
0.0
 40
9.31099609999319
 50
2.4057643989941941
 51
8.6924210770093602
  0
ARC
  5
E6E5
  8
0
 10
422.8287921386794892
 20
69.3584433844477672
 30
0.0
 40
7.1483433330901347
 50
8.6924210770093602
 51
12.1083733841882495
  0
ARC
  5
E6E6
  8
0
 10
429.1442070337876089
 20
72.5797882274557935
 30
0.0
 40
0.66954841919001
 50
57.9269674041390203
 51
89.8722657855087732
  0
ARC
  5
E6E7
  8
0
 10
429.1768637700859017
 20
72.6317804060269907
 30
0.0
 40
0.6081509887169242
 50
46.11322532899284
 51
57.9330502997475705
  0
ARC
  5
E6E8
  8
0
 10
429.1316122467860055
 20
72.5847353862167495
 30
0.0
 40
0.6734268207675488
 50
13.3336288022533598
 51
46.11322532899284
  0
ARC
  5
E6E9
  8
0
 10
428.797089249802525
 20
72.5308088480826143
 30
0.0
 40
1.0116698590809761
 50
9.6278207939456077
 51
11.9360186321466806
  0
ARC
  5
E6EA
  8
0
 10
429.2296986496414206
 20
72.6041953379055798
 30
0.0
 40
0.5728800805793394
 50
4.4482198899664009
 51
9.6278207939456077
  0
ARC
  5
E6EB
  8
0
 10
428.6590786702528817
 20
72.5598054173080413
 30
0.0
 40
1.1452240557620601
 50
358.8761085602047274
 51
4.4482198899664009
  0
ARC
  5
E6EC
  8
0
 10
436.231524066257407
 20
72.4112482574796843
 30
0.0
 40
6.4286784063248543
 50
178.8761085602046137
 51
180.1914654683934884
  0
LINE
  5
E6ED
  8
0
 10
429.8028815543536894
 20
72.3897655646560452
 30
0.0
 11
429.8052797790535919
 21
71.5714528714560458
 31
0.0
  0
LINE
  5
E6EE
  8
0
 10
429.8052797790535919
 20
71.5714528714560458
 30
0.0
 11
429.8181033611537032
 21
70.8578902968560413
 31
0.0
  0
ARC
  5
E6EF
  8
0
 10
470.9493025794316736
 20
71.6466906616995232
 30
0.0
 40
41.1387621975825226
 50
181.0986645958537906
 51
182.0149880416136057
  0
ARC
  5
E6F0
  8
0
 10
426.8009599157854836
 20
70.0934335801746755
 30
0.0
 40
3.0368958904191121
 50
358.43575726772292
 51
2.0149880416136701
  0
ARC
  5
E6F1
  8
0
 10
429.1565855355253234
 20
70.0291062240063269
 30
0.0
 40
0.6803921095763688
 50
348.1794559282411115
 51
358.43575726772292
  0
ARC
  5
E6F2
  8
0
 10
429.1456905750325745
 20
70.0184320627205068
 30
0.0
 40
0.6889861444354966
 50
270.0007598388996257
 51
349.2339457569316892
  0
ARC
  5
E6F3
  8
0
 10
429.1457022520503983
 20
70.0184137464809595
 30
0.0
 40
0.6889678281400524
 50
190.7665899758715113
 51
269.999788777704623
  0
ARC
  5
E6F4
  8
0
 10
429.9649667212460145
 20
70.1147605802225371
 30
0.0
 40
1.512936010025717
 50
175.3565519480864907
 51
188.5545955269604121
  0
ARC
  5
E6F5
  8
0
 10
411.0683479815106125
 20
70.9258499029390208
 30
0.0
 40
17.4022780448501209
 50
357.7322080212811102
 51
359.0516566870692259
  0
ARC
  5
E6F6
  8
0
 10
-43.5555945551246211
 20
81.4632538218635887
 30
0.0
 40
472.1479561315802016
 50
358.6862048205047131
 51
358.7544928412052059
  0
ARC
  5
E6F7
  8
0
 10
349.7012316776924195
 20
72.3047858974104116
 30
0.0
 40
78.787318107367085
 50
359.1968522281737251
 51
0.0618118988950243
  0
ARC
  5
E6F8
  8
0
 10
449.9694348314379226
 20
72.5843112108292559
 30
0.0
 40
21.4818116837582416
 50
179.9610829060690946
 51
180.5188473125874111
  0
ARC
  5
E6F9
  8
0
 10
429.1433258412122882
 20
72.5936202667777053
 30
0.0
 40
0.6557190130166105
 50
89.7925741354831644
 51
179.5384558495034071
  0
LINE
  5
E6FA
  8
0
 10
428.692943808662676
 20
73.0701958486611005
 30
0.0
 11
428.692943808662676
 21
77.0222492293227248
 31
0.0
  0
LINE
  5
E6FB
  8
0
 10
429.5984556176537126
 20
73.0657924770043792
 30
0.0
 11
429.5984556176537126
 21
77.0222492269259504
 31
0.0
  0
ARC
  5
E6FC
  8
0
 10
424.7559391483393938
 20
77.0222520484633435
 30
0.0
 40
3.9370046603242952
 50
359.9999589726522231
 51
164.9997016973171071
  0
ARC
  5
E6FD
  8
0
 10
424.7559359335659792
 20
77.0222492269729884
 30
0.0
 40
4.8425196840875593
 50
359.999999999443105
 51
164.9996506566729124
  0
LINE
  5
E6FE
  8
0
 10
420.0784287482978243
 20
78.27561406712897
 30
0.0
 11
419.956144390353586
 21
77.8192426388560392
 31
0.0
  0
LINE
  5
E6FF
  8
0
 10
419.956144390353586
 20
77.8192426388560392
 30
0.0
 11
419.8389625392134121
 21
77.3819140168563138
 31
0.0
  0
ARC
  5
E700
  8
0
 10
420.4331590366224987
 20
77.2226995451643887
 30
0.0
 40
0.6151574802677722
 50
164.9999999940835096
 51
184.8351193892385993
  0
ARC
  5
E701
  8
0
 10
419.8319599113127083
 20
77.1718443221067218
 30
0.0
 40
0.0118112761813565
 50
184.8351193892353024
 51
254.9991392859882069
  0
LINE
  5
E702
  8
0
 10
419.8289027567038829
 20
77.1604355513259037
 30
0.0
 11
420.6115894272904825
 21
76.9507026880476417
 31
0.0
  0
ARC
  5
E703
  8
0
 10
420.6157750903528836
 20
76.9711820749010798
 30
0.0
 40
0.0209027524782043
 50
258.4487377543143225
 51
266.7910223801071083
  0
ARC
  5
E704
  8
0
 10
420.6140040654344716
 20
76.9633642761470753
 30
0.0
 40
0.0130660046606844
 50
272.6360774681087946
 51
322.3127447214067729
  0
ARC
  5
E705
  8
0
 10
420.1145829529461935
 20
77.3090133983109524
 30
0.0
 40
0.6204155476390119
 50
325.2497545337541283
 51
344.9151092073961991
  0
LINE
  5
E706
  8
0
 10
420.7136197834814197
 20
77.1475503145598935
 30
0.0
 11
420.9530899739012852
 21
78.0412436342434432
 31
0.0
  0
ARC
  5
E707
  8
0
 10
419.8760890559536847
 20
77.1477920204560377
 30
0.0
 40
0.0078740156999971
 50
165.0044785588725915
 51
254.9999999999245119
  0
LINE
  5
E708
  8
0
 10
419.874051110728999
 20
77.1401863053347938
 30
0.0
 11
420.5623683334289922
 21
76.9557522614348102
 31
0.0
  0
ARC
  5
E709
  8
0
 10
420.5644038841882093
 20
76.9633391140083774
 30
0.0
 40
0.0078551765649217
 50
254.9812608722895106
 51
269.8602515432216933
  0
ARC
  5
E70A
  8
0
 10
420.5644079487718727
 20
76.9633557535049135
 30
0.0
 40
0.0078718269542631
 50
269.8309626037465137
 51
344.9283646783803192
  0
LINE
  5
E70B
  8
0
 10
428.2795447889704974
 20
68.4238240313560482
 30
0.0
 11
428.2795438676703839
 21
68.5616193069560467
 31
0.0
  0
ARC
  5
E70C
  8
0
 10
448.7836788956900023
 20
68.5617563977199751
 30
0.0
 40
20.504135028477851
 50
177.5942356010058063
 51
180.0003830799095113
  0
ARC
  5
E70D
  8
0
 10
437.6004054652327113
 20
69.0316015338943174
 30
0.0
 40
9.31099609999319
 50
171.3075789229905865
 51
177.5942356010058063
  0
ARC
  5
E70E
  8
0
 10
435.4625931734447022
 20
69.3584433844477672
 30
0.0
 40
7.1483433330901347
 50
167.8935035447078974
 51
171.3075789229905865
  0
LINE
  5
E70F
  8
0
 10
419.8389625391939148
 20
77.3819140169062365
 30
0.0
 11
420.7136197835254734
 21
77.1475503147245405
 31
0.0
  0
ENDSEC
  0
EOF
