  0
SECTION
  2
HEADER
  9
$ACADVER
  1
AC1009
  9
$INSBASE
 10
8528.9664190509211039
 20
2092.5167575188747833
 30
0.0
  9
$EXTMIN
 10
8527.769680848419739
 20
2083.1886792908649113
 30
0.0
  9
$EXTMAX
 10
8530.1631572534206498
 20
2092.5218094373740314
 30
0.0
  9
$LIMMIN
 10
0.0
 20
0.0
  9
$LIMMAX
 10
11.6929133858000007
 20
8.2677165353999982
  9
$ORTHOMODE
 70
     0
  9
$REGENMODE
 70
     1
  9
$FILLMODE
 70
     1
  9
$QTEXTMODE
 70
     0
  9
$MIRRTEXT
 70
     0
  9
$DRAGMODE
 70
     2
  9
$LTSCALE
 40
0.6431102362
  9
$OSMODE
 70
  4095
  9
$ATTMODE
 70
     1
  9
$TEXTSIZE
 40
0.2
  9
$TRACEWID
 40
0.05
  9
$TEXTSTYLE
  7
STANDARD
  9
$CLAYER
  8
0
  9
$CELTYPE
  6
BYLAYER
  9
$CECOLOR
 62
   256
  9
$DIMSCALE
 40
1.0
  9
$DIMASZ
 40
0.1875
  9
$DIMEXO
 40
0.0625
  9
$DIMDLI
 40
0.4443307087
  9
$DIMRND
 40
0.0
  9
$DIMDLE
 40
0.0
  9
$DIMEXE
 40
0.125
  9
$DIMTP
 40
0.01
  9
$DIMTM
 40
0.01
  9
$DIMTXT
 40
2.0
  9
$DIMCEN
 40
0.1052362205
  9
$DIMTSZ
 40
0.0
  9
$DIMTOL
 70
     1
  9
$DIMLIM
 70
     0
  9
$DIMTIH
 70
     1
  9
$DIMTOH
 70
     1
  9
$DIMSE1
 70
     0
  9
$DIMSE2
 70
     0
  9
$DIMTAD
 70
     0
  9
$DIMZIN
 70
     0
  9
$DIMBLK
  1

  9
$DIMASO
 70
     1
  9
$DIMSHO
 70
     1
  9
$DIMPOST
  1
\X
  9
$DIMAPOST
  1

  9
$DIMALT
 70
     1
  9
$DIMALTD
 70
     2
  9
$DIMALTF
 40
25.3999999999999986
  9
$DIMLFAC
 40
1.0
  9
$DIMTOFL
 70
     0
  9
$DIMTVP
 40
0.0
  9
$DIMTIX
 70
     0
  9
$DIMSOXD
 70
     0
  9
$DIMSAH
 70
     0
  9
$DIMBLK1
  1

  9
$DIMBLK2
  1

  9
$DIMSTYLE
  2
STANDARD
  9
$DIMCLRD
 70
     0
  9
$DIMCLRE
 70
     0
  9
$DIMCLRT
 70
     0
  9
$DIMTFAC
 40
1.0
  9
$DIMGAP
 40
0.09
  9
$LUNITS
 70
     2
  9
$LUPREC
 70
     4
  9
$SKETCHINC
 40
0.1
  9
$FILLETRAD
 40
0.0
  9
$AUNITS
 70
     0
  9
$AUPREC
 70
     0
  9
$MENU
  1
.
  9
$ELEVATION
 40
0.0
  9
$PELEVATION
 40
0.0
  9
$THICKNESS
 40
0.0
  9
$LIMCHECK
 70
     0
  9
$BLIPMODE
 70
     0
  9
$CHAMFERA
 40
0.0
  9
$CHAMFERB
 40
0.0
  9
$SKPOLY
 70
     0
  9
$TDCREATE
 40
2458060.468368056230247
  9
$TDUPDATE
 40
2460553.4735648147761822
  9
$TDINDWG
 40
0.4660255787
  9
$TDUSRTIMER
 40
0.4660255787
  9
$USRTIMER
 70
     1
  9
$ANGBASE
 50
0.0
  9
$ANGDIR
 70
     0
  9
$PDMODE
 70
     0
  9
$PDSIZE
 40
0.3125
  9
$PLINEWID
 40
0.0
  9
$COORDS
 70
     0
  9
$SPLFRAME
 70
     0
  9
$SPLINETYPE
 70
     6
  9
$SPLINESEGS
 70
     8
  9
$ATTDIA
 70
     1
  9
$ATTREQ
 70
     1
  9
$HANDLING
 70
     1
  9
$HANDSEED
  5
10F3A
  9
$SURFTAB1
 70
     6
  9
$SURFTAB2
 70
     6
  9
$SURFTYPE
 70
     6
  9
$SURFU
 70
     6
  9
$SURFV
 70
     6
  9
$UCSNAME
  2

  9
$UCSORG
 10
0.0
 20
0.0
 30
0.0
  9
$UCSXDIR
 10
1.0
 20
0.0
 30
0.0
  9
$UCSYDIR
 10
0.0
 20
1.0
 30
0.0
  9
$PUCSNAME
  2

  9
$PUCSORG
 10
0.0
 20
0.0
 30
0.0
  9
$PUCSXDIR
 10
1.0
 20
0.0
 30
0.0
  9
$PUCSYDIR
 10
0.0
 20
1.0
 30
0.0
  9
$USERI1
 70
     0
  9
$USERI2
 70
     0
  9
$USERI3
 70
     0
  9
$USERI4
 70
     0
  9
$USERI5
 70
     0
  9
$USERR1
 40
0.0
  9
$USERR2
 40
0.0
  9
$USERR3
 40
0.0
  9
$USERR4
 40
0.0
  9
$USERR5
 40
0.0
  9
$WORLDVIEW
 70
     1
  9
$SHADEDGE
 70
     3
  9
$SHADEDIF
 70
    70
  9
$TILEMODE
 70
     1
  9
$MAXACTVP
 70
    64
  9
$PLIMCHECK
 70
     0
  9
$PEXTMIN
 10
1.0000000000000000E+20
 20
1.0000000000000000E+20
 30
1.0000000000000000E+20
  9
$PEXTMAX
 10
-1.0000000000000000E+20
 20
-1.0000000000000000E+20
 30
-1.0000000000000000E+20
  9
$PLIMMIN
 10
0.0
 20
0.0
  9
$PLIMMAX
 10
12.0
 20
9.0
  9
$UNITMODE
 70
     0
  9
$VISRETAIN
 70
     1
  9
$PLINEGEN
 70
     0
  9
$PSLTSCALE
 70
     1
  0
ENDSEC
  0
SECTION
  2
TABLES
  0
TABLE
  2
VPORT
 70
     1
  0
VPORT
  2
*ACTIVE
 70
     0
 10
0.0
 20
0.0
 11
1.0
 21
1.0
 12
3713.6680792071701944
 22
1840.0466200965408916
 13
0.0
 23
0.0
 14
1.0
 24
1.0
 15
0.0
 25
0.0
 16
0.0
 26
0.0
 36
9.5192988075487186
 17
4815.2983398437490905
 27
247.8086242675780966
 37
0.0
 40
9.3992444096488725
 41
2.2423167848699759
 42
50.0
 43
0.0
 44
0.0
 50
0.0
 51
0.0
 71
     0
 72
   100
 73
     1
 74
     1
 75
     0
 76
     0
 77
     0
 78
     0
  0
ENDTAB
  0
TABLE
  2
LTYPE
 70
     2
  0
LTYPE
  2
CONTINUOUS
 70
     0
  3
Solid line
 72
    65
 73
     0
 40
0.0
  0
LTYPE
  2
PHANTOM2
 70
     0
  3
___ _ _ ___ _ _ ___ _ _ ___ _ _
 72
    65
 73
     6
 40
1.25
 49
0.625
 49
-0.125
 49
0.125
 49
-0.125
 49
0.125
 49
-0.125
  0
ENDTAB
  0
TABLE
  2
LAYER
 70
     2
  0
LAYER
  2
0
 70
     0
 62
   255
  6
CONTINUOUS
  0
LAYER
  2
DEFPOINTS
 70
     0
 62
     7
  6
CONTINUOUS
  0
ENDTAB
  0
TABLE
  2
STYLE
 70
     1
  0
STYLE
  2
STANDARD
 70
     0
 40
0.0
 41
0.8
 50
0.0
 71
     0
 42
0.2
  3
txt
  4

  0
ENDTAB
  0
TABLE
  2
VIEW
 70
     0
  0
ENDTAB
  0
TABLE
  2
UCS
 70
     0
  0
ENDTAB
  0
TABLE
  2
APPID
 70
    10
  0
APPID
  2
ACAD
 70
     0
  0
APPID
  2
ACAD_MLEADERVER
 70
     0
  0
APPID
  2
ACAD_EXEMPT_FROM_CAD_STANDARDS
 70
     0
  0
APPID
  2
ACAD_NAV_VCDISPLAY
 70
     0
  0
APPID
  2
ACAECLAYERSTANDARD
 70
     0
  0
APPID
  2
ACCMTRANSPARENCY
 70
     0
  0
APPID
  2
ACAD_DSTYLE_DIMJAG
 70
     0
  0
APPID
  2
ACAD_DSTYLE_DIMTALN
 70
     0
  0
APPID
  2
ACDBATTR
 70
     0
  0
APPID
  2
ACADANNOTATIVE
 70
     0
  0
ENDTAB
  0
TABLE
  2
DIMSTYLE
 70
     2
  0
DIMSTYLE
  2
STANDARD
 70
     0
  3

  4

  5

  6

  7

 40
1.0
 41
0.1875
 42
0.0625
 43
0.38
 44
0.125
 45
0.0
 46
0.0
 47
0.01
 48
0.01
140
0.15625
141
0.09
142
0.0
143
25.3999999999999986
144
1.0
145
0.0
146
1.0
147
0.09
 71
     1
 72
     0
 73
     1
 74
     1
 75
     0
 76
     0
 77
     0
 78
     4
170
     0
171
     2
172
     0
173
     0
174
     0
175
     0
176
     0
177
     0
178
     0
  0
DIMSTYLE
  2
ANNOTATIVE
 70
     0
  3

  4

  5

  6

  7

 40
0.0
 41
0.18
 42
0.0625
 43
0.38
 44
0.18
 45
0.0
 46
0.0
 47
0.0
 48
0.0
140
0.18
141
0.09
142
0.0
143
25.3999999999999986
144
1.0
145
0.0
146
1.0
147
0.09
 71
     0
 72
     0
 73
     1
 74
     1
 75
     0
 76
     0
 77
     0
 78
     0
170
     0
171
     2
172
     0
173
     0
174
     0
175
     0
176
     0
177
     0
178
     0
  0
ENDTAB
  0
ENDSEC
  0
SECTION
  2
BLOCKS
  0
BLOCK
  8
0
  2
$MODEL_SPACE
 70
     0
 10
0.0
 20
0.0
 30
0.0
  3
$MODEL_SPACE
  1

  0
ENDBLK
  5
21
  8
0
  0
BLOCK
 67
     1
  8
0
  2
$PAPER_SPACE
 70
     0
 10
0.0
 20
0.0
 30
0.0
  3
$PAPER_SPACE
  1

  0
ENDBLK
  5
1D
 67
     1
  8
0
  0
BLOCK
  8
0
  2
_FILLED
 70
     0
 10
0.0
 20
0.0
 30
0.0
  3
_FILLED
  1

  0
SOLID
  5
D8EA
  8
0
  6
BYBLOCK
 62
     0
 10
0.0
 20
0.0
 30
0.0
 11
-1.0
 21
0.1666666667
 31
0.0
 12
-1.0
 22
-0.1666666667
 32
0.0
 13
-1.0
 23
-0.1666666667
 33
0.0
  0
ENDBLK
  5
D8EB
  8
0
  6
BYBLOCK
 62
     0
  0
ENDSEC
  0
SECTION
  2
ENTITIES
  0
ATTDEF
  5
3930
  8
DEFPOINTS
 10
8528.9560916828286281
 20
2092.5208094373738277
 30
0.0
 40
0.001
  1
K-99482IN-4
  3

  2
MODELNUMBER
 70
     0
1001
ACDBATTR
1070
     0
1070
     1
  0
ATTDEF
  5
3931
  8
DEFPOINTS
 10
8528.9560916828286281
 20
2092.5191427707081857
 30
0.0
 40
0.001
  1
KUMIN
  3

  2
TRADENAME
 70
     0
1001
ACDBATTR
1070
     0
1070
     1
  0
ATTDEF
  5
3932
  8
DEFPOINTS
 10
8528.9560916828286281
 20
2092.5174761040411795
 30
0.0
 40
0.001
  1
KITCHEN SINK FAUCET
  3

  2
PRODUCT
 70
     0
1001
ACDBATTR
1070
     0
1070
     1
  0
LINE
  5
10D9C
  8
0
 10
8530.1631572534206498
 20
2092.5167575188738738
 30
0.0
 11
8530.1631572534206498
 21
2092.5167575200171086
 31
0.0
  0
LINE
  5
10D9D
  8
0
 10
8527.769680848419739
 20
2092.5167575188747833
 30
0.0
 11
8530.1631572534206498
 21
2092.5167575188738738
 31
0.0
  0
LINE
  5
10D9E
  8
0
 10
8527.84806911061969
 20
2092.2805370464739099
 30
0.0
 11
8530.0875107695173938
 21
2092.2805370464739099
 31
0.0
  0
ARC
  5
10D9F
  8
0
 10
8527.84806911061969
 20
2092.3435291724740637
 30
0.0
 40
0.0629921260000006
 50
185.0000000118776882
 51
270.0
  0
LINE
  5
10DA0
  8
0
 10
8527.7853166886779945
 20
2092.3380390469451413
 30
0.0
 11
8527.769680848419739
 21
2092.5167575188747833
 31
0.0
  0
ARC
  5
10DA1
  8
0
 10
8528.9624468166002771
 20
2091.213539568131182
 30
0.0
 40
0.3544131380536065
 50
0.7822545468965219
 51
89.3578200137973511
  0
ARC
  5
10DA2
  8
0
 10
8529.0067834282726835
 20
2084.0072147315408984
 30
0.0
 40
0.3100569609659274
 50
308.4662625836093071
 51
0.5339909138506322
  0
ARC
  5
10DA3
  8
0
 10
8528.9629885590420599
 20
2084.0623700783989989
 30
0.0
 40
0.3804849564930932
 50
270.5165916895522855
 51
308.4633534421899981
  0
ARC
  5
10DA4
  8
0
 10
8528.9644470578077744
 20
2091.2115621781617847
 30
0.0
 40
0.5256001274790095
 50
312.1005214586093075
 51
89.7850321205453525
  0
ARC
  5
10DA5
  8
0
 10
8528.9624805412204296
 20
2091.2136231398108066
 30
0.0
 40
0.3779580652428032
 50
339.6405252479391947
 51
89.4029388829779634
  0
ARC
  5
10DA6
  8
0
 10
8528.9624828844225704
 20
2091.2136284370108115
 30
0.0
 40
0.3622047244000011
 50
348.0414270222663049
 51
85.3239592980008297
  0
LINE
  5
10DA7
  8
0
 10
8528.9920104434204404
 20
2091.5667197951388516
 30
0.0
 11
8528.9920104434204404
 21
2091.5904260072688885
 31
0.0
  0
ARC
  5
10DA8
  8
0
 10
8528.9617792086410191
 20
2083.6539892832402074
 30
0.0
 40
0.4653331249111322
 50
270.5713063789373791
 51
297.6742482190786063
  0
ARC
  5
10DA9
  8
0
 10
8528.9545821875435649
 20
2083.6453048112439319
 30
0.0
 40
0.4611022093026489
 50
298.9675329921583966
 51
344.2104727392360815
  0
ARC
  5
10DAA
  8
0
 10
8528.7840561858338333
 20
2083.6788095607530522
 30
0.0
 40
0.6344687068234159
 50
345.4893293355198125
 51
358.1814832840884719
  0
ARC
  5
10DAB
  8
0
 10
8528.9890667052841309
 20
2083.9471963407559087
 30
0.0
 40
0.4294921428253061
 50
2.3247982834144749
 51
40.2619569359440774
  0
ARC
  5
10DAC
  8
0
 10
8529.0142995124515437
 20
2083.9774583306129898
 30
0.0
 40
0.4041098708531194
 50
328.6550651126850084
 51
358.1792092944854176
  0
ARC
  5
10DAD
  8
0
 10
8528.9789385697404214
 20
2084.0065484081578688
 30
0.0
 40
0.4494885448218547
 50
285.7649326736363946
 51
327.8328581384130871
  0
ARC
  5
10DAE
  8
0
 10
8528.9582915418741322
 20
2084.080059275045187
 30
0.0
 40
0.5258438880365474
 50
270.8856060074689935
 51
285.753831562149287
  0
ARC
  5
10DAF
  8
0
 10
8528.8363451787627127
 20
2083.9132813555570465
 30
0.0
 40
0.5819900267704897
 50
346.1939742812954819
 51
358.7896154273332741
  0
ARC
  5
10DB0
  8
0
 10
8529.0173799476160639
 20
2083.8833885589779129
 30
0.0
 40
0.3993035943099718
 50
315.9278384927504248
 51
344.1599929306938179
  0
ARC
  5
10DB1
  8
0
 10
8528.9727925193874398
 20
2083.9280998234648905
 30
0.0
 40
0.4624389405812943
 50
288.5420826417807234
 51
315.7903043580005829
  0
ARC
  5
10DB2
  8
0
 10
8528.9575449605654285
 20
2083.9898061381518346
 30
0.0
 40
0.525816226095711
 50
270.9670147780061029
 51
287.9790915550524915
  0
ARC
  5
10DB3
  8
0
 10
8528.9630582685094851
 20
2083.9336793025199768
 30
0.0
 40
0.4922590599417085
 50
270.3911764287230994
 51
302.8648160748505802
  0
ARC
  5
10DB4
  8
0
 10
8529.0014319563561003
 20
2083.8742560328400941
 30
0.0
 40
0.4215224735476699
 50
302.8667806977371129
 51
333.14870723116519
  0
ARC
  5
10DB5
  8
0
 10
8529.0413856362447405
 20
2083.8540290623559486
 30
0.0
 40
0.3767404808338864
 50
333.14870723116519
 51
353.3444293066307864
  0
ARC
  5
10DB6
  8
0
 10
8529.024866182664482
 20
2083.8557983724667793
 30
0.0
 40
0.3933537023295145
 50
353.3673310178199927
 51
359.2945096334231039
  0
ARC
  5
10DB7
  8
0
 10
8528.9664004617334285
 20
2091.2136009967148311
 30
0.0
 40
0.3543294490144103
 50
89.9969940995705144
 51
180.7773414184813134
  0
ARC
  5
10DB8
  8
0
 10
8528.9221174985668767
 20
2084.0072147315408984
 30
0.0
 40
0.3100569609659274
 50
179.0448207959115052
 51
231.5337374163906929
  0
ARC
  5
10DB9
  8
0
 10
8528.9658467042027041
 20
2084.0622511419192051
 30
0.0
 40
0.3803509854928589
 50
231.5332473609408908
 51
270.0862178936499163
  0
ARC
  5
10DBA
  8
0
 10
8528.9644538455358997
 20
2091.2115621726538848
 30
0.0
 40
0.5256001075638199
 50
89.7857720493120013
 51
227.9038315393925984
  0
ARC
  5
10DBB
  8
0
 10
8528.9663966390817222
 20
2091.2136264883338299
 30
0.0
 40
0.3779341962197733
 50
89.996602316371451
 51
200.3729735371663025
  0
ARC
  5
10DBC
  8
0
 10
8528.9664107774715376
 20
2091.2136468811968371
 30
0.0
 40
0.362185508276093
 50
94.6746666525891385
 51
191.9723725666918881
  0
LINE
  5
10DBD
  8
0
 10
8528.9368934419217112
 20
2091.5667197951388516
 30
0.0
 11
8528.9368934419217112
 21
2091.5904260072688885
 31
0.0
  0
ARC
  5
10DBE
  8
0
 10
8528.9669826420067693
 20
2083.6536238922608391
 30
0.0
 40
0.4649449429798599
 50
242.3200169094774878
 51
269.9305479026932062
  0
ARC
  5
10DBF
  8
0
 10
8528.9743187392996333
 20
2083.6453048112439319
 30
0.0
 40
0.4611022093026489
 50
195.7895272607638049
 51
241.0324670078416034
  0
ARC
  5
10DC0
  8
0
 10
8529.144844741005727
 20
2083.6788095607530522
 30
0.0
 40
0.6344687068233581
 50
181.8601832576179049
 51
194.5106706644801875
  0
ARC
  5
10DC1
  8
0
 10
8528.9397158402134664
 20
2083.9472669022211448
 30
0.0
 40
0.4293562042124488
 50
139.735018836691296
 51
177.6838891177503115
  0
ARC
  5
10DC2
  8
0
 10
8528.9143953713773953
 20
2083.9773666833129937
 30
0.0
 40
0.4038862266980116
 50
181.8087915499181975
 51
211.3490360718336945
  0
ARC
  5
10DC3
  8
0
 10
8528.9499623570991389
 20
2084.0065484081578688
 30
0.0
 40
0.4494885448218547
 50
212.1671418615869129
 51
254.2350673263634917
  0
ARC
  5
10DC4
  8
0
 10
8528.9700800941882335
 20
2084.0775655630341134
 30
0.0
 40
0.523300168985365
 50
254.2278130198068027
 51
269.5991515878969267
  0
ARC
  5
10DC5
  8
0
 10
8529.0913523626823007
 20
2083.9130548221951358
 30
0.0
 40
0.5807673531191271
 50
181.1905795079304937
 51
193.8126535746943944
  0
ARC
  5
10DC6
  8
0
 10
8528.9115209792253154
 20
2083.8833885589779129
 30
0.0
 40
0.3993035943099718
 50
195.8400070693062105
 51
224.0721615072496036
  0
ARC
  5
10DC7
  8
0
 10
8528.9561084074521204
 20
2083.9280998234648905
 30
0.0
 40
0.4624389405812943
 50
224.2096956419993035
 51
251.457917358219305
  0
ARC
  5
10DC8
  8
0
 10
8528.9708343933962169
 20
2083.9876620901459319
 30
0.0
 40
0.5236159059890096
 50
252.0027771088466864
 51
269.5168529315243973
  0
ARC
  5
10DC9
  8
0
 10
8528.9657857716447324
 20
2083.9335555603461216
 30
0.0
 40
0.4921242526207268
 50
237.1329290420900975
 51
270.073729829072704
  0
ARC
  5
10DCA
  8
0
 10
8528.927468970481641
 20
2083.8742560328400941
 30
0.0
 40
0.4215224735476699
 50
206.85129276883481
 51
237.1332193022628871
  0
ARC
  5
10DCB
  8
0
 10
8528.8875152905948198
 20
2083.8540290623559486
 30
0.0
 40
0.3767404808338864
 50
186.6555706933690999
 51
206.85129276883481
  0
ARC
  5
10DCC
  8
0
 10
8528.9042101505074243
 20
2083.8558141840658209
 30
0.0
 40
0.393529760999129
 50
180.707476983110098
 51
186.6320059041466095
  0
LINE
  5
10DCD
  8
0
 10
8529.3168269234811305
 20
2091.2183781911130609
 30
0.0
 11
8529.3168269234811305
 21
2084.0101043894610484
 31
0.0
  0
LINE
  5
10DCE
  8
0
 10
8528.6121036225831631
 20
2091.2087938973249948
 30
0.0
 11
8528.6121036225831631
 21
2084.0123834585510849
 31
0.0
  0
LINE
  5
10DCF
  8
0
 10
8528.7383612560952315
 20
2091.686048857474816
 30
0.0
 11
8529.1905397051014006
 21
2091.686048857474816
 31
0.0
  0
LINE
  5
10DD0
  8
0
 10
8528.4388599958201667
 20
2092.2805370464739099
 30
0.0
 11
8528.4388599958201667
 21
2090.5285685424742042
 31
0.0
  0
LINE
  5
10DD1
  8
0
 10
8529.5729657310603216
 20
2090.478072754175173
 30
0.0
 11
8529.5729657310603216
 21
2089.0110606185289726
 31
0.0
  0
LINE
  5
10DD2
  8
0
 10
8528.4388599958201667
 20
2090.5285685424742042
 30
0.0
 11
8528.6121036225831631
 21
2090.5285685424742042
 31
0.0
  0
LINE
  5
10DD3
  8
0
 10
8529.3168269234811305
 20
2090.5285685424742042
 30
0.0
 11
8529.490028254018398
 21
2090.5285685424742042
 31
0.0
  0
LINE
  5
10DD4
  8
0
 10
8528.3788723707784811
 20
2090.4970727541740416
 30
0.0
 11
8528.6121036225831631
 21
2090.4970727541740416
 31
0.0
  0
LINE
  5
10DD5
  8
0
 10
8529.3168269234811305
 20
2090.4970727541740416
 30
0.0
 11
8529.5539657309618633
 21
2090.4970727541740416
 31
0.0
  0
LINE
  5
10DD6
  8
0
 10
8528.3598723707782483
 20
2090.478072754175173
 30
0.0
 11
8528.3598723707782483
 21
2089.0110606304679095
 31
0.0
  0
ARC
  5
10DD7
  8
0
 10
8528.3788723707784811
 20
2090.478072754175173
 30
0.0
 40
0.019
 50
90.0
 51
180.0
  0
LINE
  5
10DD8
  8
0
 10
8528.5107103895225009
 20
2090.5285685424742042
 30
0.0
 11
8528.5107103895225009
 21
2090.4970727541740416
 31
0.0
  0
ARC
  5
10DD9
  8
0
 10
8528.7072774104781274
 20
2089.3125023262227842
 30
0.0
 40
0.3474111699369608
 50
105.8995361766025951
 51
180.3403729454396114
  0
ARC
  5
10DDA
  8
0
 10
8528.7567319067602511
 20
2089.3366241404842185
 30
0.0
 40
0.5248012842624263
 50
222.5601953475591017
 51
254.0030158873796893
  0
ARC
  5
10DDB
  8
0
 10
8528.4058359962127724
 20
2089.0106756712289098
 30
0.0
 40
0.0459652374809283
 50
179.5201417422121892
 51
219.1309835827767074
  0
LINE
  5
10DDC
  8
0
 10
8528.3598707587316312
 20
2089.0106756712289098
 30
0.0
 11
8528.3631462477951573
 21
2089.0106756712289098
 31
0.0
  0
ARC
  5
10DDD
  8
0
 10
8528.3535666505467816
 20
2089.0744241877159766
 30
0.0
 40
0.0644642694658074
 50
278.5459891006328803
 51
316.1673533925932134
  0
ARC
  5
10DDE
  8
0
 10
8528.6831111657702422
 20
2088.7339069418799227
 30
0.0
 40
0.4094548427434979
 50
123.6145590855550012
 51
133.7304053072309102
  0
ARC
  5
10DDF
  8
0
 10
8528.5325633754091541
 20
2088.9748212642398357
 30
0.0
 40
0.1257369428724603
 50
106.0820961447566049
 51
127.2613911335729995
  0
ARC
  5
10DE0
  8
0
 10
8528.5679775875578343
 20
2088.5410157128499122
 30
0.0
 40
0.5590525971051005
 50
89.5548335220796758
 51
97.2183145486458358
  0
LINE
  5
10DE1
  8
0
 10
8528.5723211705171707
 20
2089.1000514358738656
 30
0.0
 11
8528.6121036225831631
 21
2089.1000514358738656
 31
0.0
  0
LINE
  5
10DE2
  8
0
 10
8530.147282451402134
 20
2092.3353077019301054
 30
0.0
 11
8530.1631572534206498
 21
2092.5167575188738738
 31
0.0
  0
ARC
  5
10DE3
  8
0
 10
8530.0875107695173938
 20
2092.3405370464738553
 30
0.0
 40
0.06
 50
270.0
 51
355.0000000199299848
  0
ARC
  5
10DE4
  8
0
 10
8529.5539657309618633
 20
2090.478072754175173
 30
0.0
 40
0.0190000000000019
 50
0.0
 51
90.0
  0
LINE
  5
10DE5
  8
0
 10
8529.418220156490861
 20
2090.5285685424742042
 30
0.0
 11
8529.418220156490861
 21
2090.4970727541740416
 31
0.0
  0
ARC
  5
10DE6
  8
0
 10
8529.225560691262217
 20
2089.3125023262227842
 30
0.0
 40
0.3474111699369608
 50
359.6596298307023858
 51
74.7694436389585917
  0
ARC
  5
10DE7
  8
0
 10
8529.1761061949782743
 20
2089.3366241404842185
 30
0.0
 40
0.5248012842624263
 50
285.5536739832814987
 51
317.4398046524408983
  0
ARC
  5
10DE8
  8
0
 10
8529.527002105527572
 20
2089.0106756712289098
 30
0.0
 40
0.0459652374809283
 50
320.8690164172232926
 51
0.4798433474662816
  0
LINE
  5
10DE9
  8
0
 10
8529.5729673430087132
 20
2089.0106756712289098
 30
0.0
 11
8529.5696918539433682
 21
2089.0106756712289098
 31
0.0
  0
ARC
  5
10DEA
  8
0
 10
8529.5792714511953818
 20
2089.0744241877159766
 30
0.0
 40
0.0644642694658074
 50
223.8326466074067014
 51
261.4540108993671197
  0
ARC
  5
10DEB
  8
0
 10
8529.2497269359701022
 20
2088.7339069418799227
 30
0.0
 40
0.4094548427434979
 50
46.2695946927691111
 51
56.3854409144450202
  0
ARC
  5
10DEC
  8
0
 10
8529.4002747263330093
 20
2088.9748212642398357
 30
0.0
 40
0.1257369428724603
 50
52.7386088664270076
 51
73.9179038552434235
  0
ARC
  5
10DED
  8
0
 10
8529.3648605141825101
 20
2088.5410157128499122
 30
0.0
 40
0.5590525971051005
 50
82.7816854513541784
 51
90.445166477816116
  0
LINE
  5
10DEE
  8
0
 10
8529.3605169312231737
 20
2089.1000514358738656
 30
0.0
 11
8529.3168269234811305
 21
2089.1000514358738656
 31
0.0
  0
LINE
  5
10DEF
  8
0
 10
8529.490028254018398
 20
2092.2805038369651811
 30
0.0
 11
8529.490028254018398
 21
2090.5285353329650206
 31
0.0
  0
LINE
  5
10DF0
  8
0
 10
8529.4182053468812228
 20
2083.6586754731720248
 30
0.0
 11
8529.4182053468812228
 21
2083.9646183681747971
 31
0.0
  0
LINE
  5
10DF1
  8
0
 10
8528.5107103895225009
 20
2083.6582143136351988
 30
0.0
 11
8528.5107103895225009
 21
2083.9646183681747971
 31
0.0
  0
ENDSEC
  0
EOF
