  0
SECTION
  2
HEADER
  9
$ACADVER
  1
AC1009
  9
$INSBASE
 10
3714.97299028280122
 20
134.0187014262785112
 30
0.0
  9
$EXTMIN
 10
3710.6527834908879413
 20
123.7545217715783963
 30
-0.0000000349181948
  9
$EXTMAX
 10
3719.4494263032179333
 20
134.0310980591922885
 30
0.0000000814935746
  9
$LIMMIN
 10
0.0
 20
0.0
  9
$LIMMAX
 10
11.6929133858000007
 20
8.2677165353999982
  9
$ORTHOMODE
 70
     1
  9
$REGENMODE
 70
     1
  9
$FILLMODE
 70
     1
  9
$QTEXTMODE
 70
     0
  9
$MIRRTEXT
 70
     0
  9
$DRAGMODE
 70
     2
  9
$LTSCALE
 40
0.6431102362
  9
$OSMODE
 70
  4095
  9
$ATTMODE
 70
     1
  9
$TEXTSIZE
 40
0.2
  9
$TRACEWID
 40
0.05
  9
$TEXTSTYLE
  7
STANDARD
  9
$CLAYER
  8
0
  9
$CELTYPE
  6
BYLAYER
  9
$CECOLOR
 62
   256
  9
$DIMSCALE
 40
1.0
  9
$DIMASZ
 40
0.1875
  9
$DIMEXO
 40
0.0625
  9
$DIMDLI
 40
0.4443307087
  9
$DIMRND
 40
0.0
  9
$DIMDLE
 40
0.0
  9
$DIMEXE
 40
0.125
  9
$DIMTP
 40
0.01
  9
$DIMTM
 40
0.01
  9
$DIMTXT
 40
2.0
  9
$DIMCEN
 40
0.1052362205
  9
$DIMTSZ
 40
0.0
  9
$DIMTOL
 70
     1
  9
$DIMLIM
 70
     0
  9
$DIMTIH
 70
     1
  9
$DIMTOH
 70
     1
  9
$DIMSE1
 70
     0
  9
$DIMSE2
 70
     0
  9
$DIMTAD
 70
     0
  9
$DIMZIN
 70
     0
  9
$DIMBLK
  1

  9
$DIMASO
 70
     1
  9
$DIMSHO
 70
     1
  9
$DIMPOST
  1
\X
  9
$DIMAPOST
  1

  9
$DIMALT
 70
     1
  9
$DIMALTD
 70
     2
  9
$DIMALTF
 40
25.3999999999999986
  9
$DIMLFAC
 40
1.0
  9
$DIMTOFL
 70
     0
  9
$DIMTVP
 40
0.0
  9
$DIMTIX
 70
     0
  9
$DIMSOXD
 70
     0
  9
$DIMSAH
 70
     0
  9
$DIMBLK1
  1

  9
$DIMBLK2
  1

  9
$DIMSTYLE
  2
STANDARD
  9
$DIMCLRD
 70
     0
  9
$DIMCLRE
 70
     0
  9
$DIMCLRT
 70
     0
  9
$DIMTFAC
 40
1.0
  9
$DIMGAP
 40
0.09
  9
$LUNITS
 70
     2
  9
$LUPREC
 70
     4
  9
$SKETCHINC
 40
0.1
  9
$FILLETRAD
 40
0.0
  9
$AUNITS
 70
     0
  9
$AUPREC
 70
     0
  9
$MENU
  1
.
  9
$ELEVATION
 40
0.0
  9
$PELEVATION
 40
0.0
  9
$THICKNESS
 40
0.0
  9
$LIMCHECK
 70
     0
  9
$BLIPMODE
 70
     0
  9
$CHAMFERA
 40
0.0
  9
$CHAMFERB
 40
0.0
  9
$SKPOLY
 70
     0
  9
$TDCREATE
 40
2458060.468368056230247
  9
$TDUPDATE
 40
2459382.8685995368286967
  9
$TDINDWG
 40
0.3347061343
  9
$TDUSRTIMER
 40
0.3347061343
  9
$USRTIMER
 70
     1
  9
$ANGBASE
 50
0.0
  9
$ANGDIR
 70
     0
  9
$PDMODE
 70
     0
  9
$PDSIZE
 40
0.3125
  9
$PLINEWID
 40
0.0
  9
$COORDS
 70
     1
  9
$SPLFRAME
 70
     0
  9
$SPLINETYPE
 70
     6
  9
$SPLINESEGS
 70
     8
  9
$ATTDIA
 70
     1
  9
$ATTREQ
 70
     1
  9
$HANDLING
 70
     1
  9
$HANDSEED
  5
13F74
  9
$SURFTAB1
 70
     6
  9
$SURFTAB2
 70
     6
  9
$SURFTYPE
 70
     6
  9
$SURFU
 70
     6
  9
$SURFV
 70
     6
  9
$UCSNAME
  2

  9
$UCSORG
 10
0.0
 20
0.0
 30
0.0
  9
$UCSXDIR
 10
1.0
 20
0.0
 30
0.0
  9
$UCSYDIR
 10
0.0
 20
1.0
 30
0.0
  9
$PUCSNAME
  2

  9
$PUCSORG
 10
0.0
 20
0.0
 30
0.0
  9
$PUCSXDIR
 10
1.0
 20
0.0
 30
0.0
  9
$PUCSYDIR
 10
0.0
 20
1.0
 30
0.0
  9
$USERI1
 70
     0
  9
$USERI2
 70
     0
  9
$USERI3
 70
     0
  9
$USERI4
 70
     0
  9
$USERI5
 70
     0
  9
$USERR1
 40
0.0
  9
$USERR2
 40
0.0
  9
$USERR3
 40
0.0
  9
$USERR4
 40
0.0
  9
$USERR5
 40
0.0
  9
$WORLDVIEW
 70
     1
  9
$SHADEDGE
 70
     3
  9
$SHADEDIF
 70
    70
  9
$TILEMODE
 70
     1
  9
$MAXACTVP
 70
    64
  9
$PLIMCHECK
 70
     0
  9
$PEXTMIN
 10
1.0000000000000000E+20
 20
1.0000000000000000E+20
 30
1.0000000000000000E+20
  9
$PEXTMAX
 10
-1.0000000000000000E+20
 20
-1.0000000000000000E+20
 30
-1.0000000000000000E+20
  9
$PLIMMIN
 10
0.0
 20
0.0
  9
$PLIMMAX
 10
12.0
 20
9.0
  9
$UNITMODE
 70
     0
  9
$VISRETAIN
 70
     1
  9
$PLINEGEN
 70
     0
  9
$PSLTSCALE
 70
     1
  0
ENDSEC
  0
SECTION
  2
TABLES
  0
TABLE
  2
VPORT
 70
     1
  0
VPORT
  2
*ACTIVE
 70
     0
 10
0.0
 20
0.0
 11
1.0
 21
1.0
 12
-88.4929624857595627
 22
2.8975477186354648
 13
0.0
 23
0.0
 14
1.0
 24
1.0
 15
0.0
 25
0.0
 16
0.0
 26
0.0
 36
17.1152628219792007
 17
3803.5440673828129547
 27
125.9952621967499056
 37
0.0
 40
10.3591190690405401
 41
1.693029490616621
 42
50.0
 43
0.0
 44
0.0
 50
0.0
 51
0.0
 71
     0
 72
   100
 73
     1
 74
     1
 75
     0
 76
     0
 77
     0
 78
     1
  0
ENDTAB
  0
TABLE
  2
LTYPE
 70
     2
  0
LTYPE
  2
CONTINUOUS
 70
     0
  3
Solid line
 72
    65
 73
     0
 40
0.0
  0
LTYPE
  2
PHANTOM2
 70
     0
  3
___ _ _ ___ _ _ ___ _ _ ___ _ _
 72
    65
 73
     6
 40
1.25
 49
0.625
 49
-0.125
 49
0.125
 49
-0.125
 49
0.125
 49
-0.125
  0
ENDTAB
  0
TABLE
  2
LAYER
 70
     2
  0
LAYER
  2
0
 70
     0
 62
   255
  6
CONTINUOUS
  0
LAYER
  2
DEFPOINTS
 70
     0
 62
     7
  6
CONTINUOUS
  0
ENDTAB
  0
TABLE
  2
STYLE
 70
     1
  0
STYLE
  2
STANDARD
 70
     0
 40
0.0
 41
0.8
 50
0.0
 71
     0
 42
0.2
  3
txt
  4

  0
ENDTAB
  0
TABLE
  2
VIEW
 70
     3
  0
ENDTAB
  0
TABLE
  2
UCS
 70
     0
  0
ENDTAB
  0
TABLE
  2
APPID
 70
     9
  0
APPID
  2
ACAD
 70
     0
  0
APPID
  2
ACAD_MLEADERVER
 70
     0
  0
APPID
  2
ACAD_EXEMPT_FROM_CAD_STANDARDS
 70
     0
  0
APPID
  2
ACAD_NAV_VCDISPLAY
 70
     0
  0
APPID
  2
ACAECLAYERSTANDARD
 70
     0
  0
APPID
  2
ACCMTRANSPARENCY
 70
     0
  0
APPID
  2
ACAD_DSTYLE_DIMJAG
 70
     0
  0
APPID
  2
ACAD_DSTYLE_DIMTALN
 70
     0
  0
APPID
  2
ACDBATTR
 70
     0
  0
ENDTAB
  0
TABLE
  2
DIMSTYLE
 70
     1
  0
DIMSTYLE
  2
STANDARD
 70
     0
  3

  4

  5

  6

  7

 40
1.0
 41
0.1875
 42
0.0625
 43
0.38
 44
0.125
 45
0.0
 46
0.0
 47
0.01
 48
0.01
140
0.15625
141
0.09
142
0.0
143
25.3999999999999986
144
1.0
145
0.0
146
1.0
147
0.09
 71
     1
 72
     0
 73
     1
 74
     1
 75
     0
 76
     0
 77
     0
 78
     4
170
     0
171
     2
172
     0
173
     0
174
     0
175
     0
176
     0
177
     0
178
     0
  0
ENDTAB
  0
ENDSEC
  0
SECTION
  2
BLOCKS
  0
BLOCK
  8
0
  2
$MODEL_SPACE
 70
     0
 10
0.0
 20
0.0
 30
0.0
  3
$MODEL_SPACE
  1

  0
ENDBLK
  5
21
  8
0
  0
BLOCK
 67
     1
  8
0
  2
$PAPER_SPACE
 70
     0
 10
0.0
 20
0.0
 30
0.0
  3
$PAPER_SPACE
  1

  0
ENDBLK
  5
1D
 67
     1
  8
0
  0
ENDSEC
  0
SECTION
  2
ENTITIES
  0
ATTDEF
  5
132A3
  8
DEFPOINTS
 10
3714.9733177773209718
 20
134.0229148995890114
 30
0.0
 40
0.001
  1
K-99483IN-4
  3

  2
MODELNUMBER
 70
     0
1001
ACDBATTR
1070
     0
1070
     1
  0
ATTDEF
  5
132A4
  8
DEFPOINTS
 10
3714.9733177773209718
 20
134.0212482329224031
 30
0.0
 40
0.001
  1
KUMIN
  3

  2
TRADENAME
 70
     0
1001
ACDBATTR
1070
     0
1070
     1
  0
ATTDEF
  5
132A5
  8
DEFPOINTS
 10
3714.9733177773209718
 20
134.0195815662557095
 30
0.0
 40
0.001
  1
KITCHEN SINK FAUCET
  3

  2
PRODUCT
 70
     0
1001
ACDBATTR
1070
     0
1070
     1
  0
LINE
  5
13CEE
  8
0
 10
3716.6442495709511604
 20
134.0187014262785112
 30
0.0
 11
3719.2033046890510377
 21
134.0187014262785112
 31
0.0
  0
ARC
  5
13CEF
  8
0
 10
3719.2033046890601327
 20
133.9990163868976936
 30
0.0
 40
0.0196850393808301
 50
359.9999999442127887
 51
90.0000000231108856
  0
LINE
  5
13CF0
  8
0
 10
3719.2229897284400977
 20
133.9990163868785089
 30
0.0
 11
3719.2229897284400977
 21
133.8769691427785062
 31
0.0
  0
ARC
  5
13CF1
  8
0
 10
3719.0261393347959711
 20
133.8769691427426949
 30
0.0
 40
0.1968503936445429
 50
307.9999999962759034
 51
0.00000001042367
  0
LINE
  5
13CF2
  8
0
 10
3719.1473325385550197
 20
133.7218489156911971
 30
0.0
 11
3718.5408232396339372
 21
133.2479919181012065
 31
0.0
  0
ARC
  5
13CF3
  8
0
 10
3718.492345958189162
 20
133.3100400088380866
 30
0.0
 40
0.0787401573556332
 50
271.6708983379759275
 51
308.0000000000085265
  0
LINE
  5
13CF4
  8
0
 10
3718.4946419065331611
 20
133.231333331855808
 30
0.0
 11
3717.3529109882510966
 21
133.2312998514784965
 31
0.0
  0
ARC
  5
13CF5
  8
0
 10
3717.355373595913079
 20
133.3103392196640016
 30
0.0
 40
0.0790777222715144
 50
232.0390961182318961
 51
268.2154286001481864
  0
LINE
  5
13CF6
  8
0
 10
3717.3067310204810383
 20
133.2479919180784975
 30
0.0
 11
3716.6998985235532018
 21
133.7214349501873016
 31
0.0
  0
ARC
  5
13CF7
  8
0
 10
3716.8203059964239401
 20
133.8757664377289132
 30
0.0
 40
0.195745159761719
 50
179.6479588204780953
 51
232.0390961182318961
  0
LINE
  5
13CF8
  8
0
 10
3716.624564531552096
 20
133.8769691427785062
 30
0.0
 11
3716.624564531552096
 21
133.9990163868785089
 31
0.0
  0
ARC
  5
13CF9
  8
0
 10
3716.6442495709511604
 20
133.9990163868785089
 30
0.0
 40
0.0196850394000015
 50
90.0
 51
180.0
  0
LINE
  5
13CFA
  8
0
 10
3717.3529109882510966
 20
133.2312998514784965
 30
0.0
 11
3717.2938558701512193
 21
133.1722447333785055
 31
0.0
  0
LINE
  5
13CFB
  8
0
 10
3717.2938558701512193
 20
133.1722447333785055
 30
0.0
 11
3717.2938558701512193
 21
132.6998037884785049
 31
0.0
  0
LINE
  5
13CFC
  8
0
 10
3717.2938558701512193
 20
132.6998037884785049
 30
0.0
 11
3717.3529109882510966
 21
132.6407486703785139
 31
0.0
  0
LINE
  5
13CFD
  8
0
 10
3717.3529109882510966
 20
132.6407486703785139
 30
0.0
 11
3718.4946432717511016
 21
132.6407486703785139
 31
0.0
  0
LINE
  5
13CFE
  8
0
 10
3718.4946432717511016
 20
132.6407486703785139
 30
0.0
 11
3718.5536983898518884
 21
132.6998037884785049
 31
0.0
  0
LINE
  5
13CFF
  8
0
 10
3718.5536983898518884
 20
132.6998037884785049
 30
0.0
 11
3718.5536983898518884
 21
133.1722447333785055
 31
0.0
  0
LINE
  5
13D00
  8
0
 10
3718.5536983898518884
 20
133.1722447333785055
 30
0.0
 11
3718.4946419065331611
 21
133.231333331855808
 31
0.0
  0
LINE
  5
13D01
  8
0
 10
3717.2938558701512193
 20
132.6998037884785049
 30
0.0
 11
3717.3027431442519628
 21
132.6998037884785049
 31
0.0
  0
LINE
  5
13D02
  8
0
 10
3717.5219464656520358
 20
132.6998037884785049
 30
0.0
 11
3717.7045738086521851
 21
132.6998037884785049
 31
0.0
  0
LINE
  5
13D03
  8
0
 10
3718.1429804513509225
 20
132.6998037884785049
 30
0.0
 11
3718.3256077943510718
 21
132.6998037884785049
 31
0.0
  0
LINE
  5
13D04
  8
0
 10
3718.5448111157511448
 20
132.6998037884785049
 30
0.0
 11
3718.5536983898518884
 21
132.6998037884785049
 31
0.0
  0
ARC
  5
13D05
  8
0
 10
3718.4352094550508809
 20
132.8327912631847028
 30
0.0
 40
0.1723316351019888
 50
230.5063504034372102
 51
309.4936495965628183
  0
ARC
  5
13D06
  8
0
 10
3717.9237771300017812
 20
133.2903984457134925
 30
0.0
 40
0.629962018891149
 50
249.6372412005586909
 51
290.3627587994412806
  0
ARC
  5
13D07
  8
0
 10
3717.4123448049522267
 20
132.8328650303105007
 30
0.0
 40
0.1723885672139265
 50
230.5219433850290045
 51
309.4780566149719903
  0
LINE
  5
13D08
  8
0
 10
3717.2938558701512193
 20
133.1722447333785055
 30
0.0
 11
3717.3027431442519628
 21
133.1722447333785055
 31
0.0
  0
LINE
  5
13D09
  8
0
 10
3717.5219464656520358
 20
133.1722447333785055
 30
0.0
 11
3717.7045738086521851
 21
133.1722447333785055
 31
0.0
  0
LINE
  5
13D0A
  8
0
 10
3718.1429804513509225
 20
133.1722447333785055
 30
0.0
 11
3718.3256077943510718
 21
133.1722447333785055
 31
0.0
  0
LINE
  5
13D0B
  8
0
 10
3718.5448111157511448
 20
133.1722447333785055
 30
0.0
 11
3718.5536983898518884
 21
133.1722447333785055
 31
0.0
  0
ARC
  5
13D0C
  8
0
 10
3718.4352094550508809
 20
133.0392572586723077
 30
0.0
 40
0.1723316351019888
 50
50.5063504034372812
 51
129.4936495965627046
  0
ARC
  5
13D0D
  8
0
 10
3717.9237771300017812
 20
132.5816500761434895
 30
0.0
 40
0.629962018891149
 50
69.6372412005587051
 51
110.3627587994412949
  0
ARC
  5
13D0E
  8
0
 10
3717.4123448049522267
 20
133.0391834915465097
 30
0.0
 40
0.1723885672139265
 50
50.5219433850279529
 51
129.4780566149709955
  0
LINE
  5
13D0F
  8
0
 10
3717.3027431442519628
 20
133.1722447333785055
 30
0.0
 11
3717.3027431442519628
 21
132.6998037884785049
 31
0.0
  0
LINE
  5
13D10
  8
0
 10
3717.5219464656520358
 20
133.1722447333785055
 30
0.0
 11
3717.5219464656520358
 21
132.6998037884785049
 31
0.0
  0
LINE
  5
13D11
  8
0
 10
3717.7045738086521851
 20
133.1722447333785055
 30
0.0
 11
3717.7045738086521851
 21
132.6998037884785049
 31
0.0
  0
LINE
  5
13D12
  8
0
 10
3718.1429804513509225
 20
133.1722447333785055
 30
0.0
 11
3718.1429804513509225
 21
132.6998037884785049
 31
0.0
  0
LINE
  5
13D13
  8
0
 10
3718.3256077943510718
 20
133.1722447333785055
 30
0.0
 11
3718.3256077943510718
 21
132.6998037884785049
 31
0.0
  0
LINE
  5
13D14
  8
0
 10
3718.5448111157511448
 20
133.1722447333785055
 30
0.0
 11
3718.5448111157511448
 21
132.6998037884785049
 31
0.0
  0
LINE
  5
13D15
  8
0
 10
3716.624564531552096
 20
133.8769691427785062
 30
0.0
 11
3719.2229897284400977
 21
133.8769691427785062
 31
0.0
  0
LINE
  5
13D16
  8
0
 10
3712.6889214385519153
 20
132.5341185871785115
 30
0.0
 11
3717.2531213271490742
 21
132.5341188473784939
 31
0.0
  0
ARC
  5
13D17
  8
0
 10
3717.2531213277738971
 20
132.5231418595851096
 30
0.0
 40
0.0109769877934412
 50
16.4199524501045389
 51
90.0000032663720333
  0
LINE
  5
13D18
  8
0
 10
3717.2636506256521898
 20
132.5262447851785055
 30
0.0
 11
3717.263650578450779
 21
132.5223073838785126
 31
0.0
  0
ARC
  5
13D19
  8
0
 10
3717.270852225132785
 20
132.522629516108708
 30
0.0
 40
0.0072088476256776
 50
182.5611534853694025
 51
240.5963393291206103
  0
ARC
  5
13D1A
  8
0
 10
3717.2746334366261181
 20
132.5293390830767066
 30
0.0
 40
0.0149105259657958
 50
240.5963393291197008
 51
268.5444014590481174
  0
LINE
  5
13D1B
  8
0
 10
3717.2742546756521733
 20
132.5144333685784943
 30
0.0
 11
3718.5891081518279861
 21
132.5144334286785011
 31
0.0
  0
LINE
  5
13D1C
  8
0
 10
3718.5891081518279861
 20
132.5144334286785011
 30
0.0
 11
3718.5891081518279861
 21
132.2388417689184053
 31
0.0
  0
ARC
  5
13D1D
  8
0
 10
3717.6284460132669665
 20
132.2389686840747913
 30
0.0
 40
0.9606621469455989
 50
270.0032754496256189
 51
359.9924305304796803
  0
LINE
  5
13D1E
  8
0
 10
3717.6285009318057746
 20
131.2783065386990131
 30
0.0
 11
3717.0995527673690049
 21
131.2783048823758918
 31
0.0
  0
ARC
  5
13D1F
  8
0
 10
3717.0995814475118095
 20
122.1192772163200999
 30
0.0
 40
9.1590276661007266
 50
90.0001794132832345
 51
92.8831204698972073
  0
ARC
  5
13D20
  8
0
 10
3716.7097973699878821
 20
129.8588530874656897
 30
0.0
 40
1.409642768425899
 50
92.8831204698972073
 51
110.4083850465084993
  0
ARC
  5
13D21
  8
0
 10
3716.4380650364510075
 20
130.5891921471105945
 30
0.0
 40
0.6303908174290332
 50
110.4083850465084993
 51
141.0478558927947859
  0
ARC
  5
13D22
  8
0
 10
3716.4700324233490392
 20
130.5734069930369117
 30
0.0
 40
0.6652205882006748
 50
141.7215246848799097
 51
170.4555703236597139
  0
ARC
  5
13D23
  8
0
 10
3717.1542041926468301
 20
130.4007436880650062
 30
0.0
 40
1.3697307013046169
 50
168.0777312685852962
 51
178.2922938694397885
  0
ARC
  5
13D24
  8
0
 10
3723.2358295830817951
 20
130.1552278229974888
 30
0.0
 40
7.45624768248606
 50
177.799186700686505
 51
180.3349013271451895
  0
LINE
  5
13D25
  8
0
 10
3715.7797092736518607
 20
130.1116453279784935
 30
0.0
 11
3715.7799439696518675
 21
129.8927171742784878
 31
0.0
  0
LINE
  5
13D26
  8
0
 10
3715.7799439696518675
 20
129.8927171742784878
 30
0.0
 11
3715.3253519332511132
 21
129.8927171742784878
 31
0.0
  0
ARC
  5
13D27
  8
0
 10
3714.9709948051850006
 20
131.7823945614125876
 30
0.0
 40
0.3543898448514416
 50
0.7785484464049992
 51
89.6773805700106692
  0
LINE
  5
13D28
  8
0
 10
3715.3253519332511132
 20
131.7872099452835926
 30
0.0
 11
3715.3253519332511132
 21
124.5739262970785006
 31
0.0
  0
ARC
  5
13D29
  8
0
 10
3715.0153232476541234
 20
124.5781135575476952
 30
0.0
 40
0.3100569609659274
 50
308.466262583605328
 51
359.2262078393915772
  0
ARC
  5
13D2A
  8
0
 10
3714.9715845778650873
 20
124.633167110348694
 30
0.0
 40
0.3803702947721761
 50
270.2117440413995269
 51
308.4662625620449035
  0
LINE
  5
13D2B
  8
0
 10
3717.5025172874520649
 20
132.6407486703785139
 30
0.0
 11
3717.5025172874520649
 21
132.5541344971784952
 31
0.0
  0
LINE
  5
13D2C
  8
0
 10
3717.5025172874520649
 20
132.5541344971784952
 30
0.0
 11
3718.3450369725510427
 21
132.5541344971784952
 31
0.0
  0
LINE
  5
13D2D
  8
0
 10
3718.3450369725510427
 20
132.5541344971784952
 30
0.0
 11
3718.3450369725510427
 21
132.6407486703785139
 31
0.0
  0
LINE
  5
13D2E
  8
0
 10
3718.284013350451005
 20
132.5541344971784952
 30
0.0
 11
3718.284013350451005
 21
132.5144334147356062
 31
0.0
  0
LINE
  5
13D2F
  8
0
 10
3717.5635409095511932
 20
132.5541344971784952
 30
0.0
 11
3717.5635409095511932
 21
132.5144333818020925
 31
0.0
  0
ARC
  5
13D30
  8
0
 10
3714.97299028280122
 20
131.782460191178501
 30
0.0
 40
0.5255972411071094
 50
312.0981296175017974
 51
90.0
  0
LINE
  5
13D31
  8
0
 10
3715.4434623893421303
 20
131.5476881689336892
 30
0.0
 11
3715.4434623893421303
 21
132.0172322134233127
 31
0.0
  0
ARC
  5
13D32
  8
0
 10
3714.9710188813510285
 20
131.7824548939784961
 30
0.0
 40
0.3779580652428059
 50
339.6347176587432841
 51
89.7011480760302788
  0
ARC
  5
13D33
  8
0
 10
3714.9710212245518051
 20
131.782460191178501
 30
0.0
 40
0.3622047244000011
 50
348.0312544817948037
 51
85.3239592980271908
  0
LINE
  5
13D34
  8
0
 10
3715.0005487835519489
 20
132.1355515493067116
 30
0.0
 11
3715.0005487835519489
 21
132.1592577614358959
 31
0.0
  0
LINE
  5
13D35
  8
0
 10
3715.3253519332511132
 20
129.8100399301785046
 30
0.0
 11
3715.7488155152509535
 21
129.8100399301785046
 31
0.0
  0
ARC
  5
13D36
  8
0
 10
3715.7488155152509535
 20
129.777524339168508
 30
0.0
 40
0.0325155910100712
 50
356.8180301361712736
 51
90.0
  0
LINE
  5
13D37
  8
0
 10
3715.7812809763549922
 20
129.7757194862543884
 30
0.0
 11
3715.7812834461510647
 21
129.3355940689785086
 31
0.0
  0
ARC
  5
13D38
  8
0
 10
3720.2921602978231022
 20
129.2990950150293088
 30
0.0
 40
4.5110245124455348
 50
179.5364102855575936
 51
182.7247769941203899
  0
ARC
  5
13D39
  8
0
 10
3715.7350141298297785
 20
129.0810324878293898
 30
0.0
 40
0.0513492206374796
 50
355.810605015297881
 51
4.0376621256762384
  0
ARC
  5
13D3A
  8
0
 10
3715.7642853957918305
 20
129.0788883874575959
 30
0.0
 40
0.0219995327791299
 50
330.206392727582795
 51
355.8106050153028264
  0
ARC
  5
13D3B
  8
0
 10
3715.713116022477152
 20
129.1129437616463917
 30
0.0
 40
0.083428961989065
 50
305.7872849466190814
 51
327.3695459593914165
  0
ARC
  5
13D3C
  8
0
 10
3715.3652673211540787
 20
129.5570519458948979
 30
0.0
 40
0.6474907790426428
 50
291.6732091492456789
 51
307.7758623582760151
  0
ARC
  5
13D3D
  8
0
 10
3715.1946821665710559
 20
129.9798390079230046
 30
0.0
 40
1.103390829620948
 50
281.0630343290433757
 51
291.7970681742023089
  0
ARC
  5
13D3E
  8
0
 10
3715.088580367124905
 20
130.4632412669251949
 30
0.0
 40
1.598210063147373
 50
278.5196135574551022
 51
281.4706728397417237
  0
LINE
  5
13D3F
  8
0
 10
3715.3253519332511132
 20
129.1161431296785054
 30
0.0
 11
3715.6561456781992092
 21
129.1161431296785054
 31
0.0
  0
ARC
  5
13D40
  8
0
 10
3715.6561456781992092
 20
121.6039920580167006
 30
0.0
 40
7.512151071661779
 50
89.5347508743738842
 51
90.0
  0
ARC
  5
13D41
  8
0
 10
3716.4854729938210767
 20
130.1808782832877966
 30
0.0
 40
1.313189847801925
 50
234.1910909401937033
 51
235.4412388498492987
  0
ARC
  5
13D42
  8
0
 10
3715.7974885605408417
 20
129.1947753000407033
 30
0.0
 40
0.1110646400401517
 50
239.1674717661009879
 51
262.5505047534251162
  0
LINE
  5
13D43
  8
0
 10
3715.7830888170701655
 20
129.0846480861785039
 30
0.0
 11
3715.7862359016530718
 21
129.0846480861785039
 31
0.0
  0
ARC
  5
13D44
  8
0
 10
3714.8741793354979563
 20
130.0103768437784879
 30
0.0
 40
0.8569041129107713
 50
346.4796023749315736
 51
352.1079065266342241
  0
ARC
  5
13D45
  8
0
 10
3714.9704167326967763
 20
124.2246314124943041
 30
0.0
 40
0.4650604164295859
 50
270.3170648516341998
 51
297.6782761164637918
  0
ARC
  5
13D46
  8
0
 10
3714.9631220069231858
 20
124.2162036372510983
 30
0.0
 40
0.4611022093026489
 50
298.967532992200006
 51
344.2104727392267023
  0
ARC
  5
13D47
  8
0
 10
3714.7925960052161827
 20
124.2497083867604033
 30
0.0
 40
0.6344687068234159
 50
345.4893293355186756
 51
358.1814832840981921
  0
LINE
  5
13D48
  8
0
 10
3715.4267451662608437
 20
124.2295742991784948
 30
0.0
 11
3715.4267451662608437
 21
124.425406300670403
 31
0.0
  0
ARC
  5
13D49
  8
0
 10
3715.0579721503668225
 20
124.4252902830019991
 30
0.0
 40
0.3687730341446117
 50
0.0180255122801403
 51
7.2589874433744797
  0
ARC
  5
13D4A
  8
0
 10
3715.0199289237698395
 20
124.5314004832036971
 30
0.0
 40
0.4038815782692831
 50
0.584018340169043
 51
40.8681959181771006
  0
ARC
  5
13D4B
  8
0
 10
3715.060042334182981
 20
124.5318093750792059
 30
0.0
 40
0.3637660839117232
 50
327.8328581384088807
 51
0.584018340169043
  0
ARC
  5
13D4C
  8
0
 10
3714.987478389124135
 20
124.5774472341643957
 30
0.0
 40
0.4494885448218547
 50
285.7649326736092235
 51
327.8328581384088807
  0
ARC
  5
13D4D
  8
0
 10
3714.9671520823999344
 20
124.6494470485283017
 30
0.0
 40
0.5243025275622373
 50
270.6380117173710005
 51
285.7649326736092235
  0
ARC
  5
13D4E
  8
0
 10
3711.8035497651221704
 20
124.4842585641343931
 30
0.0
 40
3.6202608965481509
 50
359.8041931930686133
 51
0.572307912684784
  0
ARC
  5
13D4F
  8
0
 10
3715.0147025648420822
 20
124.4522125803914037
 30
0.0
 40
0.4095597618339718
 50
344.8675738775035029
 51
2.7533545642537391
  0
ARC
  5
13D50
  8
0
 10
3715.025919766997049
 20
124.4542873849846956
 30
0.0
 40
0.3993035943099718
 50
315.927838492760884
 51
344.1599929307085972
  0
ARC
  5
13D51
  8
0
 10
3714.9813323387688797
 20
124.4989986494712042
 30
0.0
 40
0.4624389405812943
 50
288.5420826417770854
 51
315.7903043579618725
  0
ARC
  5
13D52
  8
0
 10
3714.9663944322819589
 20
124.5594320653953986
 30
0.0
 40
0.5245099128370034
 50
270.7205285332324252
 51
287.9898375911457151
  0
ARC
  5
13D53
  8
0
 10
3714.9716476535782022
 20
124.5044703112828017
 30
0.0
 40
0.4921416015311275
 50
270.1563108729652072
 51
302.8667806977582018
  0
ARC
  5
13D54
  8
0
 10
3715.0099717757389044
 20
124.4451548588463936
 30
0.0
 40
0.4215224735476699
 50
302.8667806977582018
 51
333.1487072311547877
  0
ARC
  5
13D55
  8
0
 10
3715.0499254556261803
 20
124.4249278883630012
 30
0.0
 40
0.3767404808338864
 50
333.1487072311547877
 51
353.3444293066355044
  0
ARC
  5
13D56
  8
0
 10
3715.0334060020450124
 20
124.4266971984743009
 30
0.0
 40
0.3933537023295145
 50
353.3673310178277802
 51
359.2945096334315735
  0
LINE
  5
13D57
  8
0
 10
3713.3017309946521891
 20
134.0187014262785112
 30
0.0
 11
3710.7426758765509476
 21
134.0187014262785112
 31
0.0
  0
ARC
  5
13D58
  8
0
 10
3710.7426758765441264
 20
133.9990163868976936
 30
0.0
 40
0.019685039380839
 50
89.9999999768891286
 51
180.0000000557660087
  0
LINE
  5
13D59
  8
0
 10
3710.7229908371618876
 20
133.9990163868785089
 30
0.0
 11
3710.7229908371618876
 21
133.8769691427785062
 31
0.0
  0
ARC
  5
13D5A
  8
0
 10
3710.9198412308069237
 20
133.8769691427426949
 30
0.0
 40
0.19685039364454
 50
179.999999989573098
 51
232.0000000037231871
  0
LINE
  5
13D5B
  8
0
 10
3710.7986480270478751
 20
133.7218489156911971
 30
0.0
 11
3711.4051573259698671
 21
133.2479919181012065
 31
0.0
  0
ARC
  5
13D5C
  8
0
 10
3711.4536346074141875
 20
133.3100400088380866
 30
0.0
 40
0.0787401573556332
 50
231.9999999999915019
 51
268.3291016620240725
  0
LINE
  5
13D5D
  8
0
 10
3711.4513386590701884
 20
133.231333331855808
 30
0.0
 11
3712.5930695773508887
 21
133.2312998514784965
 31
0.0
  0
ARC
  5
13D5E
  8
0
 10
3712.5906069696898157
 20
133.3103392196640016
 30
0.0
 40
0.0790777222715144
 50
271.7845713998518136
 51
307.9609038817681039
  0
LINE
  5
13D5F
  8
0
 10
3712.6392495451218565
 20
133.2479919180784975
 30
0.0
 11
3713.2460820420501477
 21
133.7214349501873016
 31
0.0
  0
ARC
  5
13D60
  8
0
 10
3713.1256745691780452
 20
133.8757664377289132
 30
0.0
 40
0.195745159761719
 50
307.9609038817681039
 51
0.3520411795219032
  0
LINE
  5
13D61
  8
0
 10
3713.321416034052163
 20
133.8769691427785062
 30
0.0
 11
3713.321416034052163
 21
133.9990163868785089
 31
0.0
  0
ARC
  5
13D62
  8
0
 10
3713.3017309946521891
 20
133.9990163868785089
 30
0.0
 40
0.0196850394000015
 50
0.0
 51
90.0
  0
LINE
  5
13D63
  8
0
 10
3712.5930695773508887
 20
133.2312998514784965
 30
0.0
 11
3712.6521246954512208
 21
133.1722447333785055
 31
0.0
  0
LINE
  5
13D64
  8
0
 10
3712.6521246954512208
 20
133.1722447333785055
 30
0.0
 11
3712.6521246954512208
 21
132.6998037884785049
 31
0.0
  0
LINE
  5
13D65
  8
0
 10
3712.6521246954512208
 20
132.6998037884785049
 30
0.0
 11
3712.5930695773508887
 21
132.6407486703785139
 31
0.0
  0
LINE
  5
13D66
  8
0
 10
3712.5930695773508887
 20
132.6407486703785139
 30
0.0
 11
3711.4513372938508837
 21
132.6407486703785139
 31
0.0
  0
LINE
  5
13D67
  8
0
 10
3711.4513372938508837
 20
132.6407486703785139
 30
0.0
 11
3711.3922821757510064
 21
132.6998037884785049
 31
0.0
  0
LINE
  5
13D68
  8
0
 10
3711.3922821757510064
 20
132.6998037884785049
 30
0.0
 11
3711.3922821757510064
 21
133.1722447333785055
 31
0.0
  0
LINE
  5
13D69
  8
0
 10
3711.3922821757510064
 20
133.1722447333785055
 30
0.0
 11
3711.4513386590701884
 21
133.231333331855808
 31
0.0
  0
LINE
  5
13D6A
  8
0
 10
3712.6521246954512208
 20
132.6998037884785049
 30
0.0
 11
3712.6432374213518415
 21
132.6998037884785049
 31
0.0
  0
LINE
  5
13D6B
  8
0
 10
3712.4240340999522232
 20
132.6998037884785049
 30
0.0
 11
3712.2414067569520739
 21
132.6998037884785049
 31
0.0
  0
LINE
  5
13D6C
  8
0
 10
3711.8030001142510628
 20
132.6998037884785049
 30
0.0
 11
3711.620372771251823
 21
132.6998037884785049
 31
0.0
  0
LINE
  5
13D6D
  8
0
 10
3711.4011694498522047
 20
132.6998037884785049
 30
0.0
 11
3711.3922821757510064
 21
132.6998037884785049
 31
0.0
  0
ARC
  5
13D6E
  8
0
 10
3711.5107711105511044
 20
132.8327912631847028
 30
0.0
 40
0.1723316351019888
 50
230.5063504034372102
 51
309.4936495965628183
  0
ARC
  5
13D6F
  8
0
 10
3712.0222034356011136
 20
133.2903984457134925
 30
0.0
 40
0.629962018891149
 50
249.6372412005586909
 51
290.3627587994412806
  0
ARC
  5
13D70
  8
0
 10
3712.5336357606520323
 20
132.8328650303105007
 30
0.0
 40
0.1723885672139265
 50
230.5219433850278961
 51
309.4780566149719903
  0
LINE
  5
13D71
  8
0
 10
3712.6521246954512208
 20
133.1722447333785055
 30
0.0
 11
3712.6432374213518415
 21
133.1722447333785055
 31
0.0
  0
LINE
  5
13D72
  8
0
 10
3712.4240340999522232
 20
133.1722447333785055
 30
0.0
 11
3712.2414067569520739
 21
133.1722447333785055
 31
0.0
  0
LINE
  5
13D73
  8
0
 10
3711.8030001142510628
 20
133.1722447333785055
 30
0.0
 11
3711.620372771251823
 21
133.1722447333785055
 31
0.0
  0
LINE
  5
13D74
  8
0
 10
3711.4011694498522047
 20
133.1722447333785055
 30
0.0
 11
3711.3922821757510064
 21
133.1722447333785055
 31
0.0
  0
ARC
  5
13D75
  8
0
 10
3711.5107711105511044
 20
133.0392572586723077
 30
0.0
 40
0.1723316351019888
 50
50.5063504034372812
 51
129.4936495965627046
  0
ARC
  5
13D76
  8
0
 10
3712.0222034356011136
 20
132.5816500761434895
 30
0.0
 40
0.629962018891149
 50
69.6372412005587051
 51
110.3627587994412949
  0
ARC
  5
13D77
  8
0
 10
3712.5336357606520323
 20
133.0391834915465097
 30
0.0
 40
0.1723885672139265
 50
50.5219433850279529
 51
129.4780566149719903
  0
LINE
  5
13D78
  8
0
 10
3712.6432374213518415
 20
133.1722447333785055
 30
0.0
 11
3712.6432374213518415
 21
132.6998037884785049
 31
0.0
  0
LINE
  5
13D79
  8
0
 10
3712.4240340999522232
 20
133.1722447333785055
 30
0.0
 11
3712.4240340999522232
 21
132.6998037884785049
 31
0.0
  0
LINE
  5
13D7A
  8
0
 10
3712.2414067569520739
 20
133.1722447333785055
 30
0.0
 11
3712.2414067569520739
 21
132.6998037884785049
 31
0.0
  0
LINE
  5
13D7B
  8
0
 10
3711.8030001142510628
 20
133.1722447333785055
 30
0.0
 11
3711.8030001142510628
 21
132.6998037884785049
 31
0.0
  0
LINE
  5
13D7C
  8
0
 10
3711.620372771251823
 20
133.1722447333785055
 30
0.0
 11
3711.620372771251823
 21
132.6998037884785049
 31
0.0
  0
LINE
  5
13D7D
  8
0
 10
3711.4011694498522047
 20
133.1722447333785055
 30
0.0
 11
3711.4011694498522047
 21
132.6998037884785049
 31
0.0
  0
LINE
  5
13D7E
  8
0
 10
3713.321416034052163
 20
133.8769691427785062
 30
0.0
 11
3710.7229908371618876
 21
133.8769691427785062
 31
0.0
  0
ARC
  5
13D7F
  8
0
 10
3712.6928592378280882
 20
132.5231418595851096
 30
0.0
 40
0.0109769877934412
 50
89.9999967336279525
 51
163.5800475498955109
  0
LINE
  5
13D80
  8
0
 10
3712.6823299399511598
 20
132.5262447851785055
 30
0.0
 11
3712.6823299871512063
 21
132.5223073838785126
 31
0.0
  0
ARC
  5
13D81
  8
0
 10
3712.6751283404701098
 20
132.522629516108708
 30
0.0
 40
0.0072088476256776
 50
299.4036606708795034
 51
357.4388465146304839
  0
ARC
  5
13D82
  8
0
 10
3712.6713471289767767
 20
132.5293390830767066
 30
0.0
 40
0.0149105259657958
 50
271.4555985409518826
 51
299.4036606708802992
  0
LINE
  5
13D83
  8
0
 10
3712.6717258899511762
 20
132.5144333685784943
 30
0.0
 11
3711.3568724137739991
 21
132.5144334286785011
 31
0.0
  0
LINE
  5
13D84
  8
0
 10
3711.3568724137739991
 20
132.5144334286785011
 30
0.0
 11
3711.3568724137739991
 21
132.2388417689184053
 31
0.0
  0
ARC
  5
13D85
  8
0
 10
3712.3175345523359283
 20
132.2389686840747913
 30
0.0
 40
0.9606621469455989
 50
180.0075694695202912
 51
269.9967245503743811
  0
LINE
  5
13D86
  8
0
 10
3712.3174796337971202
 20
131.2783065386990131
 30
0.0
 11
3712.8464277982338899
 21
131.2783048823758918
 31
0.0
  0
ARC
  5
13D87
  8
0
 10
3712.8463991180910853
 20
122.1192772163200999
 30
0.0
 40
9.1590276661007266
 50
87.1168795301028069
 51
89.9998205867167655
  0
ARC
  5
13D88
  8
0
 10
3713.2361831956141032
 20
129.8588530874656897
 30
0.0
 40
1.409642768425899
 50
69.5916149534915291
 51
87.1168795301028069
  0
ARC
  5
13D89
  8
0
 10
3713.5079155291509778
 20
130.5891921471105945
 30
0.0
 40
0.6303908174290332
 50
38.9521441072051928
 51
69.5916149534915291
  0
ARC
  5
13D8A
  8
0
 10
3713.4759481422529461
 20
130.5734069930369117
 30
0.0
 40
0.6652205882006748
 50
9.5444296763402168
 51
38.2784753151200974
  0
ARC
  5
13D8B
  8
0
 10
3712.7917763729560647
 20
130.4007436880650062
 30
0.0
 40
1.3697307013046169
 50
1.7077061305601471
 51
11.9222687314147002
  0
ARC
  5
13D8C
  8
0
 10
3706.7101509825201902
 20
130.1552278229974888
 30
0.0
 40
7.45624768248606
 50
359.6650986728548105
 51
2.200813299313459
  0
LINE
  5
13D8D
  8
0
 10
3714.1662712919510341
 20
130.1116453279784935
 30
0.0
 11
3714.1660365959510273
 21
129.8927171742784878
 31
0.0
  0
LINE
  5
13D8E
  8
0
 10
3714.1660365959510273
 20
129.8927171742784878
 30
0.0
 11
3714.6206286323508721
 21
129.8927171742784878
 31
0.0
  0
ARC
  5
13D8F
  8
0
 10
3714.9749857604188037
 20
131.7823945614125876
 30
0.0
 40
0.3543898448514416
 50
90.322619429989345
 51
179.2214515535949886
  0
LINE
  5
13D90
  8
0
 10
3714.6206286323508721
 20
131.7872099452835926
 30
0.0
 11
3714.6206286323508721
 21
124.5739262970785006
 31
0.0
  0
ARC
  5
13D91
  8
0
 10
3714.9306573179492261
 20
124.5781135575476952
 30
0.0
 40
0.3100569609659274
 50
180.7737921606083944
 51
231.5337374163948141
  0
ARC
  5
13D92
  8
0
 10
3714.9743959877378074
 20
124.633167110348694
 30
0.0
 40
0.3803702947721761
 50
231.5337374379552102
 51
269.7882559586004731
  0
LINE
  5
13D93
  8
0
 10
3712.4434632781521941
 20
132.6407486703785139
 30
0.0
 11
3712.4434632781521941
 21
132.5541344971784952
 31
0.0
  0
LINE
  5
13D94
  8
0
 10
3712.4434632781521941
 20
132.5541344971784952
 30
0.0
 11
3711.6009435930509426
 21
132.5541344971784952
 31
0.0
  0
LINE
  5
13D95
  8
0
 10
3711.6009435930509426
 20
132.5541344971784952
 30
0.0
 11
3711.6009435930509426
 21
132.6407486703785139
 31
0.0
  0
LINE
  5
13D96
  8
0
 10
3711.6619672151518898
 20
132.5541344971784952
 30
0.0
 11
3711.6619672151518898
 21
132.5144334147356062
 31
0.0
  0
LINE
  5
13D97
  8
0
 10
3712.3824396560521564
 20
132.5541344971784952
 30
0.0
 11
3712.3824396560521564
 21
132.5144333818020925
 31
0.0
  0
ARC
  5
13D98
  8
0
 10
3714.97299028280122
 20
131.782460191178501
 30
0.0
 40
0.5255972411071094
 50
90.0
 51
227.9018703824982026
  0
LINE
  5
13D99
  8
0
 10
3714.502518176259855
 20
131.5476881689336892
 30
0.0
 11
3714.502518176259855
 21
132.0172322134233127
 31
0.0
  0
ARC
  5
13D9A
  8
0
 10
3714.9749616842518662
 20
131.7824548939784961
 30
0.0
 40
0.3779580652428059
 50
90.2988519239697354
 51
200.3652823412566875
  0
ARC
  5
13D9B
  8
0
 10
3714.9749593410510897
 20
131.782460191178501
 30
0.0
 40
0.3622047244000011
 50
94.676040701972795
 51
191.968745518205111
  0
LINE
  5
13D9C
  8
0
 10
3714.9454317820518554
 20
132.1355515493067116
 30
0.0
 11
3714.9454317820518554
 21
132.1592577614358959
 31
0.0
  0
LINE
  5
13D9D
  8
0
 10
3714.6206286323508721
 20
129.8100399301785046
 30
0.0
 11
3714.1971650503519413
 21
129.8100399301785046
 31
0.0
  0
ARC
  5
13D9E
  8
0
 10
3714.1971650503519413
 20
129.777524339168508
 30
0.0
 40
0.0325155910100712
 50
90.0
 51
183.181969863828698
  0
LINE
  5
13D9F
  8
0
 10
3714.1646995892469931
 20
129.7757194862543884
 30
0.0
 11
3714.1646971194509206
 21
129.3355940689785086
 31
0.0
  0
ARC
  5
13DA0
  8
0
 10
3709.6538202677797926
 20
129.2990950150293088
 30
0.0
 40
4.5110245124455348
 50
357.2752230058778764
 51
0.4635897144423339
  0
ARC
  5
13DA1
  8
0
 10
3714.2109664357731162
 20
129.0810324878293898
 30
0.0
 40
0.0513492206374796
 50
175.9623378743237083
 51
184.1893949847020053
  0
ARC
  5
13DA2
  8
0
 10
3714.1816951698110643
 20
129.0788883874575959
 30
0.0
 40
0.0219995327791299
 50
184.1893949846970884
 51
209.7936072724170913
  0
ARC
  5
13DA3
  8
0
 10
3714.2328645431261975
 20
129.1129437616463917
 30
0.0
 40
0.083428961989065
 50
212.6304540406086119
 51
234.2127150533808901
  0
ARC
  5
13DA4
  8
0
 10
3714.5807132444488161
 20
129.5570519458948979
 30
0.0
 40
0.6474907790426428
 50
232.2241376417240133
 51
248.3267908507542927
  0
ARC
  5
13DA5
  8
0
 10
3714.7512983990318389
 20
129.9798390079230046
 30
0.0
 40
1.103390829620948
 50
248.2029318257978048
 51
258.9369656709565106
  0
ARC
  5
13DA6
  8
0
 10
3714.8574001984770803
 20
130.4632412669251949
 30
0.0
 40
1.598210063147373
 50
258.5293271602582763
 51
261.4803864425448978
  0
LINE
  5
13DA7
  8
0
 10
3714.6206286323508721
 20
129.1161431296785054
 30
0.0
 11
3714.2898348874041403
 21
129.1161431296785054
 31
0.0
  0
ARC
  5
13DA8
  8
0
 10
3714.2898348874041403
 20
121.6039920580167006
 30
0.0
 40
7.512151071661779
 50
90.0
 51
90.4652491256261442
  0
ARC
  5
13DA9
  8
0
 10
3713.4605075717809086
 20
130.1808782832877966
 30
0.0
 40
1.313189847801925
 50
304.5587611501496781
 51
305.8089090598062967
  0
ARC
  5
13DAA
  8
0
 10
3714.1484920050620531
 20
129.1947753000407033
 30
0.0
 40
0.1110646400401517
 50
277.449495246574827
 51
300.8325282338989837
  0
LINE
  5
13DAB
  8
0
 10
3714.1628917485318198
 20
129.0846480861785039
 30
0.0
 11
3714.159744663949823
 21
129.0846480861785039
 31
0.0
  0
ARC
  5
13DAC
  8
0
 10
3715.0718012301049384
 20
130.0103768437784879
 30
0.0
 40
0.8569041129107713
 50
187.8920934733658044
 51
193.5203976250683127
  0
ARC
  5
13DAD
  8
0
 10
3714.9755638329061185
 20
124.2246314124943041
 30
0.0
 40
0.4650604164295859
 50
242.3217238835362934
 51
269.6829351483656865
  0
ARC
  5
13DAE
  8
0
 10
3714.9828585586801637
 20
124.2162036372510983
 30
0.0
 40
0.4611022093026489
 50
195.7895272607732124
 51
241.032467007799994
  0
ARC
  5
13DAF
  8
0
 10
3715.1533845603871669
 20
124.2497083867604033
 30
0.0
 40
0.6344687068234159
 50
181.8185167159001026
 51
194.5106706644812959
  0
LINE
  5
13DB0
  8
0
 10
3714.5192353993420511
 20
124.2295742991784948
 30
0.0
 11
3714.5192353993420511
 21
124.425406300670403
 31
0.0
  0
ARC
  5
13DB1
  8
0
 10
3714.8880084152360723
 20
124.4252902830019991
 30
0.0
 40
0.3687730341446117
 50
172.7410125566254919
 51
179.9819744877198104
  0
ARC
  5
13DB2
  8
0
 10
3714.9260516418330553
 20
124.5314004832036971
 30
0.0
 40
0.4038815782692831
 50
139.1318040818229065
 51
179.4159816598308907
  0
ARC
  5
13DB3
  8
0
 10
3714.8859382314199138
 20
124.5318093750792059
 30
0.0
 40
0.3637660839117232
 50
179.4159816598308907
 51
212.1671418615910056
  0
ARC
  5
13DB4
  8
0
 10
3714.9585021764792145
 20
124.5774472341643957
 30
0.0
 40
0.4494885448218547
 50
212.1671418615910056
 51
254.235067326390805
  0
ARC
  5
13DB5
  8
0
 10
3714.9788284832038698
 20
124.6494470485283017
 30
0.0
 40
0.5243025275622373
 50
254.235067326390805
 51
269.3619882826288858
  0
ARC
  5
13DB6
  8
0
 10
3718.1424308004798149
 20
124.4842585641343931
 30
0.0
 40
3.6202608965481509
 50
179.4276920873151937
 51
180.1958068069313015
  0
ARC
  5
13DB7
  8
0
 10
3714.9312780007608126
 20
124.4522125803914037
 30
0.0
 40
0.4095597618339718
 50
177.2466454357463022
 51
195.1324261224964971
  0
ARC
  5
13DB8
  8
0
 10
3714.9200607986049363
 20
124.4542873849846956
 30
0.0
 40
0.3993035943099718
 50
195.8400070692912891
 51
224.0721615072390875
  0
ARC
  5
13DB9
  8
0
 10
3714.9646482268340151
 20
124.4989986494712042
 30
0.0
 40
0.4624389405812943
 50
224.2096956420380138
 51
251.4579173582228862
  0
ARC
  5
13DBA
  8
0
 10
3714.9795861333209359
 20
124.5594320653953986
 30
0.0
 40
0.5245099128370034
 50
252.0101624088543133
 51
269.2794714667675748
  0
ARC
  5
13DBB
  8
0
 10
3714.9743329120237831
 20
124.5044703112828017
 30
0.0
 40
0.4921416015311275
 50
237.1332193022417982
 51
269.8436891270346791
  0
ARC
  5
13DBC
  8
0
 10
3714.9360087898639904
 20
124.4451548588463936
 30
0.0
 40
0.4215224735476699
 50
206.8512927688452123
 51
237.1332193022417982
  0
ARC
  5
13DBD
  8
0
 10
3714.8960551099771692
 20
124.4249278883630012
 30
0.0
 40
0.3767404808338864
 50
186.6555706933644956
 51
206.8512927688452123
  0
ARC
  5
13DBE
  8
0
 10
3714.9125745635578824
 20
124.4266971984743009
 30
0.0
 40
0.3933537023295145
 50
180.7054903665683128
 51
186.6326689821721914
  0
ENDSEC
  0
EOF
