  0
SECTION
  2
HEADER
  9
$ACADVER
  1
AC1009
  9
$INSBASE
 10
3714.9728889795810574
 20
158.9036398657079872
 30
0.0
  9
$EXTMIN
 10
3710.4822607894170687
 20
157.5939306718613011
 30
-0.0000000000112498
  9
$EXTMAX
 10
3719.2791720744471604
 20
168.549740766298811
 30
0.0000000000002956
  9
$LIMMIN
 10
0.0
 20
0.0
  9
$LIMMAX
 10
11.6929133858000007
 20
8.2677165353999982
  9
$ORTHOMODE
 70
     1
  9
$REGENMODE
 70
     1
  9
$FILLMODE
 70
     1
  9
$QTEXTMODE
 70
     0
  9
$MIRRTEXT
 70
     0
  9
$DRAGMODE
 70
     2
  9
$LTSCALE
 40
0.6431102362
  9
$OSMODE
 70
  4095
  9
$ATTMODE
 70
     1
  9
$TEXTSIZE
 40
0.2
  9
$TRACEWID
 40
0.05
  9
$TEXTSTYLE
  7
STANDARD
  9
$CLAYER
  8
0
  9
$CELTYPE
  6
BYLAYER
  9
$CECOLOR
 62
   256
  9
$DIMSCALE
 40
1.0
  9
$DIMASZ
 40
0.1875
  9
$DIMEXO
 40
0.0625
  9
$DIMDLI
 40
0.4443307087
  9
$DIMRND
 40
0.0
  9
$DIMDLE
 40
0.0
  9
$DIMEXE
 40
0.125
  9
$DIMTP
 40
0.01
  9
$DIMTM
 40
0.01
  9
$DIMTXT
 40
2.0
  9
$DIMCEN
 40
0.1052362205
  9
$DIMTSZ
 40
0.0
  9
$DIMTOL
 70
     1
  9
$DIMLIM
 70
     0
  9
$DIMTIH
 70
     1
  9
$DIMTOH
 70
     1
  9
$DIMSE1
 70
     0
  9
$DIMSE2
 70
     0
  9
$DIMTAD
 70
     0
  9
$DIMZIN
 70
     0
  9
$DIMBLK
  1

  9
$DIMASO
 70
     1
  9
$DIMSHO
 70
     1
  9
$DIMPOST
  1
\X
  9
$DIMAPOST
  1

  9
$DIMALT
 70
     1
  9
$DIMALTD
 70
     2
  9
$DIMALTF
 40
25.3999999999999986
  9
$DIMLFAC
 40
1.0
  9
$DIMTOFL
 70
     0
  9
$DIMTVP
 40
0.0
  9
$DIMTIX
 70
     0
  9
$DIMSOXD
 70
     0
  9
$DIMSAH
 70
     0
  9
$DIMBLK1
  1

  9
$DIMBLK2
  1

  9
$DIMSTYLE
  2
STANDARD
  9
$DIMCLRD
 70
     0
  9
$DIMCLRE
 70
     0
  9
$DIMCLRT
 70
     0
  9
$DIMTFAC
 40
1.0
  9
$DIMGAP
 40
0.09
  9
$LUNITS
 70
     2
  9
$LUPREC
 70
     4
  9
$SKETCHINC
 40
0.1
  9
$FILLETRAD
 40
0.0
  9
$AUNITS
 70
     0
  9
$AUPREC
 70
     0
  9
$MENU
  1
.
  9
$ELEVATION
 40
0.0
  9
$PELEVATION
 40
0.0
  9
$THICKNESS
 40
0.0
  9
$LIMCHECK
 70
     0
  9
$BLIPMODE
 70
     0
  9
$CHAMFERA
 40
0.0
  9
$CHAMFERB
 40
0.0
  9
$SKPOLY
 70
     0
  9
$TDCREATE
 40
2458060.468368056230247
  9
$TDUPDATE
 40
2459382.8682754631154239
  9
$TDINDWG
 40
0.3349954861
  9
$TDUSRTIMER
 40
0.3349954861
  9
$USRTIMER
 70
     1
  9
$ANGBASE
 50
0.0
  9
$ANGDIR
 70
     0
  9
$PDMODE
 70
     0
  9
$PDSIZE
 40
0.3125
  9
$PLINEWID
 40
0.0
  9
$COORDS
 70
     1
  9
$SPLFRAME
 70
     0
  9
$SPLINETYPE
 70
     6
  9
$SPLINESEGS
 70
     8
  9
$ATTDIA
 70
     1
  9
$ATTREQ
 70
     1
  9
$HANDLING
 70
     1
  9
$HANDSEED
  5
1493D
  9
$SURFTAB1
 70
     6
  9
$SURFTAB2
 70
     6
  9
$SURFTYPE
 70
     6
  9
$SURFU
 70
     6
  9
$SURFV
 70
     6
  9
$UCSNAME
  2

  9
$UCSORG
 10
0.0
 20
0.0
 30
0.0
  9
$UCSXDIR
 10
1.0
 20
0.0
 30
0.0
  9
$UCSYDIR
 10
0.0
 20
1.0
 30
0.0
  9
$PUCSNAME
  2

  9
$PUCSORG
 10
0.0
 20
0.0
 30
0.0
  9
$PUCSXDIR
 10
1.0
 20
0.0
 30
0.0
  9
$PUCSYDIR
 10
0.0
 20
1.0
 30
0.0
  9
$USERI1
 70
     0
  9
$USERI2
 70
     0
  9
$USERI3
 70
     0
  9
$USERI4
 70
     0
  9
$USERI5
 70
     0
  9
$USERR1
 40
0.0
  9
$USERR2
 40
0.0
  9
$USERR3
 40
0.0
  9
$USERR4
 40
0.0
  9
$USERR5
 40
0.0
  9
$WORLDVIEW
 70
     1
  9
$SHADEDGE
 70
     3
  9
$SHADEDIF
 70
    70
  9
$TILEMODE
 70
     1
  9
$MAXACTVP
 70
    64
  9
$PLIMCHECK
 70
     0
  9
$PEXTMIN
 10
1.0000000000000000E+20
 20
1.0000000000000000E+20
 30
1.0000000000000000E+20
  9
$PEXTMAX
 10
-1.0000000000000000E+20
 20
-1.0000000000000000E+20
 30
-1.0000000000000000E+20
  9
$PLIMMIN
 10
0.0
 20
0.0
  9
$PLIMMAX
 10
12.0
 20
9.0
  9
$UNITMODE
 70
     0
  9
$VISRETAIN
 70
     1
  9
$PLINEGEN
 70
     0
  9
$PSLTSCALE
 70
     1
  0
ENDSEC
  0
SECTION
  2
TABLES
  0
TABLE
  2
VPORT
 70
     1
  0
VPORT
  2
*ACTIVE
 70
     0
 10
0.0
 20
0.0
 11
1.0
 21
1.0
 12
-88.6633509508810675
 22
37.076573522330122
 13
0.0
 23
0.0
 14
1.0
 24
1.0
 15
0.0
 25
0.0
 16
0.0
 26
0.0
 36
17.1152628219792007
 17
3803.5440673828129547
 27
125.9952621967499056
 37
0.0
 40
11.0438085690915901
 41
1.6930294906166219
 42
50.0
 43
0.0
 44
0.0
 50
0.0
 51
0.0
 71
     0
 72
   100
 73
     1
 74
     1
 75
     0
 76
     0
 77
     0
 78
     0
  0
ENDTAB
  0
TABLE
  2
LTYPE
 70
     2
  0
LTYPE
  2
CONTINUOUS
 70
     0
  3
Solid line
 72
    65
 73
     0
 40
0.0
  0
LTYPE
  2
PHANTOM2
 70
     0
  3
___ _ _ ___ _ _ ___ _ _ ___ _ _
 72
    65
 73
     6
 40
1.25
 49
0.625
 49
-0.125
 49
0.125
 49
-0.125
 49
0.125
 49
-0.125
  0
ENDTAB
  0
TABLE
  2
LAYER
 70
     2
  0
LAYER
  2
0
 70
     0
 62
   255
  6
CONTINUOUS
  0
LAYER
  2
DEFPOINTS
 70
     0
 62
     7
  6
CONTINUOUS
  0
ENDTAB
  0
TABLE
  2
STYLE
 70
     1
  0
STYLE
  2
STANDARD
 70
     0
 40
0.0
 41
0.8
 50
0.0
 71
     0
 42
0.2
  3
txt
  4

  0
ENDTAB
  0
TABLE
  2
VIEW
 70
     3
  0
ENDTAB
  0
TABLE
  2
UCS
 70
     0
  0
ENDTAB
  0
TABLE
  2
APPID
 70
     9
  0
APPID
  2
ACAD
 70
     0
  0
APPID
  2
ACAD_MLEADERVER
 70
     0
  0
APPID
  2
ACAD_EXEMPT_FROM_CAD_STANDARDS
 70
     0
  0
APPID
  2
ACAD_NAV_VCDISPLAY
 70
     0
  0
APPID
  2
ACAECLAYERSTANDARD
 70
     0
  0
APPID
  2
ACCMTRANSPARENCY
 70
     0
  0
APPID
  2
ACAD_DSTYLE_DIMJAG
 70
     0
  0
APPID
  2
ACAD_DSTYLE_DIMTALN
 70
     0
  0
APPID
  2
ACDBATTR
 70
     0
  0
ENDTAB
  0
TABLE
  2
DIMSTYLE
 70
     1
  0
DIMSTYLE
  2
STANDARD
 70
     0
  3

  4

  5

  6

  7

 40
1.0
 41
0.1875
 42
0.0625
 43
0.38
 44
0.125
 45
0.0
 46
0.0
 47
0.01
 48
0.01
140
0.15625
141
0.09
142
0.0
143
25.3999999999999986
144
1.0
145
0.0
146
1.0
147
0.09
 71
     1
 72
     0
 73
     1
 74
     1
 75
     0
 76
     0
 77
     0
 78
     4
170
     0
171
     2
172
     0
173
     0
174
     0
175
     0
176
     0
177
     0
178
     0
  0
ENDTAB
  0
ENDSEC
  0
SECTION
  2
BLOCKS
  0
BLOCK
  8
0
  2
$MODEL_SPACE
 70
     0
 10
0.0
 20
0.0
 30
0.0
  3
$MODEL_SPACE
  1

  0
ENDBLK
  5
21
  8
0
  0
BLOCK
 67
     1
  8
0
  2
$PAPER_SPACE
 70
     0
 10
0.0
 20
0.0
 30
0.0
  3
$PAPER_SPACE
  1

  0
ENDBLK
  5
1D
 67
     1
  8
0
  0
ENDSEC
  0
SECTION
  2
ENTITIES
  0
ATTDEF
  5
132A6
  8
DEFPOINTS
 10
3714.9733177773209718
 20
158.9080429442390141
 30
0.0
 40
0.001
  1
K-99483IN-4
  3

  2
MODELNUMBER
 70
     0
1001
ACDBATTR
1070
     0
1070
     1
  0
ATTDEF
  5
132A7
  8
DEFPOINTS
 10
3714.9733177773209718
 20
158.9063762775722921
 30
0.0
 40
0.001
  1
KUMIN
  3

  2
TRADENAME
 70
     0
1001
ACDBATTR
1070
     0
1070
     1
  0
ATTDEF
  5
132A8
  8
DEFPOINTS
 10
3714.9733177773209718
 20
158.9047096109057122
 30
0.0
 40
0.001
  1
KITCHEN SINK FAUCET
  3

  2
PRODUCT
 70
     0
1001
ACDBATTR
1070
     0
1070
     1
  0
ARC
  5
14130
  8
0
 10
3716.9344691143551245
 20
165.3478295980717121
 30
0.0
 40
5.8558178296224961
 50
263.5220636170076887
 51
271.6144738326823926
  0
ARC
  5
14131
  8
0
 10
3716.5948494279109582
 20
161.741403761868213
 30
0.0
 40
2.2351800967324631
 50
248.4597437855105113
 51
261.7420913590858049
  0
ARC
  5
14132
  8
0
 10
3714.9750514197839948
 20
161.5414680820094873
 30
0.0
 40
0.768629527062159
 50
25.6882533156448183
 51
90.1611945107628685
  0
ARC
  5
14133
  8
0
 10
3715.0285176906891138
 20
161.5633398851967115
 30
0.0
 40
0.7109751300176956
 50
0.5796121899451169
 51
25.9675817595151983
  0
ARC
  5
14134
  8
0
 10
3708.8061846568039073
 20
161.343784954173799
 30
0.0
 40
6.9369785862451359
 50
359.6577223465753264
 51
1.873145220558093
  0
ARC
  5
14135
  8
0
 10
3765.61752724195685
 20
161.429426712616106
 30
0.0
 40
49.8746496838736491
 50
180.1459915581131099
 51
182.0304590794438013
  0
ARC
  5
14136
  8
0
 10
3697.9454161281000779
 20
158.9870932382692104
 30
0.0
 40
17.8415582289528416
 50
0.5120010698168201
 51
2.1689474334220318
  0
ARC
  5
14137
  8
0
 10
3714.9368979133441826
 20
159.1465251441138093
 30
0.0
 40
0.8493640888871214
 50
310.2519729203572183
 51
0.0
  0
ARC
  5
14138
  8
0
 10
3714.9704488845059132
 20
159.1223290693619958
 30
0.0
 40
0.8092798705130118
 50
270.1727552684081957
 51
309.5459424718723085
  0
LINE
  5
14139
  8
0
 10
3718.5853000952251932
 20
158.9687234308580059
 30
0.0
 11
3715.7674434607129115
 21
158.9687234308580059
 31
0.0
  0
ARC
  5
1413A
  8
0
 10
3714.9709199213311877
 20
168.186723665357988
 30
0.0
 40
0.3543307086999997
 50
0.0
 51
89.6815988418386638
  0
LINE
  5
1413B
  8
0
 10
3715.3252506300300411
 20
168.186723665357988
 30
0.0
 11
3715.3252506300300411
 21
165.7622723213796121
 31
0.0
  0
ARC
  5
1413C
  8
0
 10
3714.9741542958900027
 20
164.9625877800309013
 30
0.0
 40
0.8829151555472162
 50
76.0702350159855314
 51
90.0821112975939968
  0
ARC
  5
1413D
  8
0
 10
3715.0712210139158742
 20
165.343903087274299
 30
0.0
 40
0.4894526145697702
 50
58.7342946804156796
 51
76.3531991079838406
  0
ARC
  5
1413E
  8
0
 10
3715.236285418947773
 20
165.5969131203943903
 30
0.0
 40
0.1877723998180761
 50
3.5954996547745282
 51
61.7192215736620327
  0
LINE
  5
1413F
  8
0
 10
3715.4236882183299713
 20
165.6086887272579986
 30
0.0
 11
3715.4236882177301595
 21
165.4171758075335958
 31
0.0
  0
ARC
  5
14140
  8
0
 10
3715.3377881718070057
 20
165.416182969653903
 30
0.0
 40
0.0859057833717067
 50
348.8459037162136269
 51
0.6621985676156844
  0
ARC
  5
14141
  8
0
 10
3715.3354351855641653
 20
165.4151301483595944
 30
0.0
 40
0.0882735150785128
 50
1.148487852459946
 51
26.9113804752905992
  0
ARC
  5
14142
  8
0
 10
3715.2654624967481141
 20
165.3727760726860936
 30
0.0
 40
0.1699480543402882
 50
28.9673413221631684
 51
57.2967331347759625
  0
ARC
  5
14143
  8
0
 10
3715.0904199227488789
 20
165.0955027522327043
 30
0.0
 40
0.4978477976317813
 50
57.5859144516465804
 51
77.6633833175066997
  0
ARC
  5
14144
  8
0
 10
3714.9826408806061409
 20
164.6793908011034944
 30
0.0
 40
0.9275236615267397
 50
76.6511180058605959
 51
86.7303624566477112
  0
ARC
  5
14145
  8
0
 10
3714.958469288842025
 20
164.2720199835868868
 30
0.0
 40
1.335610280975033
 50
86.691845482247615
 51
89.3814037792507747
  0
ARC
  5
14146
  8
0
 10
3714.9678996791531063
 20
164.6554714512901114
 30
0.0
 40
0.9383475599998869
 50
72.7856976449923962
 51
89.6953504049294139
  0
ARC
  5
14147
  8
0
 10
3715.14906516031715
 20
165.2431664803231968
 30
0.0
 40
0.3233645107243746
 50
47.2031746588513101
 51
72.630446541270274
  0
ARC
  5
14148
  8
0
 10
3714.9323150527520738
 20
164.224690026715308
 30
0.0
 40
1.3409148168144931
 50
78.2106677068370715
 51
88.2660571554714721
  0
ARC
  5
14149
  8
0
 10
3715.0884399763049259
 20
165.0443264391645073
 30
0.0
 40
0.5068810112128121
 50
56.9291884793124296
 51
76.5565535946429208
  0
ARC
  5
1414A
  8
0
 10
3715.2817904085959526
 20
165.3412559449450043
 30
0.0
 40
0.1525485104881132
 50
33.4160427360667924
 51
56.9291884793124296
  0
ARC
  5
1414B
  8
0
 10
3715.3057853465570588
 20
165.3570873328027915
 30
0.0
 40
0.1238015125702118
 50
20.0728243178413095
 51
33.4160427360667924
  0
ARC
  5
1414C
  8
0
 10
3715.3544533532849528
 20
165.374871123908207
 30
0.0
 40
0.0719860891439455
 50
4.5908010860163371
 51
20.0728243178413095
  0
ARC
  5
1414D
  8
0
 10
3715.3386638329361631
 20
165.3718754640871964
 30
0.0
 40
0.0879815806124056
 50
0.3401569646245539
 51
5.7124596651077111
  0
ARC
  5
1414E
  8
0
 10
3715.2741863387850572
 20
165.3893423731072119
 30
0.0
 40
0.1313124612912999
 50
25.6105514597492991
 51
43.9279699909287302
  0
LINE
  5
1414F
  8
0
 10
3715.4266438630402263
 20
165.3723977952579958
 30
0.0
 11
3715.4266438630402263
 21
164.9561859409122064
 31
0.0
  0
ARC
  5
14150
  8
0
 10
3714.7757881339312007
 20
164.9560004058064919
 30
0.0
 40
0.6508557555540052
 50
341.0354928474965277
 51
0.0163329256381966
  0
ARC
  5
14151
  8
0
 10
3714.9738767003927933
 20
164.0162265713744887
 30
0.0
 40
0.9341943130148839
 50
78.7855984282961401
 51
90.0605786651236571
  0
ARC
  5
14152
  8
0
 10
3715.0474750822518217
 20
164.3683032339478132
 30
0.0
 40
0.5745386643755352
 50
63.5819355254945222
 51
79.1566697801817583
  0
ARC
  5
14153
  8
0
 10
3715.2011584772458264
 20
164.6776514931945883
 30
0.0
 40
0.2291187295192068
 50
42.351945794645431
 51
63.5819355254945222
  0
ARC
  5
14154
  8
0
 10
3715.296489780103002
 20
164.7645544261899033
 30
0.0
 40
0.1001219192192963
 50
10.0655640708462393
 51
42.351945794645431
  0
ARC
  5
14155
  8
0
 10
3715.3181135656341212
 20
164.7707729063531019
 30
0.0
 40
0.0777794355779741
 50
340.2451646582758258
 51
8.3389982047923041
  0
ARC
  5
14156
  8
0
 10
3715.2667734430310702
 20
164.7934954779337886
 30
0.0
 40
0.1338389681369904
 50
322.6675813388815186
 51
338.518598792218711
  0
ARC
  5
14157
  8
0
 10
3715.219646333538094
 20
164.8387223449022088
 30
0.0
 40
0.1988755141364761
 50
302.0735211662554889
 51
320.5404714082903865
  0
ARC
  5
14158
  8
0
 10
3715.0638420468721961
 20
165.1099280004532943
 30
0.0
 40
0.511560019377664
 50
280.2747111691531927
 51
300.7306463535849161
  0
ARC
  5
14159
  8
0
 10
3714.979073079678983
 20
165.4767379373068081
 30
0.0
 40
0.8877899457678941
 50
273.4358785963507898
 51
281.4353348283664218
  0
ARC
  5
1415A
  8
0
 10
3714.9404950787779853
 20
166.5319507677101001
 30
0.0
 40
1.943575422321058
 50
270.9550026821851247
 51
272.706776290676089
  0
ARC
  5
1415B
  8
0
 10
3714.9720566082701225
 20
165.4988180773740964
 30
0.0
 40
0.9006359234382079
 50
270.0529529953690826
 51
278.4941365514525273
  0
ARC
  5
1415C
  8
0
 10
3715.0076719748608411
 20
165.2603431547144908
 30
0.0
 40
0.6595161542881272
 50
278.4941365514525273
 51
292.4277454334147137
  0
ARC
  5
1415D
  8
0
 10
3715.1651068903461237
 20
164.878901803258799
 30
0.0
 40
0.2468622348666702
 50
292.4277454334147137
 51
316.155033674977517
  0
ARC
  5
1415E
  8
0
 10
3715.2809217793192147
 20
164.7676647073137985
 30
0.0
 40
0.0862796080906639
 50
316.155033674977517
 51
6.0985897023206608
  0
ARC
  5
1415F
  8
0
 10
3715.2704199069207789
 20
164.7581436078002923
 30
0.0
 40
0.0980897395539961
 50
10.9827474188047596
 51
45.61597617712453
  0
ARC
  5
14160
  8
0
 10
3715.1374134440711714
 20
164.6123860964449932
 30
0.0
 40
0.2953717037624933
 50
46.9539129652496001
 51
72.3973245628056219
  0
ARC
  5
14161
  8
0
 10
3714.9883443988751424
 20
164.1831591359519109
 30
0.0
 40
0.7496820606419793
 50
71.4584022601864319
 51
87.6473947073108661
  0
ARC
  5
14162
  8
0
 10
3714.9710526893700262
 20
164.001811020181691
 30
0.0
 40
0.9316390255751603
 50
87.0426575841796648
 51
89.8870681194550798
  0
ARC
  5
14163
  8
0
 10
3714.9719025375889032
 20
164.1169983025592103
 30
0.0
 40
0.7923795668566737
 50
79.4477895221119041
 51
89.9286718388220834
  0
ARC
  5
14164
  8
0
 10
3715.0194730718258143
 20
164.3723670330057018
 30
0.0
 40
0.5326178602533309
 50
67.8743628043715432
 51
79.4477895221119041
  0
ARC
  5
14165
  8
0
 10
3715.1204510716129334
 20
164.6207269965238993
 30
0.0
 40
0.2645148428893538
 50
50.6567074413393286
 51
67.8743628043715432
  0
ARC
  5
14166
  8
0
 10
3715.2198950860820332
 20
164.7420367124493907
 30
0.0
 40
0.1076545254352343
 50
30.3208969516487414
 51
50.6567074413393286
  0
ARC
  5
14167
  8
0
 10
3715.2481744999890907
 20
164.7585757066493954
 30
0.0
 40
0.0748938236719753
 50
356.1176999089385049
 51
30.3208969516487414
  0
ARC
  5
14168
  8
0
 10
3715.2677764652571568
 20
164.7572454622086866
 30
0.0
 40
0.0552467731893763
 50
330.3190589088104048
 51
356.1176999089385049
  0
ARC
  5
14169
  8
0
 10
3715.1970764188949943
 20
164.7975408935159862
 30
0.0
 40
0.1366237867729077
 50
308.2736686778230819
 51
330.3190589088104048
  0
ARC
  5
1416A
  8
0
 10
3715.1140645840268917
 20
164.9121731851340087
 30
0.0
 40
0.2780974339291988
 50
291.0096003922002978
 51
307.0712075548864846
  0
ARC
  5
1416B
  8
0
 10
3715.0175419737370248
 20
165.1559636561117088
 30
0.0
 40
0.5402932633492991
 50
279.8883962571874235
 51
291.2960306628700096
  0
ARC
  5
1416C
  8
0
 10
3714.9792483968799388
 20
165.3483768819322961
 30
0.0
 40
0.7364390437774893
 50
275.5045949321399235
 51
280.2526361586166104
  0
ARC
  5
1416D
  8
0
 10
3714.9712991467781649
 20
165.4290855515016005
 30
0.0
 40
0.8175380802327513
 50
270.1114208246881958
 51
275.5165487833417046
  0
LINE
  5
1416E
  8
0
 10
3715.3390352478199929
 20
164.8282401982957026
 30
0.0
 11
3715.3390301409299354
 21
164.7746846413579931
 31
0.0
  0
ARC
  5
1416F
  8
0
 10
3715.2576000481831215
 20
164.7746924062761877
 30
0.0
 40
0.081430093117764
 50
332.8482050472179026
 51
359.994536454226818
  0
ARC
  5
14170
  8
0
 10
3715.2185919194198505
 20
164.7946983920220987
 30
0.0
 40
0.1252692716593303
 50
312.8014484495997749
 51
332.8482050472179026
  0
ARC
  5
14171
  8
0
 10
3715.153826321320139
 20
164.8646353292228923
 30
0.0
 40
0.2205885135905627
 50
297.2716515740362979
 51
312.8014484495997749
  0
ARC
  5
14172
  8
0
 10
3715.0557776196778832
 20
165.0548320441324961
 30
0.0
 40
0.4345706115706751
 50
286.5081625657902009
 51
297.2716515740362979
  0
ARC
  5
14173
  8
0
 10
3714.9992944581049414
 20
165.2454162937920046
 30
0.0
 40
0.6333486379208173
 50
277.1757876855365907
 51
286.5081625657902009
  0
ARC
  5
14174
  8
0
 10
3714.9673031151828582
 20
165.4992596717492859
 30
0.0
 40
0.8891999733027836
 50
270.3599286656777849
 51
277.1778617956804283
  0
ARC
  5
14175
  8
0
 10
3715.264759052620775
 20
164.7733214817735927
 30
0.0
 40
0.0743452257549421
 50
2.5557597441773079
 51
28.1290163415130898
  0
ARC
  5
14176
  8
0
 10
3715.2341923484868857
 20
164.7569804830770863
 30
0.0
 40
0.1090057456597069
 50
28.1290163415130898
 51
46.3525124817161469
  0
ARC
  5
14177
  8
0
 10
3715.1648646700268728
 20
164.6842999653142954
 30
0.0
 40
0.2094486879851387
 50
46.3525124817161469
 51
60.3695109040301716
  0
ARC
  5
14178
  8
0
 10
3715.0797630884771934
 20
164.5346795291457909
 30
0.0
 40
0.3815781569944898
 50
60.3695109040301716
 51
75.3485313075010197
  0
ARC
  5
14179
  8
0
 10
3714.9609637341509369
 20
164.0802755677391076
 30
0.0
 40
0.8512549040562253
 50
75.3485313075010197
 51
82.9344769017673968
  0
ARC
  5
1417A
  8
0
 10
3714.9718950629521714
 20
164.0864817955782939
 30
0.0
 40
0.8438114724842222
 50
83.6192713205022784
 51
88.8408477791304279
  0
ARC
  5
1417B
  8
0
 10
3715.0095411136858274
 20
167.4153620255000874
 30
0.0
 40
2.4853266112681132
 50
269.1550049346009814
 51
269.525642197876607
  0
ARC
  5
1417C
  8
0
 10
3714.9717792769688458
 20
164.1796966321784907
 30
0.0
 40
0.7196427163863964
 50
82.1474065463074936
 51
89.9116487947661938
  0
ARC
  5
1417D
  8
0
 10
3714.9976048359949345
 20
164.3507852967958058
 30
0.0
 40
0.5466344218233113
 50
71.8567803796518376
 51
82.3788826758455315
  0
ARC
  5
1417E
  8
0
 10
3715.0884453403818952
 20
164.6137829846564955
 30
0.0
 40
0.2684620838711433
 50
52.3006101704685307
 51
72.8019182395486695
  0
ARC
  5
1417F
  8
0
 10
3715.1834546409199902
 20
164.7398691073331918
 30
0.0
 40
0.1106158343748785
 50
32.02202245839527
 51
51.3009804142662418
  0
ARC
  5
14180
  8
0
 10
3715.2264937130162252
 20
164.765950902985395
 30
0.0
 40
0.0602998097356013
 50
345.3202179775095146
 51
32.6947263225075133
  0
ARC
  5
14181
  8
0
 10
3715.2111542049510717
 20
164.7719488040993951
 30
0.0
 40
0.0766824727829038
 50
320.3050369441381235
 51
343.8893446305759767
  0
ARC
  5
14182
  8
0
 10
3715.1557713207271263
 20
164.8192775471090101
 30
0.0
 40
0.1495296723949067
 50
300.9743312891080791
 51
319.9048806297503802
  0
ARC
  5
14183
  8
0
 10
3715.0531023100070342
 20
164.9961499958191098
 30
0.0
 40
0.3540314761959122
 50
283.4945923332493862
 51
300.4888249234562068
  0
ARC
  5
14184
  8
0
 10
3714.9789894649670714
 20
165.2776336769699981
 30
0.0
 40
0.6450700059550685
 50
272.7411154800441864
 51
284.0614135395501876
  0
ARC
  5
14185
  8
0
 10
3714.9710412378090041
 20
165.376801484659012
 30
0.0
 40
0.7445113196860735
 50
270.1421978564954998
 51
272.9871193170973811
  0
ARC
  5
14186
  8
0
 10
3714.9710211130859534
 20
165.3900773033385008
 30
0.0
 40
0.7472530826779527
 50
270.143219186049123
 51
274.7766738509686206
  0
ARC
  5
14187
  8
0
 10
3714.9888732443469053
 20
165.2324248380404867
 30
0.0
 40
0.5886800447773958
 50
274.3229135007358082
 51
288.1083859690484132
  0
ARC
  5
14188
  8
0
 10
3715.0880835668231157
 20
164.9360779658375122
 30
0.0
 40
0.2761837095932052
 50
287.654625618836576
 51
306.4408205496278015
  0
ARC
  5
14189
  8
0
 10
3715.1902074518939116
 20
164.7977669128798937
 30
0.0
 40
0.1042557151533167
 50
306.4408205496278015
 51
328.9620368614038739
  0
ARC
  5
1418A
  8
0
 10
3715.2217674844550857
 20
164.7744503420676097
 30
0.0
 40
0.0652973378737573
 50
332.2153884702896107
 51
349.0720946130285824
  0
ARC
  5
1418B
  8
0
 10
3715.2290508625560506
 20
164.7727168020255135
 30
0.0
 40
0.0578182924889719
 50
349.3905601406107735
 51
356.0280686334028246
  0
LINE
  5
1418C
  8
0
 10
3715.0332220794298337
 20
164.8271923573580011
 30
0.0
 11
3715.0263020326301557
 21
164.8162777047579937
 31
0.0
  0
ARC
  5
1418D
  8
0
 10
3715.021118356372881
 20
164.8195642300937038
 30
0.0
 40
0.0061377315294667
 50
273.5907383043116852
 51
327.6247145926457165
  0
ARC
  5
1418E
  8
0
 10
3715.0246643064238015
 20
164.8198914582092129
 30
0.0
 40
0.0071857807296463
 50
182.3493669743104135
 51
243.897846988886414
  0
LINE
  5
1418F
  8
0
 10
3715.017484565731138
 20
164.8195968936580016
 30
0.0
 11
3715.0174845656301841
 21
164.8319022017579982
 31
0.0
  0
LINE
  5
14190
  8
0
 10
3715.0174845656301841
 20
164.8195968960953905
 30
0.0
 11
3715.0236376058301175
 21
164.8293017841579911
 31
0.0
  0
LINE
  5
14191
  8
0
 10
3715.0215027575300155
 20
164.8134385477580111
 30
0.0
 11
3715.0208633400311555
 21
164.8128735902579933
 31
0.0
  0
LINE
  5
14192
  8
0
 10
3715.0275691415199617
 20
164.8182762538623933
 30
0.0
 11
3715.0470826688310808
 21
164.8100293843579891
 31
0.0
  0
LINE
  5
14193
  8
0
 10
3715.0470826688310808
 20
164.8100293843579891
 30
0.0
 11
3715.0745274294299634
 21
164.8131372714580039
 31
0.0
  0
LINE
  5
14194
  8
0
 10
3715.0745274294299634
 20
164.8131372714580039
 30
0.0
 11
3715.0806804695148458
 21
164.8228421619336075
 31
0.0
  0
LINE
  5
14195
  8
0
 10
3715.0902649431059217
 20
164.8207327352197069
 30
0.0
 11
3715.083344896429935
 21
164.8098180826580119
 31
0.0
  0
ARC
  5
14196
  8
0
 10
3715.0781612200257769
 20
164.8131046080389979
 30
0.0
 40
0.006137731677458
 50
273.5907386522050047
 51
327.6247149670783188
  0
LINE
  5
14197
  8
0
 10
3715.0785456212302051
 20
164.8069789255580133
 30
0.0
 11
3715.0779083434299537
 21
164.8064141583579953
 31
0.0
  0
LINE
  5
14198
  8
0
 10
3715.0779083434299537
 20
164.8064141583579953
 30
0.0
 11
3715.0485066686660502
 21
164.8030847193147963
 31
0.0
  0
ARC
  5
14199
  8
0
 10
3715.0475402756678704
 20
164.8116187613103136
 30
0.0
 40
0.0085885847616197
 50
257.024948285579228
 51
276.4606395412957909
  0
ARC
  5
1419A
  8
0
 10
3715.0448624721061606
 20
164.8092818183270083
 30
0.0
 40
0.0060787326295796
 50
248.0581534990288048
 51
277.0819162129718052
  0
LINE
  5
1419B
  8
0
 10
3715.0425910604308228
 20
164.8036434072579937
 30
0.0
 11
3715.0208654797302188
 21
164.8128737804580055
 31
0.0
  0
ARC
  5
1419C
  8
0
 10
3715.0337776931119151
 20
164.8093661292730019
 30
0.0
 40
0.0133214971320116
 50
332.6672296267850015
 51
2.853840582330009
  0
LINE
  5
1419D
  8
0
 10
3715.0470826688228954
 20
164.810029384257092
 30
0.0
 11
3715.0470826688310808
 21
164.8287387197474061
 31
0.0
  0
LINE
  5
1419E
  8
0
 10
3715.0745274294299634
 20
164.8254425794928864
 30
0.0
 11
3715.0745274294299634
 21
164.8131372714580039
 31
0.0
  0
ARC
  5
1419F
  8
0
 10
3715.0817071867900268
 20
164.8134318468841002
 30
0.0
 40
0.0071857978285074
 50
182.3494481645940084
 51
243.8977657986148984
  0
LINE
  5
141A0
  8
0
 10
3715.0485066687301696
 20
164.8030847192580097
 30
0.0
 11
3715.0415866219300369
 21
164.7921700666580023
 31
0.0
  0
ARC
  5
141A1
  8
0
 10
3715.0364029456732169
 20
164.7954565919937124
 30
0.0
 40
0.0061377315294667
 50
273.5907383043116852
 51
327.6247145926457165
  0
ARC
  5
141A2
  8
0
 10
3715.0399488957241374
 20
164.7957838201091931
 30
0.0
 40
0.0071857807296463
 50
182.3493669743104135
 51
243.897846988886414
  0
LINE
  5
141A3
  8
0
 10
3715.0327691550301097
 20
164.7954892555580102
 30
0.0
 11
3715.0327691549300653
 21
164.8077945636580068
 31
0.0
  0
LINE
  5
141A4
  8
0
 10
3715.0327691549300653
 20
164.7954892579953992
 30
0.0
 11
3715.0389221951299987
 21
164.8051941460579997
 31
0.0
  0
LINE
  5
141A5
  8
0
 10
3715.0367873468308062
 20
164.7893309096579912
 30
0.0
 11
3715.0361479293310367
 21
164.7887659521580019
 31
0.0
  0
LINE
  5
141A6
  8
0
 10
3715.0428537308198429
 20
164.7941686157624019
 30
0.0
 11
3715.062367258130962
 21
164.7859217462579977
 31
0.0
  0
LINE
  5
141A7
  8
0
 10
3715.062367258130962
 20
164.7859217462579977
 30
0.0
 11
3715.0898120187312088
 21
164.7890296333580125
 31
0.0
  0
LINE
  5
141A8
  8
0
 10
3715.0898120187312088
 20
164.7890296333580125
 30
0.0
 11
3715.0959650588151817
 21
164.7987345238335877
 31
0.0
  0
LINE
  5
141A9
  8
0
 10
3715.1055495324058029
 20
164.7966250971198008
 30
0.0
 11
3715.0986294857298162
 21
164.7857104445579921
 31
0.0
  0
ARC
  5
141AA
  8
0
 10
3715.0934458093261128
 20
164.7889969699390065
 30
0.0
 40
0.006137731677458
 50
273.5907386522050047
 51
327.6247149670783188
  0
LINE
  5
141AB
  8
0
 10
3715.0938302105300863
 20
164.7828712874579935
 30
0.0
 11
3715.0931929327311991
 21
164.782306520258004
 31
0.0
  0
LINE
  5
141AC
  8
0
 10
3715.0931929327311991
 20
164.782306520258004
 30
0.0
 11
3715.0637912579659314
 21
164.7789770812148049
 31
0.0
  0
ARC
  5
141AD
  8
0
 10
3715.0628248649682064
 20
164.7875111232102938
 30
0.0
 40
0.0085885847616197
 50
257.024948285579228
 51
276.4606395412957909
  0
ARC
  5
141AE
  8
0
 10
3715.0601470614060418
 20
164.7851741802269885
 30
0.0
 40
0.0060787326295796
 50
248.0581534990288048
 51
277.0819162129718052
  0
LINE
  5
141AF
  8
0
 10
3715.0578756497297945
 20
164.7795357691580023
 30
0.0
 11
3715.0361500690301
 21
164.7887661423580141
 31
0.0
  0
ARC
  5
141B0
  8
0
 10
3715.0490622824131606
 20
164.7852584911730105
 30
0.0
 40
0.0133214971320116
 50
332.6672296267850015
 51
2.853840582330009
  0
LINE
  5
141B1
  8
0
 10
3715.0623672581227765
 20
164.7859217461571859
 30
0.0
 11
3715.062367258130962
 21
164.8046310816473863
 31
0.0
  0
LINE
  5
141B2
  8
0
 10
3715.0898120187312088
 20
164.801334941392895
 30
0.0
 11
3715.0898120187312088
 21
164.7890296333580125
 31
0.0
  0
ARC
  5
141B3
  8
0
 10
3715.0969917760899079
 20
164.7893242087841088
 30
0.0
 40
0.0071857978285074
 50
182.3494481645940084
 51
243.8977657986148984
  0
LINE
  5
141B4
  8
0
 10
3715.0637912579809381
 20
164.7789770811079961
 30
0.0
 11
3715.0568712111808054
 21
164.7680624285079887
 31
0.0
  0
ARC
  5
141B5
  8
0
 10
3715.0516875349230759
 20
164.7713489538436988
 30
0.0
 40
0.0061377315294667
 50
273.5907383043116852
 51
327.6247145926457165
  0
ARC
  5
141B6
  8
0
 10
3715.0552334849739964
 20
164.771676181959208
 30
0.0
 40
0.0071857807296463
 50
182.3493669743104135
 51
243.897846988886414
  0
LINE
  5
141B7
  8
0
 10
3715.0480537442799687
 20
164.7713816174079966
 30
0.0
 11
3715.0480537441799243
 21
164.7836869255079932
 31
0.0
  0
LINE
  5
141B8
  8
0
 10
3715.0480537441799243
 20
164.771381619845414
 30
0.0
 11
3715.0542067843798577
 21
164.7810865079079861
 31
0.0
  0
LINE
  5
141B9
  8
0
 10
3715.0520719360811199
 20
164.7652232715080061
 30
0.0
 11
3715.0514325185799862
 21
164.7646583140079883
 31
0.0
  0
LINE
  5
141BA
  8
0
 10
3715.0581383200701566
 20
164.770060977612502
 30
0.0
 11
3715.0776518473799115
 21
164.7618141081080125
 31
0.0
  0
LINE
  5
141BB
  8
0
 10
3715.0776518473799115
 20
164.7618141081080125
 30
0.0
 11
3715.1050966079801583
 21
164.7649219952079989
 31
0.0
  0
LINE
  5
141BC
  8
0
 10
3715.1050966079801583
 20
164.7649219952079989
 30
0.0
 11
3715.1112496480650407
 21
164.7746268856836025
 31
0.0
  0
LINE
  5
141BD
  8
0
 10
3715.1208341216561166
 20
164.7725174589697019
 30
0.0
 11
3715.1139140749810394
 21
164.7616028064080069
 31
0.0
  0
ARC
  5
141BE
  8
0
 10
3715.1087303985759718
 20
164.7648893317889929
 30
0.0
 40
0.006137731677458
 50
273.5907386522050047
 51
327.6247149670783188
  0
LINE
  5
141BF
  8
0
 10
3715.1091147997799453
 20
164.7587636493080083
 30
0.0
 11
3715.1084775219801486
 21
164.7581988821079904
 31
0.0
  0
LINE
  5
141C0
  8
0
 10
3715.1084775219801486
 20
164.7581988821079904
 30
0.0
 11
3715.0790758472157904
 21
164.7548694430647913
 31
0.0
  0
ARC
  5
141C1
  8
0
 10
3715.0781094542189749
 20
164.7634034850603939
 30
0.0
 40
0.0085885847616197
 50
257.024948285579228
 51
276.4606395412957909
  0
ARC
  5
141C2
  8
0
 10
3715.0754316506559007
 20
164.7610665420770033
 30
0.0
 40
0.0060787326295796
 50
248.0581534990288048
 51
277.0819162129718052
  0
LINE
  5
141C3
  8
0
 10
3715.0731602389810178
 20
164.7554281310079887
 30
0.0
 11
3715.051434658279959
 21
164.7646585042080005
 31
0.0
  0
ARC
  5
141C4
  8
0
 10
3715.0643468716621101
 20
164.7611508530229969
 30
0.0
 40
0.0133214971320116
 50
332.6672296267850015
 51
2.853840582330009
  0
LINE
  5
141C5
  8
0
 10
3715.0776518473730903
 20
164.761814108007087
 30
0.0
 11
3715.0776518473799115
 21
164.7805234434974011
 31
0.0
  0
LINE
  5
141C6
  8
0
 10
3715.1050966079801583
 20
164.7772273032429098
 30
0.0
 11
3715.1050966079801583
 21
164.7649219952079989
 31
0.0
  0
ARC
  5
141C7
  8
0
 10
3715.1122763653411312
 20
164.7652165706340952
 30
0.0
 40
0.0071857978285074
 50
182.3494481645940084
 51
243.8977657986148984
  0
LINE
  5
141C8
  8
0
 10
3715.0790758472298876
 20
164.7548694430080047
 30
0.0
 11
3715.0721558004302096
 21
164.7439547904079973
 31
0.0
  0
ARC
  5
141C9
  8
0
 10
3715.0669721241729349
 20
164.7472413157437074
 30
0.0
 40
0.0061377315294667
 50
273.5907383043116852
 51
327.6247145926457165
  0
ARC
  5
141CA
  8
0
 10
3715.0705180742238554
 20
164.7475685438591881
 30
0.0
 40
0.0071857807296463
 50
182.3493669743104135
 51
243.897846988886414
  0
LINE
  5
141CB
  8
0
 10
3715.0633383335311919
 20
164.7472739793080052
 30
0.0
 11
3715.0633383334297832
 21
164.7595792874080018
 31
0.0
  0
LINE
  5
141CC
  8
0
 10
3715.0633383334297832
 20
164.7472739817453942
 30
0.0
 11
3715.0694913736301714
 21
164.7569788698079947
 31
0.0
  0
LINE
  5
141CD
  8
0
 10
3715.0673565253300694
 20
164.7411156334079863
 30
0.0
 11
3715.0667171078312094
 21
164.7405506759079969
 31
0.0
  0
LINE
  5
141CE
  8
0
 10
3715.0734229093200156
 20
164.745953339512397
 30
0.0
 11
3715.0929364366311347
 21
164.7377064700079927
 31
0.0
  0
LINE
  5
141CF
  8
0
 10
3715.0929364366311347
 20
164.7377064700079927
 30
0.0
 11
3715.1203811972300173
 21
164.7408143571080075
 31
0.0
  0
LINE
  5
141D0
  8
0
 10
3715.1203811972300173
 20
164.7408143571080075
 30
0.0
 11
3715.1265342373148997
 21
164.7505192475836111
 31
0.0
  0
LINE
  5
141D1
  8
0
 10
3715.1361187109059756
 20
164.7484098208697958
 30
0.0
 11
3715.1291986642299889
 21
164.7374951683079871
 31
0.0
  0
ARC
  5
141D2
  8
0
 10
3715.1240149878258308
 20
164.7407816936890015
 30
0.0
 40
0.006137731677458
 50
273.5907386522050047
 51
327.6247149670783188
  0
LINE
  5
141D3
  8
0
 10
3715.1243993890311685
 20
164.7346560112079885
 30
0.0
 11
3715.1237621112300076
 21
164.734091244007999
 31
0.0
  0
LINE
  5
141D4
  8
0
 10
3715.1237621112300076
 20
164.734091244007999
 30
0.0
 11
3715.0943604364670136
 21
164.7307618049647999
 31
0.0
  0
ARC
  5
141D5
  8
0
 10
3715.0933940434679243
 20
164.7392958469604025
 30
0.0
 40
0.0085885847616197
 50
257.024948285579228
 51
276.4606395412957909
  0
ARC
  5
141D6
  8
0
 10
3715.0907162399048502
 20
164.7369589039770119
 30
0.0
 40
0.0060787326295796
 50
248.0581534990288048
 51
277.0819162129718052
  0
LINE
  5
141D7
  8
0
 10
3715.0884448282299672
 20
164.7313204929079973
 30
0.0
 11
3715.0667192475311822
 21
164.7405508661080091
 31
0.0
  0
ARC
  5
141D8
  8
0
 10
3715.079631460911969
 20
164.7370432149230055
 30
0.0
 40
0.0133214971320116
 50
332.6672296267850015
 51
2.853840582330009
  0
LINE
  5
141D9
  8
0
 10
3715.0929364366229493
 20
164.7377064699070957
 30
0.0
 11
3715.0929364366311347
 21
164.7564390130953029
 31
0.0
  0
LINE
  5
141DA
  8
0
 10
3715.1203811972300173
 20
164.75311966514289
 30
0.0
 11
3715.1203811972300173
 21
164.7408143571080075
 31
0.0
  0
ARC
  5
141DB
  8
0
 10
3715.1275609545900807
 20
164.7411089325341038
 30
0.0
 40
0.0071857978285074
 50
182.3494481645940084
 51
243.8977657986148984
  0
LINE
  5
141DC
  8
0
 10
3715.0943604365302235
 20
164.7307618048579911
 30
0.0
 11
3715.0874403897300908
 21
164.7198471522580121
 31
0.0
  0
ARC
  5
141DD
  8
0
 10
3715.0822567134719066
 20
164.7231336775936938
 30
0.0
 40
0.0061377315294667
 50
273.5907383043116852
 51
327.6247145926457165
  0
ARC
  5
141DE
  8
0
 10
3715.0858026635228271
 20
164.723460905709203
 30
0.0
 40
0.0071857807296463
 50
182.3493669743104135
 51
243.897846988886414
  0
LINE
  5
141DF
  8
0
 10
3715.0786229228301636
 20
164.7231663411579916
 30
0.0
 11
3715.0786229227301192
 21
164.7354716492579882
 31
0.0
  0
LINE
  5
141E0
  8
0
 10
3715.0786229227301192
 20
164.723166343595409
 30
0.0
 11
3715.0847759629300526
 21
164.7328712316580095
 31
0.0
  0
LINE
  5
141E1
  8
0
 10
3715.0826411146299506
 20
164.7170079952580011
 30
0.0
 11
3715.0820016971301811
 21
164.7164430377580118
 31
0.0
  0
LINE
  5
141E2
  8
0
 10
3715.0887074986189873
 20
164.7218457013624118
 30
0.0
 11
3715.1082210259310159
 21
164.7135988318580075
 31
0.0
  0
LINE
  5
141E3
  8
0
 10
3715.1082210259310159
 20
164.7135988318580075
 30
0.0
 11
3715.135665786530808
 21
164.7167067189579939
 31
0.0
  0
LINE
  5
141E4
  8
0
 10
3715.135665786530808
 20
164.7167067189579939
 30
0.0
 11
3715.1418188266147808
 21
164.7264116094335975
 31
0.0
  0
LINE
  5
141E5
  8
0
 10
3715.1514033002058568
 20
164.7243021827196969
 30
0.0
 11
3715.1444832535298701
 21
164.7133875301580019
 31
0.0
  0
ARC
  5
141E6
  8
0
 10
3715.1392995771261667
 20
164.7166740555389879
 30
0.0
 40
0.006137731677458
 50
273.5907386522050047
 51
327.6247149670783188
  0
LINE
  5
141E7
  8
0
 10
3715.1396839783310497
 20
164.7105483730580033
 30
0.0
 11
3715.1390467005307983
 21
164.7099836058580138
 31
0.0
  0
LINE
  5
141E8
  8
0
 10
3715.1390467005307983
 20
164.7099836058580138
 30
0.0
 11
3715.1096450257659853
 21
164.7066541668147863
 31
0.0
  0
ARC
  5
141E9
  8
0
 10
3715.1086786327678055
 20
164.7151882088103036
 30
0.0
 40
0.0085885847616197
 50
257.024948285579228
 51
276.4606395412957909
  0
ARC
  5
141EA
  8
0
 10
3715.1060008292060957
 20
164.7128512658269983
 30
0.0
 40
0.0060787326295796
 50
248.0581534990288048
 51
277.0819162129718052
  0
LINE
  5
141EB
  8
0
 10
3715.1037294175298484
 20
164.7072128547580121
 30
0.0
 11
3715.0820038368301539
 21
164.7164432279579955
 31
0.0
  0
ARC
  5
141EC
  8
0
 10
3715.0949160502118502
 20
164.7129355767729919
 30
0.0
 40
0.0133214971320116
 50
332.6672296267850015
 51
2.853840582330009
  0
LINE
  5
141ED
  8
0
 10
3715.1082210259228304
 20
164.7135988317571957
 30
0.0
 11
3715.1082210259310159
 21
164.7323313750009959
 31
0.0
  0
LINE
  5
141EE
  8
0
 10
3715.135665786530808
 20
164.7290120269929048
 30
0.0
 11
3715.135665786530808
 21
164.7167067189579939
 31
0.0
  0
ARC
  5
141EF
  8
0
 10
3715.1428455438908713
 20
164.7170012943840902
 30
0.0
 40
0.0071857978285074
 50
182.3494481645940084
 51
243.8977657986148984
  0
LINE
  5
141F0
  8
0
 10
3715.1096450258301047
 20
164.7066541667579997
 30
0.0
 11
3715.102724979029972
 21
164.6957395141579923
 31
0.0
  0
ARC
  5
141F1
  8
0
 10
3715.0975413027717877
 20
164.6990260394937025
 30
0.0
 40
0.0061377315294667
 50
273.5907383043116852
 51
327.6247145926457165
  0
ARC
  5
141F2
  8
0
 10
3715.101087252823163
 20
164.6993532676092116
 30
0.0
 40
0.0071857807296463
 50
182.3493669743104135
 51
243.897846988886414
  0
LINE
  5
141F3
  8
0
 10
3715.0939075121300448
 20
164.6990587030580002
 30
0.0
 11
3715.0939075120300004
 21
164.7113640111579969
 31
0.0
  0
LINE
  5
141F4
  8
0
 10
3715.0939075120300004
 20
164.6990587054953892
 30
0.0
 11
3715.1000605522299338
 21
164.7087635935579897
 31
0.0
  0
LINE
  5
141F5
  8
0
 10
3715.0979257039298318
 20
164.6929003571580097
 30
0.0
 11
3715.0972862864300623
 21
164.692335399657992
 31
0.0
  0
LINE
  5
141F6
  8
0
 10
3715.103992087919778
 20
164.6977380632625056
 30
0.0
 11
3715.1235056152299876
 21
164.6894911937579877
 31
0.0
  0
LINE
  5
141F7
  8
0
 10
3715.1235056152299876
 20
164.6894911937579877
 30
0.0
 11
3715.1509503758311439
 21
164.6925990808580025
 31
0.0
  0
LINE
  5
141F8
  8
0
 10
3715.1509503758311439
 20
164.6925990808580025
 30
0.0
 11
3715.1571034159151168
 21
164.7023039713336061
 31
0.0
  0
LINE
  5
141F9
  8
0
 10
3715.1666878895061927
 20
164.7001945446197055
 30
0.0
 11
3715.1597678428302061
 21
164.6892798920580105
 31
0.0
  0
ARC
  5
141FA
  8
0
 10
3715.1545841664260479
 20
164.6925664174389965
 30
0.0
 40
0.006137731677458
 50
273.5907386522050047
 51
327.6247149670783188
  0
LINE
  5
141FB
  8
0
 10
3715.1549685676300214
 20
164.6864407349580119
 30
0.0
 11
3715.1543312898311342
 21
164.685875967757994
 31
0.0
  0
LINE
  5
141FC
  8
0
 10
3715.1543312898311342
 20
164.685875967757994
 30
0.0
 11
3715.124929615066776
 21
164.6825465287147949
 31
0.0
  0
ARC
  5
141FD
  8
0
 10
3715.1239632220681415
 20
164.6910805707103123
 30
0.0
 40
0.0085885847616197
 50
257.024948285579228
 51
276.4606395412957909
  0
ARC
  5
141FE
  8
0
 10
3715.1212854185059768
 20
164.6887436277270069
 30
0.0
 40
0.0060787326295796
 50
248.0581534990288048
 51
277.0819162129718052
  0
LINE
  5
141FF
  8
0
 10
3715.1190140068301844
 20
164.6831052166579923
 30
0.0
 11
3715.0972884261300351
 21
164.6923355898580041
 31
0.0
  0
ARC
  5
14200
  8
0
 10
3715.1102006395121862
 20
164.6888279386730005
 30
0.0
 40
0.0133214971320116
 50
332.6672296267850015
 51
2.853840582330009
  0
LINE
  5
14201
  8
0
 10
3715.1235056152231664
 20
164.6894911936572043
 30
0.0
 11
3715.1235056152299876
 21
164.7082237368510107
 31
0.0
  0
LINE
  5
14202
  8
0
 10
3715.1509503758311439
 20
164.7049043888929134
 30
0.0
 11
3715.1509503758311439
 21
164.6925990808580025
 31
0.0
  0
ARC
  5
14203
  8
0
 10
3715.158130133189843
 20
164.6928936562840988
 30
0.0
 40
0.0071857978285074
 50
182.3494481645940084
 51
243.8977657986148984
  0
LINE
  5
14204
  8
0
 10
3715.0179374901299525
 20
164.8512999954579925
 30
0.0
 11
3715.0110174433298198
 21
164.8403853428580135
 31
0.0
  0
ARC
  5
14205
  8
0
 10
3715.0058337670729998
 20
164.8436718681936952
 30
0.0
 40
0.0061377315294667
 50
273.5907383043116852
 51
327.6247145926457165
  0
ARC
  5
14206
  8
0
 10
3715.0093797171230108
 20
164.8439990963092043
 30
0.0
 40
0.0071857807296463
 50
182.3493669743104135
 51
243.897846988886414
  0
LINE
  5
14207
  8
0
 10
3715.0021999764308021
 20
164.843704531757993
 30
0.0
 11
3715.0021999763312124
 21
164.8560098398579896
 31
0.0
  0
LINE
  5
14208
  8
0
 10
3715.0021999763312124
 20
164.8437045341954104
 30
0.0
 11
3715.0083530165311458
 21
164.8534094222580109
 31
0.0
  0
LINE
  5
14209
  8
0
 10
3715.0062181682301343
 20
164.8375461858580024
 30
0.0
 11
3715.0055787507308196
 21
164.8369812283580131
 31
0.0
  0
LINE
  5
1420A
  8
0
 10
3715.0122845522200805
 20
164.8423838919624131
 30
0.0
 11
3715.0317980795298354
 21
164.8341370224580089
 31
0.0
  0
LINE
  5
1420B
  8
0
 10
3715.0317980795298354
 20
164.8341370224580089
 30
0.0
 11
3715.0592428401300822
 21
164.8372449095579952
 31
0.0
  0
LINE
  5
1420C
  8
0
 10
3715.0592428401300822
 20
164.8372449095579952
 30
0.0
 11
3715.0653958802149646
 21
164.8469498000335989
 31
0.0
  0
LINE
  5
1420D
  8
0
 10
3715.07498035380695
 20
164.8448403733196983
 30
0.0
 11
3715.0680603071300538
 21
164.8339257207580033
 31
0.0
  0
ARC
  5
1420E
  8
0
 10
3715.0628766307258957
 20
164.8372122461389893
 30
0.0
 40
0.006137731677458
 50
273.5907386522050047
 51
327.6247149670783188
  0
LINE
  5
1420F
  8
0
 10
3715.0632610319307787
 20
164.8310865636580047
 30
0.0
 11
3715.062623754130982
 21
164.8305217964579867
 31
0.0
  0
LINE
  5
14210
  8
0
 10
3715.062623754130982
 20
164.8305217964579867
 30
0.0
 11
3715.0332220793661691
 21
164.8271923574147877
 31
0.0
  0
ARC
  5
14211
  8
0
 10
3715.0322556863688988
 20
164.835726399410305
 30
0.0
 40
0.0085885847616197
 50
257.024948285579228
 51
276.4606395412957909
  0
ARC
  5
14212
  8
0
 10
3715.0295778828049151
 20
164.8333894564269997
 30
0.0
 40
0.0060787326295796
 50
248.0581534990288048
 51
277.0819162129718052
  0
LINE
  5
14213
  8
0
 10
3715.0273064711300322
 20
164.8277510453580135
 30
0.0
 11
3715.0055808904298829
 21
164.8369814185579969
 31
0.0
  0
ARC
  5
14214
  8
0
 10
3715.018493103812034
 20
164.8334737673729933
 30
0.0
 40
0.0133214971320116
 50
332.6672296267850015
 51
2.853840582330009
  0
LINE
  5
14215
  8
0
 10
3715.0317980795230142
 20
164.8341370223571971
 30
0.0
 11
3715.0317980795298354
 21
164.8528463578473975
 31
0.0
  0
LINE
  5
14216
  8
0
 10
3715.0592428401300822
 20
164.8495502175929062
 30
0.0
 11
3715.0592428401300822
 21
164.8372449095579952
 31
0.0
  0
ARC
  5
14217
  8
0
 10
3715.0664225974901456
 20
164.8375394849840916
 30
0.0
 40
0.0071857978285074
 50
182.3494481645940084
 51
243.8977657986148984
  0
LINE
  5
14218
  8
0
 10
3715.0026529008300713
 20
164.8754076335580123
 30
0.0
 11
3714.9957328540299386
 21
164.8644929809580049
 31
0.0
  0
ARC
  5
14219
  8
0
 10
3714.9905491777722091
 20
164.8677795062936866
 30
0.0
 40
0.0061377315294667
 50
273.5907383043116852
 51
327.6247145926457165
  0
ARC
  5
1421A
  8
0
 10
3714.9940951278231296
 20
164.8681067344091957
 30
0.0
 40
0.0071857807296463
 50
182.3493669743104135
 51
243.897846988886414
  0
LINE
  5
1421B
  8
0
 10
3714.9869153871300114
 20
164.8678121698580128
 30
0.0
 11
3714.986915387029967
 21
164.8801174779580094
 31
0.0
  0
LINE
  5
1421C
  8
0
 10
3714.986915387029967
 20
164.8678121722954018
 30
0.0
 11
3714.9930684272308099
 21
164.8775170603580023
 31
0.0
  0
LINE
  5
1421D
  8
0
 10
3714.9909335789297984
 20
164.8616538239579938
 30
0.0
 11
3714.9902941614300289
 21
164.8610888664580045
 31
0.0
  0
LINE
  5
1421E
  8
0
 10
3714.9969999629201993
 20
164.8664915300624045
 30
0.0
 11
3715.0165134902299542
 21
164.8582446605580003
 31
0.0
  0
LINE
  5
1421F
  8
0
 10
3715.0165134902299542
 20
164.8582446605580003
 30
0.0
 11
3715.0439582508311105
 21
164.8613525476579866
 31
0.0
  0
LINE
  5
14220
  8
0
 10
3715.0439582508311105
 20
164.8613525476579866
 30
0.0
 11
3715.0501112909150834
 21
164.8710574381335903
 31
0.0
  0
LINE
  5
14221
  8
0
 10
3715.0596957645061593
 20
164.8689480114198034
 30
0.0
 11
3715.0527757178301727
 21
164.8580333588579947
 31
0.0
  0
ARC
  5
14222
  8
0
 10
3715.0475920414260145
 20
164.8613198842390091
 30
0.0
 40
0.006137731677458
 50
273.5907386522050047
 51
327.6247149670783188
  0
LINE
  5
14223
  8
0
 10
3715.047976442629988
 20
164.8551942017579961
 30
0.0
 11
3715.0473391648311008
 21
164.8546294345580066
 31
0.0
  0
LINE
  5
14224
  8
0
 10
3715.0473391648311008
 20
164.8546294345580066
 30
0.0
 11
3715.0179374900671974
 21
164.8512999955148075
 31
0.0
  0
ARC
  5
14225
  8
0
 10
3715.0169710970690176
 20
164.8598340375102964
 30
0.0
 40
0.0085885847616197
 50
257.024948285579228
 51
276.4606395412957909
  0
ARC
  5
14226
  8
0
 10
3715.0142932935050339
 20
164.8574970945269911
 30
0.0
 40
0.0060787326295796
 50
248.0581534990288048
 51
277.0819162129718052
  0
LINE
  5
14227
  8
0
 10
3715.012021881830151
 20
164.8518586834580049
 30
0.0
 11
3714.9902963011300017
 21
164.8610890566579883
 31
0.0
  0
ARC
  5
14228
  8
0
 10
3715.0032085145121528
 20
164.8575814054730131
 30
0.0
 40
0.0133214971320116
 50
332.6672296267850015
 51
2.853840582330009
  0
LINE
  5
14229
  8
0
 10
3715.016513490223133
 20
164.8582446604571885
 30
0.0
 11
3715.0165134902299542
 21
164.8769772036953043
 31
0.0
  0
LINE
  5
1422A
  8
0
 10
3715.0439582508311105
 20
164.8736578556928976
 30
0.0
 11
3715.0439582508311105
 21
164.8613525476579866
 31
0.0
  0
ARC
  5
1422B
  8
0
 10
3715.0511380081898096
 20
164.8616471230841114
 30
0.0
 40
0.0071857978285074
 50
182.3494481645940084
 51
243.8977657986148984
  0
LINE
  5
1422C
  8
0
 10
3714.9871526523270404
 20
164.8991751228772102
 30
0.0
 11
3714.9804482647809891
 21
164.88860061910799
 31
0.0
  0
ARC
  5
1422D
  8
0
 10
3714.9752645885228048
 20
164.8918871444437002
 30
0.0
 40
0.0061377315294667
 50
273.5907383043116852
 51
327.6247145926457165
  0
ARC
  5
1422E
  8
0
 10
3714.9788105385728159
 20
164.8922143725592093
 30
0.0
 40
0.0071857807296463
 50
182.3493669743104135
 51
243.897846988886414
  0
LINE
  5
1422F
  8
0
 10
3714.9716307978801524
 20
164.891919808007998
 30
0.0
 11
3714.9716307978201257
 21
164.8993409167964899
 31
0.0
  0
LINE
  5
14230
  8
0
 10
3714.971630797780108
 20
164.8919198104453869
 30
0.0
 11
3714.9763257871809401
 21
164.8993249866038013
 31
0.0
  0
LINE
  5
14231
  8
0
 10
3714.9756489896808489
 20
164.8857614621080074
 30
0.0
 11
3714.9750095721801699
 21
164.8851965046079897
 31
0.0
  0
LINE
  5
14232
  8
0
 10
3714.9817153736698856
 20
164.8905991682123897
 30
0.0
 11
3715.0012289009800952
 21
164.8823522987080139
 31
0.0
  0
LINE
  5
14233
  8
0
 10
3715.0012289009800952
 20
164.8823522987080139
 30
0.0
 11
3715.0286736615798873
 21
164.8854601858080002
 31
0.0
  0
LINE
  5
14234
  8
0
 10
3715.0286736615798873
 20
164.8854601858080002
 30
0.0
 11
3715.0348267016652244
 21
164.8951650762836039
 31
0.0
  0
LINE
  5
14235
  8
0
 10
3715.0444111752558456
 20
164.8930556495697033
 30
0.0
 11
3715.0374911285798589
 21
164.8821409970080083
 31
0.0
  0
ARC
  5
14236
  8
0
 10
3715.0323074521761555
 20
164.8854275223891079
 30
0.0
 40
0.006137731677458
 50
273.5907386522050047
 51
327.6247149670783188
  0
LINE
  5
14237
  8
0
 10
3715.032691853380129
 20
164.8793018399080097
 30
0.0
 11
3715.0320545755798776
 21
164.8787370727079917
 31
0.0
  0
LINE
  5
14238
  8
0
 10
3715.0320545755798776
 20
164.8787370727079917
 30
0.0
 11
3715.0026529008159741
 21
164.8754076336647927
 31
0.0
  0
ARC
  5
14239
  8
0
 10
3715.0016865078191586
 20
164.88394167566031
 30
0.0
 40
0.0085885847616197
 50
257.024948285579228
 51
276.4606395412957909
  0
ARC
  5
1423A
  8
0
 10
3714.9990087042560845
 20
164.8816047326770047
 30
0.0
 40
0.0060787326295796
 50
248.0581534990288048
 51
277.0819162129718052
  0
LINE
  5
1423B
  8
0
 10
3714.9967372925798372
 20
164.87596632160799
 30
0.0
 11
3714.9750117118801427
 21
164.8851966948080019
 31
0.0
  0
ARC
  5
1423C
  8
0
 10
3714.987923925261839
 20
164.8816890436229983
 30
0.0
 40
0.0133214971320116
 50
332.6672296267850015
 51
2.853840582330009
  0
LINE
  5
1423D
  8
0
 10
3715.0012289009728192
 20
164.8823522986070884
 30
0.0
 11
3715.0012289009791857
 21
164.8987365190371861
 31
0.0
  0
LINE
  5
1423E
  8
0
 10
3715.0286736615798873
 20
164.8970868107060141
 30
0.0
 11
3715.0286736615798873
 21
164.8854601858080002
 31
0.0
  0
ARC
  5
1423F
  8
0
 10
3715.0358534189408601
 20
164.8857547612340966
 30
0.0
 40
0.0071857978285074
 50
182.3494481645940084
 51
243.8977657986148984
  0
LINE
  5
14240
  8
0
 10
3715.0387582374200974
 20
164.8841395460125057
 30
0.0
 11
3715.0582717647312165
 21
164.8758926765079877
 31
0.0
  0
LINE
  5
14241
  8
0
 10
3715.0582717647312165
 20
164.8758926765079877
 30
0.0
 11
3715.0857165253300991
 21
164.8790005636080025
 31
0.0
  0
LINE
  5
14242
  8
0
 10
3715.0857165253300991
 20
164.8790005636080025
 30
0.0
 11
3715.0918695654149815
 21
164.8887054540836061
 31
0.0
  0
LINE
  5
14243
  8
0
 10
3715.1014540390060574
 20
164.8865960273697056
 30
0.0
 11
3715.0945339923300708
 21
164.8756813748080106
 31
0.0
  0
ARC
  5
14244
  8
0
 10
3715.0893503159259126
 20
164.8789679001889965
 30
0.0
 40
0.006137731677458
 50
273.5907386522050047
 51
327.6247149670783188
  0
LINE
  5
14245
  8
0
 10
3715.0897347171298861
 20
164.872842217708012
 30
0.0
 11
3715.0890974393300894
 21
164.872277450507994
 31
0.0
  0
LINE
  5
14246
  8
0
 10
3715.0890974393300894
 20
164.872277450507994
 30
0.0
 11
3715.059695764566186
 21
164.8689480114647949
 31
0.0
  0
ARC
  5
14247
  8
0
 10
3715.0587293715689157
 20
164.8774820534603975
 30
0.0
 40
0.0085885847616197
 50
257.024948285579228
 51
276.4606395412957909
  0
ARC
  5
14248
  8
0
 10
3715.0560515680058415
 20
164.8751451104770069
 30
0.0
 40
0.0060787326295796
 50
248.0581534990288048
 51
277.0819162129718052
  0
LINE
  5
14249
  8
0
 10
3715.0537801563300491
 20
164.8695066994079923
 30
0.0
 11
3715.0320545756298998
 21
164.8787370726080042
 31
0.0
  0
ARC
  5
1424A
  8
0
 10
3715.0449667890120509
 20
164.8752294214230005
 30
0.0
 40
0.0133214971320116
 50
332.6672296267850015
 51
2.853840582330009
  0
LINE
  5
1424B
  8
0
 10
3715.0582717647239406
 20
164.8758926764072044
 30
0.0
 11
3715.0582717647298523
 21
164.8941227576868869
 31
0.0
  0
LINE
  5
1424C
  8
0
 10
3715.0857165253300991
 20
164.8902716463215938
 30
0.0
 11
3715.0857165253300991
 21
164.8790005636080025
 31
0.0
  0
ARC
  5
1424D
  8
0
 10
3715.092896282691072
 20
164.8792951390340988
 30
0.0
 40
0.0071857978285074
 50
182.3494481645940084
 51
243.8977657986148984
  0
LINE
  5
1424E
  8
0
 10
3715.0540428267199786
 20
164.8600319079124006
 30
0.0
 11
3715.0735563540301882
 21
164.8517850384079964
 31
0.0
  0
LINE
  5
1424F
  8
0
 10
3715.0735563540301882
 20
164.8517850384079964
 30
0.0
 11
3715.1010011146299803
 21
164.8548929255080111
 31
0.0
  0
LINE
  5
14250
  8
0
 10
3715.1010011146299803
 20
164.8548929255080111
 30
0.0
 11
3715.1071541547148627
 21
164.8645978159837
 31
0.0
  0
LINE
  5
14251
  8
0
 10
3715.1167386283068481
 20
164.8624883892697994
 30
0.0
 11
3715.109818581629952
 21
164.8515737367079907
 31
0.0
  0
ARC
  5
14252
  8
0
 10
3715.1046349052257938
 20
164.8548602620890051
 30
0.0
 40
0.006137731677458
 50
273.5907386522050047
 51
327.6247149670783188
  0
LINE
  5
14253
  8
0
 10
3715.1050193064302221
 20
164.8487345796079921
 30
0.0
 11
3715.1043820286299706
 21
164.8481698124080026
 31
0.0
  0
LINE
  5
14254
  8
0
 10
3715.1043820286299706
 20
164.8481698124080026
 30
0.0
 11
3715.0749803538660672
 21
164.8448403733648036
 31
0.0
  0
ARC
  5
14255
  8
0
 10
3715.0740139608687969
 20
164.8533744153602925
 30
0.0
 40
0.0085885847616197
 50
257.024948285579228
 51
276.4606395412957909
  0
ARC
  5
14256
  8
0
 10
3715.0713361573061775
 20
164.8510374723769871
 30
0.0
 40
0.0060787326295796
 50
248.0581534990288048
 51
277.0819162129718052
  0
LINE
  5
14257
  8
0
 10
3715.0690647456299303
 20
164.8453990613080009
 30
0.0
 11
3715.0473391649311452
 21
164.8546294345080128
 31
0.0
  0
ARC
  5
14258
  8
0
 10
3715.0602513783119321
 20
164.8511217833230091
 30
0.0
 40
0.0133214971320116
 50
332.6672296267850015
 51
2.853840582330009
  0
LINE
  5
14259
  8
0
 10
3715.0735563540229123
 20
164.851785038307213
 30
0.0
 11
3715.0735563540301882
 21
164.8705175815009909
 31
0.0
  0
LINE
  5
1425A
  8
0
 10
3715.1010011146299803
 20
164.8671982335428936
 30
0.0
 11
3715.1010011146299803
 21
164.8548929255080111
 31
0.0
  0
ARC
  5
1425B
  8
0
 10
3715.1081808719909532
 20
164.8551875009341074
 30
0.0
 40
0.0071857978285074
 50
182.3494481645940084
 51
243.8977657986148984
  0
LINE
  5
1425C
  8
0
 10
3715.0693274159198154
 20
164.8359242698124092
 30
0.0
 11
3715.088840943230025
 21
164.827677400308005
 31
0.0
  0
LINE
  5
1425D
  8
0
 10
3715.088840943230025
 20
164.827677400308005
 30
0.0
 11
3715.1162857038298171
 21
164.8307852874079913
 31
0.0
  0
LINE
  5
1425E
  8
0
 10
3715.1162857038298171
 20
164.8307852874079913
 30
0.0
 11
3715.1224387439151542
 21
164.8404901778835949
 31
0.0
  0
LINE
  5
1425F
  8
0
 10
3715.1320232175057754
 20
164.838380751169808
 30
0.0
 11
3715.125103170831153
 21
164.8274660986079994
 31
0.0
  0
ARC
  5
14260
  8
0
 10
3715.1199194944260853
 20
164.8307526239890137
 30
0.0
 40
0.006137731677458
 50
273.5907386522050047
 51
327.6247149670783188
  0
LINE
  5
14261
  8
0
 10
3715.1203038956309683
 20
164.8246269415080008
 30
0.0
 11
3715.1196666178298074
 21
164.8240621743080112
 31
0.0
  0
LINE
  5
14262
  8
0
 10
3715.1196666178298074
 20
164.8240621743080112
 30
0.0
 11
3715.0902649430668134
 21
164.8207327352648122
 31
0.0
  0
ARC
  5
14263
  8
0
 10
3715.0892985500681789
 20
164.8292667772603011
 30
0.0
 40
0.0085885847616197
 50
257.024948285579228
 51
276.4606395412957909
  0
ARC
  5
14264
  8
0
 10
3715.0866207465060143
 20
164.8269298342769957
 30
0.0
 40
0.0060787326295796
 50
248.0581534990288048
 51
277.0819162129718052
  0
LINE
  5
14265
  8
0
 10
3715.0843493348302218
 20
164.8212914232080095
 30
0.0
 11
3715.062623754130982
 21
164.830521796407993
 31
0.0
  0
ARC
  5
14266
  8
0
 10
3715.0755359675131331
 20
164.8270141452229893
 30
0.0
 40
0.0133214971320116
 50
332.6672296267850015
 51
2.853840582330009
  0
LINE
  5
14267
  8
0
 10
3715.0888409432232038
 20
164.8276774002071932
 30
0.0
 11
3715.088840943230025
 21
164.8464099433896877
 31
0.0
  0
LINE
  5
14268
  8
0
 10
3715.1162857038298171
 20
164.8430905954429022
 30
0.0
 11
3715.1162857038298171
 21
164.8307852874079913
 31
0.0
  0
ARC
  5
14269
  8
0
 10
3715.1234654611907899
 20
164.8310798628340876
 30
0.0
 40
0.0071857978285074
 50
182.3494481645940084
 51
243.8977657986148984
  0
LINE
  5
1426A
  8
0
 10
3715.0846120052701735
 20
164.8118166316625093
 30
0.0
 11
3715.1041255325799284
 21
164.8035697621579914
 31
0.0
  0
LINE
  5
1426B
  8
0
 10
3715.1041255325799284
 20
164.8035697621579914
 30
0.0
 11
3715.1315702931810847
 21
164.8066776492580061
 31
0.0
  0
LINE
  5
1426C
  8
0
 10
3715.1315702931810847
 20
164.8066776492580061
 30
0.0
 11
3715.1377233332650576
 21
164.8163825397336097
 31
0.0
  0
LINE
  5
1426D
  8
0
 10
3715.1355884849799622
 20
164.8005193033579872
 30
0.0
 11
3715.1349512071801655
 21
164.7999545361579976
 31
0.0
  0
LINE
  5
1426E
  8
0
 10
3715.1349512071801655
 20
164.7999545361579976
 30
0.0
 11
3715.1055495324171716
 21
164.7966250971147986
 31
0.0
  0
ARC
  5
1426F
  8
0
 10
3715.1045831394189918
 20
164.8051591391102875
 30
0.0
 40
0.0085885847616197
 50
257.024948285579228
 51
276.4606395412957909
  0
ARC
  5
14270
  8
0
 10
3715.1019053358550082
 20
164.8028221961270106
 30
0.0
 40
0.0060787326295796
 50
248.0581534990288048
 51
277.0819162129718052
  0
LINE
  5
14271
  8
0
 10
3715.0996339241801252
 20
164.7971837850579959
 30
0.0
 11
3715.0779083434799759
 21
164.8064141582580078
 31
0.0
  0
ARC
  5
14272
  8
0
 10
3715.090820556862127
 20
164.8029065070730041
 30
0.0
 40
0.0133214971320116
 50
332.6672296267850015
 51
2.853840582330009
  0
LINE
  5
14273
  8
0
 10
3715.1041255325731072
 20
164.803569762057208
 30
0.0
 11
3715.1041255325799284
 21
164.8222790975474084
 31
0.0
  0
LINE
  5
14274
  8
0
 10
3715.1315702931810847
 20
164.8189829572928886
 30
0.0
 11
3715.1315702931810847
 21
164.8066776492580061
 31
0.0
  0
ARC
  5
14275
  8
0
 10
3715.1387500505397838
 20
164.8069722246841025
 30
0.0
 40
0.0071857978285074
 50
182.3494481645940084
 51
243.8977657986148984
  0
LINE
  5
14276
  8
0
 10
3715.0998965945200325
 20
164.7877089935624042
 30
0.0
 11
3715.1194101218297874
 21
164.779462124058
 31
0.0
  0
LINE
  5
14277
  8
0
 10
3715.1194101218297874
 20
164.779462124058
 30
0.0
 11
3715.1468548824300342
 21
164.7825700111579863
 31
0.0
  0
LINE
  5
14278
  8
0
 10
3715.1468548824300342
 20
164.7825700111579863
 30
0.0
 11
3715.1530079225149166
 21
164.7922749016337036
 31
0.0
  0
LINE
  5
14279
  8
0
 10
3715.162592396106902
 20
164.790165474919803
 30
0.0
 11
3715.1556723494309153
 21
164.7792508223579944
 31
0.0
  0
ARC
  5
1427A
  8
0
 10
3715.1504886730258477
 20
164.7825373477390087
 30
0.0
 40
0.006137731677458
 50
273.5907386522050047
 51
327.6247149670783188
  0
LINE
  5
1427B
  8
0
 10
3715.1508730742298212
 20
164.7764116652579958
 30
0.0
 11
3715.150235796430934
 21
164.7758468980580062
 31
0.0
  0
LINE
  5
1427C
  8
0
 10
3715.150235796430934
 20
164.7758468980580062
 30
0.0
 11
3715.1208341216661211
 21
164.7725174590148072
 31
0.0
  0
ARC
  5
1427D
  8
0
 10
3715.1198677286688508
 20
164.7810515010102961
 30
0.0
 40
0.0085885847616197
 50
257.024948285579228
 51
276.4606395412957909
  0
ARC
  5
1427E
  8
0
 10
3715.1171899251057766
 20
164.7787145580269907
 30
0.0
 40
0.0060787326295796
 50
248.0581534990288048
 51
277.0819162129718052
  0
LINE
  5
1427F
  8
0
 10
3715.1149185134299842
 20
164.7730761469580045
 30
0.0
 11
3715.0931929327311991
 21
164.782306520157988
 31
0.0
  0
ARC
  5
14280
  8
0
 10
3715.106105146111986
 20
164.7787988689730128
 30
0.0
 40
0.0133214971320116
 50
332.6672296267850015
 51
2.853840582330009
  0
LINE
  5
14281
  8
0
 10
3715.1194101218229662
 20
164.7794621239571882
 30
0.0
 11
3715.1194101218297874
 21
164.7981714594473885
 31
0.0
  0
LINE
  5
14282
  8
0
 10
3715.1468548824300342
 20
164.7948753191928972
 30
0.0
 11
3715.1468548824300342
 21
164.7825700111579863
 31
0.0
  0
ARC
  5
14283
  8
0
 10
3715.1540346397900976
 20
164.7828645865841111
 30
0.0
 40
0.0071857978285074
 50
182.3494481645940084
 51
243.8977657986148984
  0
LINE
  5
14284
  8
0
 10
3715.1151811838199137
 20
164.7636013554125043
 30
0.0
 11
3715.1346947111301233
 21
164.7553544859079864
 31
0.0
  0
LINE
  5
14285
  8
0
 10
3715.1346947111301233
 20
164.7553544859079864
 30
0.0
 11
3715.1621394717299154
 21
164.7584623730080011
 31
0.0
  0
LINE
  5
14286
  8
0
 10
3715.1621394717299154
 20
164.7584623730080011
 30
0.0
 11
3715.1682925118147978
 21
164.7681672634836048
 31
0.0
  0
LINE
  5
14287
  8
0
 10
3715.1778769854058737
 20
164.7660578367697042
 30
0.0
 11
3715.1709569387307965
 21
164.7551431842080092
 31
0.0
  0
ARC
  5
14288
  8
0
 10
3715.1657732623261836
 20
164.7584297095889951
 30
0.0
 40
0.006137731677458
 50
273.5907386522050047
 51
327.6247149670783188
  0
LINE
  5
14289
  8
0
 10
3715.1661576635310666
 20
164.7523040271080106
 30
0.0
 11
3715.1655203857299057
 21
164.7517392599079926
 31
0.0
  0
LINE
  5
1428A
  8
0
 10
3715.1655203857299057
 20
164.7517392599079926
 30
0.0
 11
3715.1361187109669117
 21
164.7484098208647936
 31
0.0
  0
ARC
  5
1428B
  8
0
 10
3715.1351523179678225
 20
164.7569438628603109
 30
0.0
 40
0.0085885847616197
 50
257.024948285579228
 51
276.4606395412957909
  0
ARC
  5
1428C
  8
0
 10
3715.1324745144061126
 20
164.7546069198770056
 30
0.0
 40
0.0060787326295796
 50
248.0581534990288048
 51
277.0819162129718052
  0
LINE
  5
1428D
  8
0
 10
3715.1302031027307748
 20
164.7489685088079909
 30
0.0
 11
3715.1084775220310803
 21
164.7581988820080028
 31
0.0
  0
ARC
  5
1428E
  8
0
 10
3715.1213897354118672
 20
164.7546912308229992
 30
0.0
 40
0.0133214971320116
 50
332.6672296267850015
 51
2.853840582330009
  0
LINE
  5
1428F
  8
0
 10
3715.1346947111228474
 20
164.7553544858070893
 30
0.0
 11
3715.1346947111301233
 21
164.7740870290510031
 31
0.0
  0
LINE
  5
14290
  8
0
 10
3715.1621394717299154
 20
164.770767681042912
 30
0.0
 11
3715.1621394717299154
 21
164.7584623730080011
 31
0.0
  0
ARC
  5
14291
  8
0
 10
3715.1693192290908883
 20
164.7587569484340975
 30
0.0
 40
0.0071857978285074
 50
182.3494481645940084
 51
243.8977657986148984
  0
LINE
  5
14292
  8
0
 10
3715.1304657730697727
 20
164.7394937173123992
 30
0.0
 11
3715.1499793003799823
 21
164.731246847807995
 31
0.0
  0
LINE
  5
14293
  8
0
 10
3715.1499793003799823
 20
164.731246847807995
 30
0.0
 11
3715.1774240609811386
 21
164.7343547349080097
 31
0.0
  0
LINE
  5
14294
  8
0
 10
3715.1774240609811386
 20
164.7343547349080097
 30
0.0
 11
3715.1835771010651115
 21
164.7440596253836134
 31
0.0
  0
LINE
  5
14295
  8
0
 10
3715.1931615746561874
 20
164.7419501986697128
 30
0.0
 11
3715.1862415279802008
 21
164.7310355461079894
 31
0.0
  0
ARC
  5
14296
  8
0
 10
3715.1810578515769521
 20
164.7343220714890037
 30
0.0
 40
0.006137731677458
 50
273.5907386522050047
 51
327.6247149670783188
  0
LINE
  5
14297
  8
0
 10
3715.1814422527800161
 20
164.7281963890079908
 30
0.0
 11
3715.1808049749811289
 21
164.7276316218080012
 31
0.0
  0
LINE
  5
14298
  8
0
 10
3715.1808049749811289
 20
164.7276316218080012
 30
0.0
 11
3715.1514033002172255
 21
164.7243021827648022
 31
0.0
  0
ARC
  5
14299
  8
0
 10
3715.1504369072190457
 20
164.7328362247604048
 30
0.0
 40
0.0085885847616197
 50
257.024948285579228
 51
276.4606395412957909
  0
ARC
  5
1429A
  8
0
 10
3715.1477591036550621
 20
164.7304992817770142
 30
0.0
 40
0.0060787326295796
 50
248.0581534990288048
 51
277.0819162129718052
  0
LINE
  5
1429B
  8
0
 10
3715.1454876919801791
 20
164.7248608707079995
 30
0.0
 11
3715.1237621112800298
 21
164.7340912439080114
 31
0.0
  0
ARC
  5
1429C
  8
0
 10
3715.1366743246621809
 20
164.7305835927230078
 30
0.0
 40
0.0133214971320116
 50
332.6672296267850015
 51
2.853840582330009
  0
LINE
  5
1429D
  8
0
 10
3715.1499793003731611
 20
164.7312468477072116
 30
0.0
 11
3715.1499793003799823
 21
164.7499793908953052
 31
0.0
  0
LINE
  5
1429E
  8
0
 10
3715.1774240609811386
 20
164.7466600429428922
 30
0.0
 11
3715.1774240609811386
 21
164.7343547349080097
 31
0.0
  0
ARC
  5
1429F
  8
0
 10
3715.1846038183398377
 20
164.7346493103341061
 30
0.0
 40
0.0071857978285074
 50
182.3494481645940084
 51
243.8977657986148984
  0
LINE
  5
142A0
  8
0
 10
3715.1457503623701086
 20
164.7153860792124931
 30
0.0
 11
3715.165263889680773
 21
164.7071392097080036
 31
0.0
  0
LINE
  5
142A1
  8
0
 10
3715.165263889680773
 20
164.7071392097080036
 30
0.0
 11
3715.1927086502801103
 21
164.7102470968079899
 31
0.0
  0
LINE
  5
142A2
  8
0
 10
3715.1927086502801103
 20
164.7102470968079899
 30
0.0
 11
3715.1988616903640832
 21
164.7199519872835936
 31
0.0
  0
LINE
  5
142A3
  8
0
 10
3715.2084461639560686
 20
164.7178425605698067
 30
0.0
 11
3715.201526117280082
 21
164.706927908007998
 31
0.0
  0
ARC
  5
142A4
  8
0
 10
3715.1963424408759238
 20
164.7102144333890124
 30
0.0
 40
0.006137731677458
 50
273.5907386522050047
 51
327.6247149670783188
  0
LINE
  5
142A5
  8
0
 10
3715.1967268420798973
 20
164.7040887509079994
 30
0.0
 11
3715.1960895642801006
 21
164.7035239837080098
 31
0.0
  0
LINE
  5
142A6
  8
0
 10
3715.1960895642801006
 20
164.7035239837080098
 30
0.0
 11
3715.1666878895161972
 21
164.7001945446648108
 31
0.0
  0
ARC
  5
142A7
  8
0
 10
3715.1657214965180174
 20
164.7087285866602997
 30
0.0
 40
0.0085885847616197
 50
257.024948285579228
 51
276.4606395412957909
  0
ARC
  5
142A8
  8
0
 10
3715.1630436929558527
 20
164.7063916436769944
 30
0.0
 40
0.0060787326295796
 50
248.0581534990288048
 51
277.0819162129718052
  0
LINE
  5
142A9
  8
0
 10
3715.1607722812800603
 20
164.7007532326080081
 30
0.0
 11
3715.139046700579911
 21
164.7099836058079916
 31
0.0
  0
ARC
  5
142AA
  8
0
 10
3715.1519589139620621
 20
164.706475954622988
 30
0.0
 40
0.0133214971320116
 50
332.6672296267850015
 51
2.853840582330009
  0
LINE
  5
142AB
  8
0
 10
3715.1652638896730423
 20
164.7071392096071918
 30
0.0
 11
3715.165263889680773
 21
164.7258717528009981
 31
0.0
  0
LINE
  5
142AC
  8
0
 10
3715.1927086502801103
 20
164.7225524048429008
 30
0.0
 11
3715.1927086502801103
 21
164.7102470968079899
 31
0.0
  0
ARC
  5
142AD
  8
0
 10
3715.1998884076410832
 20
164.7105416722340863
 30
0.0
 40
0.0071857978285074
 50
182.3494481645940084
 51
243.8977657986148984
  0
LINE
  5
142AE
  8
0
 10
3715.1355884854610849
 20
164.8005193031758893
 30
0.0
 11
3715.1444130467089053
 21
164.8144378547243036
 31
0.0
  0
LINE
  5
142AF
  8
0
 10
3715.0526021621299151
 20
164.7131137888580099
 30
0.0
 11
3715.0456821153311466
 21
164.7021991362580025
 31
0.0
  0
ARC
  5
142B0
  8
0
 10
3715.0404984390729624
 20
164.7054856615937126
 30
0.0
 40
0.0061377315294667
 50
273.5907383043116852
 51
327.6247145926457165
  0
ARC
  5
142B1
  8
0
 10
3715.0440443891238829
 20
164.7058128897091933
 30
0.0
 40
0.0071857807296463
 50
182.3493669743104135
 51
243.897846988886414
  0
LINE
  5
142B2
  8
0
 10
3715.0368646484312194
 20
164.7055183251580104
 30
0.0
 11
3715.0368646483298107
 21
164.717823633258007
 31
0.0
  0
LINE
  5
142B3
  8
0
 10
3715.0368646483298107
 20
164.7055183275953993
 30
0.0
 11
3715.0430176885301989
 21
164.7152232156579998
 31
0.0
  0
LINE
  5
142B4
  8
0
 10
3715.0408828402300969
 20
164.6993599792579914
 30
0.0
 11
3715.0402434227298727
 21
164.6987950217580021
 31
0.0
  0
LINE
  5
142B5
  8
0
 10
3715.0469492242200431
 20
164.7041976853624021
 30
0.0
 11
3715.0664627515311622
 21
164.6959508158579979
 31
0.0
  0
LINE
  5
142B6
  8
0
 10
3715.0664627515311622
 20
164.6959508158579979
 30
0.0
 11
3715.0939075121300448
 21
164.6990587029580126
 31
0.0
  0
LINE
  5
142B7
  8
0
 10
3715.0972884261300351
 20
164.6923355898580041
 30
0.0
 11
3715.0678867513661316
 21
164.6890061508148051
 31
0.0
  0
ARC
  5
142B8
  8
0
 10
3715.0669203583679518
 20
164.697540192810294
 30
0.0
 40
0.0085885847616197
 50
257.024948285579228
 51
276.4606395412957909
  0
ARC
  5
142B9
  8
0
 10
3715.0642425548057872
 20
164.6952032498269887
 30
0.0
 40
0.0060787326295796
 50
248.0581534990288048
 51
277.0819162129718052
  0
LINE
  5
142BA
  8
0
 10
3715.0619711431309042
 20
164.6895648387580025
 30
0.0
 11
3715.0402455624298454
 21
164.6987952119579859
 31
0.0
  0
ARC
  5
142BB
  8
0
 10
3715.053157775812906
 20
164.6952875607730107
 30
0.0
 40
0.0133214971320116
 50
332.6672296267850015
 51
2.853840582330009
  0
LINE
  5
142BC
  8
0
 10
3715.0664627515229768
 20
164.6959508157571861
 30
0.0
 11
3715.0664627515311622
 21
164.7146601512473865
 31
0.0
  0
LINE
  5
142BD
  8
0
 10
3715.0373175728809656
 20
164.7372214270579889
 30
0.0
 11
3715.0303975260799234
 21
164.7263067744580098
 31
0.0
  0
ARC
  5
142BE
  8
0
 10
3715.0252138498221939
 20
164.7295932997936916
 30
0.0
 40
0.0061377315294667
 50
273.5907383043116852
 51
327.6247145926457165
  0
ARC
  5
142BF
  8
0
 10
3715.0287597998731144
 20
164.7299205279092007
 30
0.0
 40
0.0071857807296463
 50
182.3493669743104135
 51
243.897846988886414
  0
LINE
  5
142C0
  8
0
 10
3715.0215800591799962
 20
164.7296259633579893
 30
0.0
 11
3715.0215800590799518
 21
164.741931271457986
 31
0.0
  0
LINE
  5
142C1
  8
0
 10
3715.0215800590799518
 20
164.7296259657954067
 30
0.0
 11
3715.0277330992807947
 21
164.7393308538580072
 31
0.0
  0
LINE
  5
142C2
  8
0
 10
3715.0255982509797832
 20
164.7234676174579988
 30
0.0
 11
3715.0249588334800137
 21
164.7229026599580095
 31
0.0
  0
LINE
  5
142C3
  8
0
 10
3715.0316646349701841
 20
164.7283053235624095
 30
0.0
 11
3715.051178162279939
 21
164.7200584540580053
 31
0.0
  0
LINE
  5
142C4
  8
0
 10
3715.051178162279939
 20
164.7200584540580053
 30
0.0
 11
3715.0786229228801858
 21
164.7231663411579916
 31
0.0
  0
LINE
  5
142C5
  8
0
 10
3715.0820038368801761
 20
164.7164432280580115
 30
0.0
 11
3715.0526021621158179
 21
164.7131137890148125
 31
0.0
  0
ARC
  5
142C6
  8
0
 10
3715.0516357691190024
 20
164.7216478310103014
 30
0.0
 40
0.0085885847616197
 50
257.024948285579228
 51
276.4606395412957909
  0
ARC
  5
142C7
  8
0
 10
3715.0489579655559282
 20
164.7193108880269961
 30
0.0
 40
0.0060787326295796
 50
248.0581534990288048
 51
277.0819162129718052
  0
LINE
  5
142C8
  8
0
 10
3715.0466865538801358
 20
164.7136724769580098
 30
0.0
 11
3715.0249609731799865
 21
164.7229028501579933
 31
0.0
  0
ARC
  5
142C9
  8
0
 10
3715.0378731865621376
 20
164.7193951989729896
 30
0.0
 40
0.0133214971320116
 50
332.6672296267850015
 51
2.853840582330009
  0
LINE
  5
142CA
  8
0
 10
3715.0511781622731178
 20
164.7200584539571935
 30
0.0
 11
3715.051178162279939
 21
164.7387909971567126
 31
0.0
  0
LINE
  5
142CB
  8
0
 10
3715.0220329835301527
 20
164.7613290651580087
 30
0.0
 11
3715.01511293673002
 21
164.7504144125580012
 31
0.0
  0
ARC
  5
142CC
  8
0
 10
3715.0099292604718357
 20
164.7537009378937114
 30
0.0
 40
0.0061377315294667
 50
273.5907383043116852
 51
327.6247145926457165
  0
ARC
  5
142CD
  8
0
 10
3715.013475210523211
 20
164.7540281660091921
 30
0.0
 40
0.0071857807296463
 50
182.3493669743104135
 51
243.897846988886414
  0
LINE
  5
142CE
  8
0
 10
3715.0062954698300928
 20
164.7537336014580092
 30
0.0
 11
3715.0062954697309578
 21
164.7660389095580058
 31
0.0
  0
LINE
  5
142CF
  8
0
 10
3715.0062954697309578
 20
164.7537336038953981
 30
0.0
 11
3715.0124485099299818
 21
164.7634384919579986
 31
0.0
  0
LINE
  5
142D0
  8
0
 10
3715.0103136616298798
 20
164.7475752555579902
 30
0.0
 11
3715.0096742441301103
 21
164.7470102980580009
 31
0.0
  0
LINE
  5
142D1
  8
0
 10
3715.016380045619826
 20
164.7524129616624009
 30
0.0
 11
3715.0358935729300356
 21
164.7441660921579967
 31
0.0
  0
LINE
  5
142D2
  8
0
 10
3715.0358935729300356
 20
164.7441660921579967
 30
0.0
 11
3715.0633383335311919
 21
164.7472739792580114
 31
0.0
  0
LINE
  5
142D3
  8
0
 10
3715.0667192475311822
 20
164.7405508661580029
 30
0.0
 11
3715.037317572766824
 21
164.7372214271148039
 31
0.0
  0
ARC
  5
142D4
  8
0
 10
3715.036351179769099
 20
164.7457554691102928
 30
0.0
 40
0.0085885847616197
 50
257.024948285579228
 51
276.4606395412957909
  0
ARC
  5
142D5
  8
0
 10
3715.0336733762051153
 20
164.7434185261269874
 30
0.0
 40
0.0060787326295796
 50
248.0581534990288048
 51
277.0819162129718052
  0
LINE
  5
142D6
  8
0
 10
3715.0314019645297776
 20
164.7377801150580012
 30
0.0
 11
3715.0096763838300831
 21
164.7470104882580131
 31
0.0
  0
ARC
  5
142D7
  8
0
 10
3715.0225885972131437
 20
164.7435028370730095
 30
0.0
 40
0.0133214971320116
 50
332.6672296267850015
 51
2.853840582330009
  0
LINE
  5
142D8
  8
0
 10
3715.0358935729232144
 20
164.7441660920572133
 30
0.0
 11
3715.0358935729300356
 21
164.7628986352397078
 31
0.0
  0
LINE
  5
142D9
  8
0
 10
3715.0067483943298612
 20
164.7854367032580001
 30
0.0
 11
3714.9998283475310927
 21
164.7745220506579926
 31
0.0
  0
ARC
  5
142DA
  8
0
 10
3714.9946446712729085
 20
164.7778085759937028
 30
0.0
 40
0.0061377315294667
 50
273.5907383043116852
 51
327.6247145926457165
  0
ARC
  5
142DB
  8
0
 10
3714.998190621323829
 20
164.7781358041092119
 30
0.0
 40
0.0071857807296463
 50
182.3493669743104135
 51
243.897846988886414
  0
LINE
  5
142DC
  8
0
 10
3714.9910108806298012
 20
164.7778412395580006
 30
0.0
 11
3714.9910108805302116
 21
164.7901465476579972
 31
0.0
  0
LINE
  5
142DD
  8
0
 10
3714.9910108805302116
 20
164.7778412419953895
 30
0.0
 11
3714.997163920730145
 21
164.78754613005799
 31
0.0
  0
LINE
  5
142DE
  8
0
 10
3714.995029072430043
 20
164.77168289365801
 30
0.0
 11
3714.9943917946297915
 21
164.7711181263580045
 31
0.0
  0
LINE
  5
142DF
  8
0
 10
3715.0010954564199892
 20
164.776520599762506
 30
0.0
 11
3715.0206089837301988
 21
164.7682737302579881
 31
0.0
  0
LINE
  5
142E0
  8
0
 10
3715.0206089837301988
 20
164.7682737302579881
 30
0.0
 11
3715.0480537443299909
 21
164.7713816173580028
 31
0.0
  0
LINE
  5
142E1
  8
0
 10
3715.0514346583299812
 20
164.7646585042579943
 30
0.0
 11
3715.0220329835660777
 21
164.7613290652147953
 31
0.0
  0
ARC
  5
142E2
  8
0
 10
3715.0210665905678979
 20
164.7698631072103979
 30
0.0
 40
0.0085885847616197
 50
257.024948285579228
 51
276.4606395412957909
  0
ARC
  5
142E3
  8
0
 10
3715.0183887870061881
 20
164.7675261642270073
 30
0.0
 40
0.0060787326295796
 50
248.0581534990288048
 51
277.0819162129718052
  0
LINE
  5
142E4
  8
0
 10
3715.0161173753299408
 20
164.7618877531579926
 30
0.0
 11
3714.9943917946297915
 21
164.7711181263580045
 31
0.0
  0
ARC
  5
142E5
  8
0
 10
3715.0073040080119426
 20
164.7676104751730009
 30
0.0
 40
0.0133214971320116
 50
332.6672296267850015
 51
2.853840582330009
  0
LINE
  5
142E6
  8
0
 10
3715.0206089837229229
 20
164.7682737301572047
 30
0.0
 11
3715.0206089837301988
 21
164.7870062733452983
 31
0.0
  0
LINE
  5
142E7
  8
0
 10
3714.9914638050800022
 20
164.8095443413579915
 30
0.0
 11
3714.9845437582798695
 21
164.7986296887580124
 31
0.0
  0
ARC
  5
142E8
  8
0
 10
3714.97936008202214
 20
164.8019162140936942
 30
0.0
 40
0.0061377315294667
 50
273.5907383043116852
 51
327.6247145926457165
  0
ARC
  5
142E9
  8
0
 10
3714.9829060320730605
 20
164.8022434422092033
 30
0.0
 40
0.0071857807296463
 50
182.3493669743104135
 51
243.897846988886414
  0
LINE
  5
142EA
  8
0
 10
3714.9757262913799423
 20
164.8019488776579919
 30
0.0
 11
3714.9757262912808073
 21
164.8142541857579886
 31
0.0
  0
LINE
  5
142EB
  8
0
 10
3714.9757262912808073
 20
164.8019488800954093
 30
0.0
 11
3714.9818793314798313
 21
164.8116537681580098
 31
0.0
  0
LINE
  5
142EC
  8
0
 10
3714.979744483180184
 20
164.7957905317580014
 30
0.0
 11
3714.9791050656799598
 21
164.7952255742580121
 31
0.0
  0
LINE
  5
142ED
  8
0
 10
3714.9858108671701302
 20
164.8006282378624974
 30
0.0
 11
3715.0053243944807946
 21
164.7923813683580079
 31
0.0
  0
LINE
  5
142EE
  8
0
 10
3715.0053243944807946
 20
164.7923813683580079
 30
0.0
 11
3715.0327691550801319
 21
164.7954892554579942
 31
0.0
  0
LINE
  5
142EF
  8
0
 10
3715.0361500690801222
 20
164.7887661423580141
 30
0.0
 11
3715.0067483943162188
 21
164.7854367033147867
 31
0.0
  0
ARC
  5
142F0
  8
0
 10
3715.0057820013189485
 20
164.793970745310304
 30
0.0
 40
0.0085885847616197
 50
257.024948285579228
 51
276.4606395412957909
  0
ARC
  5
142F1
  8
0
 10
3715.0031041977558743
 20
164.7916338023269986
 30
0.0
 40
0.0060787326295796
 50
248.0581534990288048
 51
277.0819162129718052
  0
LINE
  5
142F2
  8
0
 10
3715.0008327860800819
 20
164.7859953912580124
 30
0.0
 11
3714.9791072053799326
 21
164.7952257644579959
 31
0.0
  0
ARC
  5
142F3
  8
0
 10
3714.9920194187620837
 20
164.7917181132729922
 30
0.0
 40
0.0133214971320116
 50
332.6672296267850015
 51
2.853840582330009
  0
LINE
  5
142F4
  8
0
 10
3715.0053243944730639
 20
164.7923813682571961
 30
0.0
 11
3715.0053243944807946
 21
164.8111139114510024
 31
0.0
  0
LINE
  5
142F5
  8
0
 10
3714.976179215780121
 20
164.8336519794580113
 30
0.0
 11
3714.9692591689799883
 21
164.8227373268580038
 31
0.0
  0
ARC
  5
142F6
  8
0
 10
3714.9640754927231683
 20
164.826023852193714
 30
0.0
 40
0.0061377315294667
 50
273.5907383043116852
 51
327.6247145926457165
  0
ARC
  5
142F7
  8
0
 10
3714.9676214427740888
 20
164.8263510803091947
 30
0.0
 40
0.0071857807296463
 50
182.3493669743104135
 51
243.897846988886414
  0
LINE
  5
142F8
  8
0
 10
3714.9604417020809706
 20
164.8260565157580118
 30
0.0
 11
3714.9604417019800167
 21
164.8383618238580084
 31
0.0
  0
LINE
  5
142F9
  8
0
 10
3714.9604417019800167
 20
164.8260565181954007
 30
0.0
 11
3714.9665947421799501
 21
164.8357614062580012
 31
0.0
  0
LINE
  5
142FA
  8
0
 10
3714.9644598938812123
 20
164.8198981698579928
 30
0.0
 11
3714.9638204763809881
 21
164.8193332123580035
 31
0.0
  0
LINE
  5
142FB
  8
0
 10
3714.9705262778697943
 20
164.8247358759624035
 30
0.0
 11
3714.9900398051800039
 21
164.8164890064579993
 31
0.0
  0
LINE
  5
142FC
  8
0
 10
3714.9900398051800039
 20
164.8164890064579993
 30
0.0
 11
3715.017484565779796
 21
164.819596893558014
 31
0.0
  0
LINE
  5
142FD
  8
0
 10
3715.0208654797797863
 20
164.8128737804580055
 30
0.0
 11
3714.9914638050158828
 21
164.8095443414148065
 31
0.0
  0
ARC
  5
142FE
  8
0
 10
3714.9904974120181578
 20
164.8180783834102954
 30
0.0
 40
0.0085885847616197
 50
257.024948285579228
 51
276.4606395412957909
  0
ARC
  5
142FF
  8
0
 10
3714.9878196084559931
 20
164.81574144042699
 30
0.0
 40
0.0060787326295796
 50
248.0581534990288048
 51
277.0819162129718052
  0
LINE
  5
14300
  8
0
 10
3714.9855481967811102
 20
164.8101030293580038
 30
0.0
 11
3714.9638226160809609
 21
164.8193334025579873
 31
0.0
  0
ARC
  5
14301
  8
0
 10
3714.976734829463112
 20
164.8158257513730121
 30
0.0
 40
0.0133214971320116
 50
332.6672296267850015
 51
2.853840582330009
  0
LINE
  5
14302
  8
0
 10
3714.9900398051731827
 20
164.8164890063571875
 30
0.0
 11
3714.9900398051800039
 21
164.8352215496510098
 31
0.0
  0
LINE
  5
14303
  8
0
 10
3714.9608946264811493
 20
164.8577596176579902
 30
0.0
 11
3714.9539745796801071
 21
164.8468449650580112
 31
0.0
  0
ARC
  5
14304
  8
0
 10
3714.9487909034228323
 20
164.850131490393693
 30
0.0
 40
0.0061377315294667
 50
273.5907383043116852
 51
327.6247145926457165
  0
ARC
  5
14305
  8
0
 10
3714.9523368534742076
 20
164.8504587185092021
 30
0.0
 40
0.0071857807296463
 50
182.3493669743104135
 51
243.897846988886414
  0
LINE
  5
14306
  8
0
 10
3714.9451571127810894
 20
164.8501641539579907
 30
0.0
 11
3714.9451571126801355
 21
164.8624694620579874
 31
0.0
  0
LINE
  5
14307
  8
0
 10
3714.9451571126801355
 20
164.8501641563954081
 30
0.0
 11
3714.9513101528800689
 21
164.8598690444580086
 31
0.0
  0
LINE
  5
14308
  8
0
 10
3714.9491753045799669
 20
164.8440058080580002
 30
0.0
 11
3714.9485358870811069
 21
164.8434408505580109
 31
0.0
  0
LINE
  5
14309
  8
0
 10
3714.9552416885699131
 20
164.8488435141624109
 30
0.0
 11
3714.9747552158801227
 21
164.8405966446580067
 31
0.0
  0
LINE
  5
1430A
  8
0
 10
3714.9747552158801227
 20
164.8405966446580067
 30
0.0
 11
3715.0021999764799148
 21
164.843704531757993
 31
0.0
  0
LINE
  5
1430B
  8
0
 10
3715.0055808904799051
 20
164.8369814186580129
 30
0.0
 11
3714.9761792157160016
 21
164.8336519796148139
 31
0.0
  0
ARC
  5
1430C
  8
0
 10
3714.9752128227178218
 20
164.8421860216103028
 30
0.0
 40
0.0085885847616197
 50
257.024948285579228
 51
276.4606395412957909
  0
ARC
  5
1430D
  8
0
 10
3714.972535019156112
 20
164.8398490786269974
 30
0.0
 40
0.0060787326295796
 50
248.0581534990288048
 51
277.0819162129718052
  0
LINE
  5
1430E
  8
0
 10
3714.9702636074807742
 20
164.8342106675580112
 30
0.0
 11
3714.9485380267810797
 21
164.8434410407579946
 31
0.0
  0
ARC
  5
1430F
  8
0
 10
3714.9614502401618665
 20
164.839933389572991
 30
0.0
 40
0.0133214971320116
 50
332.6672296267850015
 51
2.853840582330009
  0
LINE
  5
14310
  8
0
 10
3714.9747552158728467
 20
164.8405966445571948
 30
0.0
 11
3714.9747552158801227
 21
164.8593059800473952
 31
0.0
  0
LINE
  5
14311
  8
0
 10
3714.9456100371808134
 20
164.8818672557079879
 30
0.0
 11
3714.9386899903802259
 21
164.8709526031080088
 31
0.0
  0
ARC
  5
14312
  8
0
 10
3714.9335063141220417
 20
164.8742391284436906
 30
0.0
 40
0.0061377315294667
 50
273.5907383043116852
 51
327.6247145926457165
  0
ARC
  5
14313
  8
0
 10
3714.9370522641729622
 20
164.8745663565591997
 30
0.0
 40
0.0071857807296463
 50
182.3493669743104135
 51
243.897846988886414
  0
LINE
  5
14314
  8
0
 10
3714.9298725234812082
 20
164.8742717920079883
 30
0.0
 11
3714.9298725233811638
 21
164.8865771001080134
 31
0.0
  0
LINE
  5
14315
  8
0
 10
3714.9298725233811638
 20
164.8742717944454057
 30
0.0
 11
3714.9360255635810972
 21
164.8839766825080062
 31
0.0
  0
LINE
  5
14316
  8
0
 10
3714.9338907152800857
 20
164.8681134461079978
 30
0.0
 11
3714.9332512977812257
 21
164.8675484886080085
 31
0.0
  0
LINE
  5
14317
  8
0
 10
3714.9399570992700319
 20
164.8729511522124085
 30
0.0
 11
3714.9594706265797868
 21
164.8647042827080043
 31
0.0
  0
LINE
  5
14318
  8
0
 10
3714.9594706265797868
 20
164.8647042827080043
 30
0.0
 11
3714.9869153871800336
 21
164.8678121698079906
 31
0.0
  0
LINE
  5
14319
  8
0
 10
3714.9902963011809334
 20
164.8610890567080105
 30
0.0
 11
3714.9608946264161204
 21
164.8577596176648115
 31
0.0
  0
ARC
  5
1431A
  8
0
 10
3714.9599282334188501
 20
164.8662936596603004
 30
0.0
 40
0.0085885847616197
 50
257.024948285579228
 51
276.4606395412957909
  0
ARC
  5
1431B
  8
0
 10
3714.957250429855776
 20
164.863956716676995
 30
0.0
 40
0.0060787326295796
 50
248.0581534990288048
 51
277.0819162129718052
  0
LINE
  5
1431C
  8
0
 10
3714.9549790181799835
 20
164.8583183056080088
 30
0.0
 11
3714.9332534374811985
 21
164.8675486788079922
 31
0.0
  0
ARC
  5
1431D
  8
0
 10
3714.9461656508619853
 20
164.8640410276229886
 30
0.0
 40
0.0133214971320116
 50
332.6672296267850015
 51
2.853840582330009
  0
LINE
  5
1431E
  8
0
 10
3714.9594706265729656
 20
164.8647042826071925
 30
0.0
 11
3714.9594706265797868
 21
164.8834136180973928
 31
0.0
  0
LINE
  5
1431F
  8
0
 10
3714.6723603477739744
 20
164.8095635905227994
 30
0.0
 11
3714.6783518010802254
 21
164.8070314633079931
 31
0.0
  0
LINE
  5
14320
  8
0
 10
3714.6783518010802254
 20
164.8070314633079931
 30
0.0
 11
3714.7057965616800175
 21
164.8101393504080079
 31
0.0
  0
LINE
  5
14321
  8
0
 10
3714.7057965616800175
 20
164.8101393504080079
 30
0.0
 11
3714.7119496017648999
 21
164.8198442408836115
 31
0.0
  0
LINE
  5
14322
  8
0
 10
3714.7215340753559758
 20
164.8177348141697109
 30
0.0
 11
3714.7146140286799891
 21
164.8068201616079875
 31
0.0
  0
ARC
  5
14323
  8
0
 10
3714.709430352275831
 20
164.8101066869890019
 30
0.0
 40
0.006137731677458
 50
273.5907386522050047
 51
327.6247149670783188
  0
LINE
  5
14324
  8
0
 10
3714.7098147534811687
 20
164.8039810045079889
 30
0.0
 11
3714.7091774756800078
 21
164.8034162373079994
 31
0.0
  0
LINE
  5
14325
  8
0
 10
3714.7091774756800078
 20
164.8034162373079994
 30
0.0
 11
3714.6797758009170138
 21
164.8000867982648003
 31
0.0
  0
ARC
  5
14326
  8
0
 10
3714.678809407918834
 20
164.8086208402602892
 30
0.0
 40
0.0085885847616197
 50
257.024948285579228
 51
276.4606395412957909
  0
ARC
  5
14327
  8
0
 10
3714.6761316043548504
 20
164.8062838972770123
 30
0.0
 40
0.0060787326295796
 50
248.0581534990288048
 51
277.0819162129718052
  0
LINE
  5
14328
  8
0
 10
3714.6738601926799674
 20
164.8006454862079977
 30
0.0
 11
3714.6677233370919566
 21
164.8032528028147112
 31
0.0
  0
ARC
  5
14329
  8
0
 10
3714.6650468253619692
 20
164.8063682082230059
 30
0.0
 40
0.0133214971320116
 50
332.6672296267850015
 51
2.853840582330009
  0
LINE
  5
1432A
  8
0
 10
3714.6783518010729495
 20
164.8070314632072098
 30
0.0
 11
3714.6783518010761327
 21
164.8163865150727929
 31
0.0
  0
LINE
  5
1432B
  8
0
 10
3714.7057965616800175
 20
164.8224664563400097
 30
0.0
 11
3714.7057965616800175
 21
164.8101393504080079
 31
0.0
  0
ARC
  5
1432C
  8
0
 10
3714.7129763190400809
 20
164.8104339258341042
 30
0.0
 40
0.0071857978285074
 50
182.3494481645940084
 51
243.8977657986148984
  0
LINE
  5
1432D
  8
0
 10
3714.6741228630198748
 20
164.791170694712406
 30
0.0
 11
3714.6936363903300844
 21
164.7829238252080017
 31
0.0
  0
LINE
  5
1432E
  8
0
 10
3714.6936363903300844
 20
164.7829238252080017
 30
0.0
 11
3714.7210811509298765
 21
164.7860317123079881
 31
0.0
  0
LINE
  5
1432F
  8
0
 10
3714.7210811509298765
 20
164.7860317123079881
 30
0.0
 11
3714.7272341910152136
 21
164.7957366027835917
 31
0.0
  0
LINE
  5
14330
  8
0
 10
3714.736818664607199
 20
164.7936271760698048
 30
0.0
 11
3714.7298986179298481
 21
164.7827125235079961
 31
0.0
  0
ARC
  5
14331
  8
0
 10
3714.7247149415261447
 20
164.7859990488890105
 30
0.0
 40
0.006137731677458
 50
273.5907386522050047
 51
327.6247149670783188
  0
LINE
  5
14332
  8
0
 10
3714.7250993427301182
 20
164.7798733664079975
 30
0.0
 11
3714.7244620649307763
 21
164.779308599208008
 31
0.0
  0
LINE
  5
14333
  8
0
 10
3714.7244620649307763
 20
164.779308599208008
 30
0.0
 11
3714.6950603901659633
 21
164.7759791601648089
 31
0.0
  0
ARC
  5
14334
  8
0
 10
3714.6940939971691478
 20
164.7845132021602979
 30
0.0
 40
0.0085885847616197
 50
257.024948285579228
 51
276.4606395412957909
  0
ARC
  5
14335
  8
0
 10
3714.6914161936060736
 20
164.7821762591769925
 30
0.0
 40
0.0060787326295796
 50
248.0581534990288048
 51
277.0819162129718052
  0
LINE
  5
14336
  8
0
 10
3714.6891447819311907
 20
164.7765378481080063
 30
0.0
 11
3714.6674192012310414
 21
164.7857682213079897
 31
0.0
  0
ARC
  5
14337
  8
0
 10
3714.6803314146118282
 20
164.7822605701229861
 30
0.0
 40
0.0133214971320116
 50
332.6672296267850015
 51
2.853840582330009
  0
LINE
  5
14338
  8
0
 10
3714.6936363903228084
 20
164.7829238251071899
 30
0.0
 11
3714.6936363903300844
 21
164.8016563682953119
 31
0.0
  0
LINE
  5
14339
  8
0
 10
3714.7210811509298765
 20
164.7983588182611925
 30
0.0
 11
3714.7210811509298765
 21
164.7860317123079881
 31
0.0
  0
ARC
  5
1433A
  8
0
 10
3714.7282609082908493
 20
164.7863262877341128
 30
0.0
 40
0.0071857978285074
 50
182.3494481645940084
 51
243.8977657986148984
  0
LINE
  5
1433B
  8
0
 10
3714.6894074523202107
 20
164.7670630565625061
 30
0.0
 11
3714.7089209796299656
 21
164.7588161870579881
 31
0.0
  0
LINE
  5
1433C
  8
0
 10
3714.7089209796299656
 20
164.7588161870579881
 30
0.0
 11
3714.7363657402302124
 21
164.7619240741580029
 31
0.0
  0
LINE
  5
1433D
  8
0
 10
3714.7363657402302124
 20
164.7619240741580029
 30
0.0
 11
3714.7425187803141853
 21
164.7716289646336065
 31
0.0
  0
LINE
  5
1433E
  8
0
 10
3714.7521032539061707
 20
164.769519537919706
 30
0.0
 11
3714.7451832072301841
 21
164.758604885358011
 31
0.0
  0
ARC
  5
1433F
  8
0
 10
3714.7399995308260259
 20
164.7618914107389969
 30
0.0
 40
0.006137731677458
 50
273.5907386522050047
 51
327.6247149670783188
  0
LINE
  5
14340
  8
0
 10
3714.7403839320299994
 20
164.7557657282580124
 30
0.0
 11
3714.7397466542302027
 21
164.7552009610579944
 31
0.0
  0
LINE
  5
14341
  8
0
 10
3714.7397466542302027
 20
164.7552009610579944
 30
0.0
 11
3714.7103449794658445
 21
164.7518715220147953
 31
0.0
  0
ARC
  5
14342
  8
0
 10
3714.7093785864681195
 20
164.7604055640103127
 30
0.0
 40
0.0085885847616197
 50
257.024948285579228
 51
276.4606395412957909
  0
ARC
  5
14343
  8
0
 10
3714.7067007829059548
 20
164.7580686210270073
 30
0.0
 40
0.0060787326295796
 50
248.0581534990288048
 51
277.0819162129718052
  0
LINE
  5
14344
  8
0
 10
3714.7044293712310719
 20
164.7524302099579927
 30
0.0
 11
3714.6827037905309226
 21
164.7616605831580046
 31
0.0
  0
ARC
  5
14345
  8
0
 10
3714.6956160039130737
 20
164.7581529319730009
 30
0.0
 40
0.0133214971320116
 50
332.6672296267850015
 51
2.853840582330009
  0
LINE
  5
14346
  8
0
 10
3714.7089209796231444
 20
164.7588161869570911
 30
0.0
 11
3714.7089209796299656
 21
164.7775487302010049
 31
0.0
  0
LINE
  5
14347
  8
0
 10
3714.7363657402302124
 20
164.7742293821929138
 30
0.0
 11
3714.7363657402302124
 21
164.7619240741580029
 31
0.0
  0
ARC
  5
14348
  8
0
 10
3714.7435454975911853
 20
164.7622186495840992
 30
0.0
 40
0.0071857978285074
 50
182.3494481645940084
 51
243.8977657986148984
  0
LINE
  5
14349
  8
0
 10
3714.7046920415700697
 20
164.742955418462401
 30
0.0
 11
3714.7242055688811888
 21
164.7347085489579968
 31
0.0
  0
LINE
  5
1434A
  8
0
 10
3714.7242055688811888
 20
164.7347085489579968
 30
0.0
 11
3714.7516503294809809
 21
164.7378164360580115
 31
0.0
  0
LINE
  5
1434B
  8
0
 10
3714.7516503294809809
 20
164.7378164360580115
 30
0.0
 11
3714.7578033695649538
 21
164.7475213265335867
 31
0.0
  0
LINE
  5
1434C
  8
0
 10
3714.7673878431560297
 20
164.7454118998196861
 30
0.0
 11
3714.760467796480043
 21
164.7344972472579911
 31
0.0
  0
ARC
  5
1434D
  8
0
 10
3714.7552841200758849
 20
164.7377837726390055
 30
0.0
 40
0.006137731677458
 50
273.5907386522050047
 51
327.6247149670783188
  0
LINE
  5
1434E
  8
0
 10
3714.7556685212812226
 20
164.7316580901579925
 30
0.0
 11
3714.7550312434800617
 21
164.731093322958003
 31
0.0
  0
LINE
  5
1434F
  8
0
 10
3714.7550312434800617
 20
164.731093322958003
 30
0.0
 11
3714.7256295687170677
 21
164.727763883914804
 31
0.0
  0
ARC
  5
14350
  8
0
 10
3714.7246631757188879
 20
164.7362979259102929
 30
0.0
 40
0.0085885847616197
 50
257.024948285579228
 51
276.4606395412957909
  0
ARC
  5
14351
  8
0
 10
3714.7219853721549043
 20
164.7339609829269875
 30
0.0
 40
0.0060787326295796
 50
248.0581534990288048
 51
277.0819162129718052
  0
LINE
  5
14352
  8
0
 10
3714.7197139604800213
 20
164.7283225718580013
 30
0.0
 11
3714.6979883797807815
 21
164.7375529450580132
 31
0.0
  0
ARC
  5
14353
  8
0
 10
3714.7109005931620231
 20
164.7340452938730095
 30
0.0
 40
0.0133214971320116
 50
332.6672296267850015
 51
2.853840582330009
  0
LINE
  5
14354
  8
0
 10
3714.7242055688730034
 20
164.7347085488572134
 30
0.0
 11
3714.7242055688811888
 21
164.7534178843474137
 31
0.0
  0
LINE
  5
14355
  8
0
 10
3714.7516503294809809
 20
164.750121744092894
 30
0.0
 11
3714.7516503294809809
 21
164.7378164360580115
 31
0.0
  0
ARC
  5
14356
  8
0
 10
3714.7588300868401348
 20
164.7381110114841078
 30
0.0
 40
0.0071857978285074
 50
182.3494481645940084
 51
243.8977657986148984
  0
LINE
  5
14357
  8
0
 10
3714.7199766308699509
 20
164.7188477803624096
 30
0.0
 11
3714.7394901581801605
 21
164.7106009108580054
 31
0.0
  0
LINE
  5
14358
  8
0
 10
3714.7394901581801605
 20
164.7106009108580054
 30
0.0
 11
3714.7669349187799526
 21
164.7137087979579917
 31
0.0
  0
LINE
  5
14359
  8
0
 10
3714.7669349187799526
 20
164.7137087979579917
 30
0.0
 11
3714.7730879588648349
 21
164.7234136884335953
 31
0.0
  0
LINE
  5
1435A
  8
0
 10
3714.7826724324559109
 20
164.7213042617198084
 30
0.0
 11
3714.7757523857799242
 21
164.7103896091579998
 31
0.0
  0
ARC
  5
1435B
  8
0
 10
3714.7705687093762208
 20
164.7136761345390141
 30
0.0
 40
0.006137731677458
 50
273.5907386522050047
 51
327.6247149670783188
  0
LINE
  5
1435C
  8
0
 10
3714.7709531105801943
 20
164.7075504520580012
 30
0.0
 11
3714.7703158327799429
 21
164.7069856848580116
 31
0.0
  0
LINE
  5
1435D
  8
0
 10
3714.7703158327799429
 20
164.7069856848580116
 30
0.0
 11
3714.7409141580160394
 21
164.7036562458148126
 31
0.0
  0
ARC
  5
1435E
  8
0
 10
3714.7399477650178596
 20
164.7121902878103015
 30
0.0
 40
0.0085885847616197
 50
257.024948285579228
 51
276.4606395412957909
  0
ARC
  5
1435F
  8
0
 10
3714.7372699614561498
 20
164.7098533448269961
 30
0.0
 40
0.0060787326295796
 50
248.0581534990288048
 51
277.0819162129718052
  0
LINE
  5
14360
  8
0
 10
3714.734998549780812
 20
164.7042149337580099
 30
0.0
 11
3714.713272969080208
 21
164.7134453069579934
 31
0.0
  0
ARC
  5
14361
  8
0
 10
3714.7261851824619043
 20
164.7099376557729897
 30
0.0
 40
0.0133214971320116
 50
332.6672296267850015
 51
2.853840582330009
  0
LINE
  5
14362
  8
0
 10
3714.7394901581728845
 20
164.7106009107571936
 30
0.0
 11
3714.7394901581801605
 21
164.7293334539509999
 31
0.0
  0
LINE
  5
14363
  8
0
 10
3714.7669349187799526
 20
164.7260141059929026
 30
0.0
 11
3714.7669349187799526
 21
164.7137087979579917
 31
0.0
  0
ARC
  5
14364
  8
0
 10
3714.7741146761409254
 20
164.714003373384088
 30
0.0
 40
0.0071857978285074
 50
182.3494481645940084
 51
243.8977657986148984
  0
LINE
  5
14365
  8
0
 10
3714.7343168155198327
 20
164.6946331963625028
 30
0.0
 11
3714.7538303428300424
 21
164.6863863268580133
 31
0.0
  0
LINE
  5
14366
  8
0
 10
3714.7538303428300424
 20
164.6863863268580133
 30
0.0
 11
3714.7812751034298344
 21
164.6894942139579996
 31
0.0
  0
LINE
  5
14367
  8
0
 10
3714.7812751034298344
 20
164.6894942139579996
 30
0.0
 11
3714.7874281435151715
 21
164.6991991044336032
 31
0.0
  0
LINE
  5
14368
  8
0
 10
3714.7970126171057927
 20
164.6970896777197026
 30
0.0
 11
3714.7900925704311703
 21
164.6861750251580077
 31
0.0
  0
ARC
  5
14369
  8
0
 10
3714.7849088940270121
 20
164.6894615505391073
 30
0.0
 40
0.006137731677458
 50
273.5907386522050047
 51
327.6247149670783188
  0
LINE
  5
1436A
  8
0
 10
3714.7852932952309857
 20
164.6833358680580091
 30
0.0
 11
3714.7846560174298247
 21
164.6827711008579911
 31
0.0
  0
LINE
  5
1436B
  8
0
 10
3714.7846560174298247
 20
164.6827711008579911
 30
0.0
 11
3714.7529051268429612
 21
164.679175637143004
 31
0.0
  0
ARC
  5
1436C
  8
0
 10
3714.7405253671117862
 20
164.6857230717729976
 30
0.0
 40
0.0133214971320116
 50
331.8058498463545902
 51
2.853840582330009
  0
LINE
  5
1436D
  8
0
 10
3714.7538303428232211
 20
164.6863863267572015
 30
0.0
 11
3714.7538303428300424
 21
164.7050956622474018
 31
0.0
  0
LINE
  5
1436E
  8
0
 10
3714.7812751034298344
 20
164.7017995219929105
 30
0.0
 11
3714.7812751034298344
 21
164.6894942139579996
 31
0.0
  0
ARC
  5
1436F
  8
0
 10
3714.7884548607908073
 20
164.6897887893840959
 30
0.0
 40
0.0071857978285074
 50
182.3494481645940084
 51
243.8977657986148984
  0
LINE
  5
14370
  8
0
 10
3714.7423548227197898
 20
164.8505743647124007
 30
0.0
 11
3714.7618683500299994
 21
164.8423274952079964
 31
0.0
  0
LINE
  5
14371
  8
0
 10
3714.7618683500299994
 20
164.8423274952079964
 30
0.0
 11
3714.7893131106297915
 21
164.8454353823080112
 31
0.0
  0
LINE
  5
14372
  8
0
 10
3714.7893131106297915
 20
164.8454353823080112
 30
0.0
 11
3714.7954661507151286
 21
164.8551402727837001
 31
0.0
  0
LINE
  5
14373
  8
0
 10
3714.7933313024309427
 20
164.8392770364079922
 30
0.0
 11
3714.7926940246297818
 21
164.8387122692080027
 31
0.0
  0
LINE
  5
14374
  8
0
 10
3714.7926940246297818
 20
164.8387122692080027
 30
0.0
 11
3714.7632923498667878
 21
164.8353828301648036
 31
0.0
  0
ARC
  5
14375
  8
0
 10
3714.7623259568681533
 20
164.8439168721602925
 30
0.0
 40
0.0085885847616197
 50
257.024948285579228
 51
276.4606395412957909
  0
ARC
  5
14376
  8
0
 10
3714.7596481533059887
 20
164.8415799291769872
 30
0.0
 40
0.0060787326295796
 50
248.0581534990288048
 51
277.0819162129718052
  0
LINE
  5
14377
  8
0
 10
3714.7573767416301962
 20
164.835941518108001
 30
0.0
 11
3714.7356511609309564
 21
164.8451718913080128
 31
0.0
  0
ARC
  5
14378
  8
0
 10
3714.7485633743131075
 20
164.8416642401230092
 30
0.0
 40
0.0133214971320116
 50
332.6672296267850015
 51
2.853840582330009
  0
LINE
  5
14379
  8
0
 10
3714.7618683500231782
 20
164.8423274951072131
 30
0.0
 11
3714.7618683500299994
 21
164.8610368305974134
 31
0.0
  0
LINE
  5
1437A
  8
0
 10
3714.7893131106297915
 20
164.8577406903428937
 30
0.0
 11
3714.7893131106297915
 21
164.8454353823080112
 31
0.0
  0
ARC
  5
1437B
  8
0
 10
3714.7964928679912191
 20
164.8457299577341075
 30
0.0
 40
0.0071857978285074
 50
182.3494481645940084
 51
243.8977657986148984
  0
LINE
  5
1437C
  8
0
 10
3714.7576394119701035
 20
164.8264667265623871
 30
0.0
 11
3714.7771529392812226
 21
164.8182198570580113
 31
0.0
  0
LINE
  5
1437D
  8
0
 10
3714.7771529392812226
 20
164.8182198570580113
 30
0.0
 11
3714.8045976998801052
 21
164.8213277441579976
 31
0.0
  0
LINE
  5
1437E
  8
0
 10
3714.8045976998801052
 20
164.8213277441579976
 30
0.0
 11
3714.8107507399640781
 21
164.8310326346336012
 31
0.0
  0
LINE
  5
1437F
  8
0
 10
3714.8203352135560635
 20
164.8289232079197006
 30
0.0
 11
3714.8134151668800769
 21
164.8180085553580057
 31
0.0
  0
ARC
  5
14380
  8
0
 10
3714.8082314904759187
 20
164.8212950807391053
 30
0.0
 40
0.006137731677458
 50
273.5907386522050047
 51
327.6247149670783188
  0
LINE
  5
14381
  8
0
 10
3714.8086158916798922
 20
164.815169398258007
 30
0.0
 11
3714.8079786138800955
 21
164.8146046310579891
 31
0.0
  0
LINE
  5
14382
  8
0
 10
3714.8079786138800955
 20
164.8146046310579891
 30
0.0
 11
3714.7785769391161921
 21
164.81127519201479
 31
0.0
  0
ARC
  5
14383
  8
0
 10
3714.7776105461180123
 20
164.8198092340103074
 30
0.0
 40
0.0085885847616197
 50
257.024948285579228
 51
276.4606395412957909
  0
ARC
  5
14384
  8
0
 10
3714.7749327425558477
 20
164.817472291027002
 30
0.0
 40
0.0060787326295796
 50
248.0581534990288048
 51
277.0819162129718052
  0
LINE
  5
14385
  8
0
 10
3714.7726613308800552
 20
164.8118338799579874
 30
0.0
 11
3714.7509357501799059
 21
164.8210642531579992
 31
0.0
  0
ARC
  5
14386
  8
0
 10
3714.763847963562057
 20
164.8175566019729956
 30
0.0
 40
0.0133214971320116
 50
332.6672296267850015
 51
2.853840582330009
  0
LINE
  5
14387
  8
0
 10
3714.7771529392730372
 20
164.8182198569571142
 30
0.0
 11
3714.7771529392812226
 21
164.8369524001952868
 31
0.0
  0
LINE
  5
14388
  8
0
 10
3714.8045976998801052
 20
164.8336330521929085
 30
0.0
 11
3714.8045976998801052
 21
164.8213277441579976
 31
0.0
  0
ARC
  5
14389
  8
0
 10
3714.8117774572410781
 20
164.8216223195840939
 30
0.0
 40
0.0071857978285074
 50
182.3494481645940084
 51
243.8977657986148984
  0
LINE
  5
1438A
  8
0
 10
3714.7729240012699847
 20
164.8023590884625094
 30
0.0
 11
3714.7924375285811038
 21
164.7941122189579914
 31
0.0
  0
LINE
  5
1438B
  8
0
 10
3714.7924375285811038
 20
164.7941122189579914
 30
0.0
 11
3714.8198822891799864
 21
164.7972201060580062
 31
0.0
  0
LINE
  5
1438C
  8
0
 10
3714.8198822891799864
 20
164.7972201060580062
 30
0.0
 11
3714.8260353292648688
 21
164.8069249965336098
 31
0.0
  0
LINE
  5
1438D
  8
0
 10
3714.8356198028559447
 20
164.8048155698197093
 30
0.0
 11
3714.8286997561799581
 21
164.7939009172579858
 31
0.0
  0
ARC
  5
1438E
  8
0
 10
3714.8235160797757999
 20
164.7971874426390002
 30
0.0
 40
0.006137731677458
 50
273.5907386522050047
 51
327.6247149670783188
  0
LINE
  5
1438F
  8
0
 10
3714.8239004809797734
 20
164.7910617601579872
 30
0.0
 11
3714.8232632031799767
 21
164.7904969929579977
 31
0.0
  0
LINE
  5
14390
  8
0
 10
3714.8232632031799767
 20
164.7904969929579977
 30
0.0
 11
3714.7938615284160733
 21
164.7871675539147986
 31
0.0
  0
ARC
  5
14391
  8
0
 10
3714.7928951354178935
 20
164.7957015959102876
 30
0.0
 40
0.0085885847616197
 50
257.024948285579228
 51
276.4606395412957909
  0
ARC
  5
14392
  8
0
 10
3714.7902173318561836
 20
164.7933646529270106
 30
0.0
 40
0.0060787326295796
 50
248.0581534990288048
 51
277.0819162129718052
  0
LINE
  5
14393
  8
0
 10
3714.7879459201808459
 20
164.787726241857996
 30
0.0
 11
3714.7662203394797871
 21
164.7969566150580079
 31
0.0
  0
ARC
  5
14394
  8
0
 10
3714.7791325528619382
 20
164.7934489638730042
 30
0.0
 40
0.0133214971320116
 50
332.6672296267850015
 51
2.853840582330009
  0
LINE
  5
14395
  8
0
 10
3714.7924375285729184
 20
164.7941122188572081
 30
0.0
 11
3714.7924375285811038
 21
164.8128215543474084
 31
0.0
  0
LINE
  5
14396
  8
0
 10
3714.8198822891799864
 20
164.8095254140928887
 30
0.0
 11
3714.8198822891799864
 21
164.7972201060580062
 31
0.0
  0
ARC
  5
14397
  8
0
 10
3714.8270620465400498
 20
164.7975146814841025
 30
0.0
 40
0.0071857978285074
 50
182.3494481645940084
 51
243.8977657986148984
  0
LINE
  5
14398
  8
0
 10
3714.7882085905189342
 20
164.7782514503624043
 30
0.0
 11
3714.8077221178309628
 21
164.7700045808580001
 31
0.0
  0
LINE
  5
14399
  8
0
 10
3714.8077221178309628
 20
164.7700045808580001
 30
0.0
 11
3714.8351668784298454
 21
164.7731124679579864
 31
0.0
  0
LINE
  5
1439A
  8
0
 10
3714.8351668784298454
 20
164.7731124679579864
 30
0.0
 11
3714.8413199185151825
 21
164.78281735843359
 31
0.0
  0
LINE
  5
1439B
  8
0
 10
3714.8509043921058037
 20
164.7807079317196894
 30
0.0
 11
3714.8439843454311813
 21
164.7697932791579944
 31
0.0
  0
ARC
  5
1439C
  8
0
 10
3714.8388006690261136
 20
164.7730798045390088
 30
0.0
 40
0.006137731677458
 50
273.5907386522050047
 51
327.6247149670783188
  0
LINE
  5
1439D
  8
0
 10
3714.8391850702309966
 20
164.7669541220579958
 30
0.0
 11
3714.8385477924298357
 21
164.7663893548580063
 31
0.0
  0
LINE
  5
1439E
  8
0
 10
3714.8385477924298357
 20
164.7663893548580063
 30
0.0
 11
3714.8091461176659323
 21
164.7630599158148073
 31
0.0
  0
ARC
  5
1439F
  8
0
 10
3714.8081797246691167
 20
164.7715939578102962
 30
0.0
 40
0.0085885847616197
 50
257.024948285579228
 51
276.4606395412957909
  0
ARC
  5
143A0
  8
0
 10
3714.8055019211060426
 20
164.7692570148269908
 30
0.0
 40
0.0060787326295796
 50
248.0581534990288048
 51
277.0819162129718052
  0
LINE
  5
143A1
  8
0
 10
3714.8032305094297953
 20
164.7636186037580046
 30
0.0
 11
3714.7815049287301008
 21
164.772848976957988
 31
0.0
  0
ARC
  5
143A2
  8
0
 10
3714.7944171421117971
 20
164.7693413257730128
 30
0.0
 40
0.0133214971320116
 50
332.6672296267850015
 51
2.853840582330009
  0
LINE
  5
143A3
  8
0
 10
3714.8077221178227774
 20
164.7700045807571883
 30
0.0
 11
3714.8077221178309628
 21
164.7887139162473886
 31
0.0
  0
LINE
  5
143A4
  8
0
 10
3714.8351668784298454
 20
164.7854177759928973
 30
0.0
 11
3714.8351668784298454
 21
164.7731124679579864
 31
0.0
  0
ARC
  5
143A5
  8
0
 10
3714.8423466357908183
 20
164.7734070433841111
 30
0.0
 40
0.0071857978285074
 50
182.3494481645940084
 51
243.8977657986148984
  0
LINE
  5
143A6
  8
0
 10
3714.8034931798201796
 20
164.7541438122624129
 30
0.0
 11
3714.8230067071299345
 21
164.7458969427580087
 31
0.0
  0
LINE
  5
143A7
  8
0
 10
3714.8230067071299345
 20
164.7458969427580087
 30
0.0
 11
3714.8504514677310908
 21
164.749004829857995
 31
0.0
  0
LINE
  5
143A8
  8
0
 10
3714.8504514677310908
 20
164.749004829857995
 30
0.0
 11
3714.8566045078150637
 21
164.7587097203335986
 31
0.0
  0
LINE
  5
143A9
  8
0
 10
3714.8661889814061396
 20
164.756600293619698
 30
0.0
 11
3714.8592689347310625
 21
164.7456856410580031
 31
0.0
  0
ARC
  5
143AA
  8
0
 10
3714.8540852583259948
 20
164.748972166438989
 30
0.0
 40
0.006137731677458
 50
273.5907386522050047
 51
327.6247149670783188
  0
LINE
  5
143AB
  8
0
 10
3714.8544696595299683
 20
164.7428464839580045
 30
0.0
 11
3714.8538323817310811
 21
164.7422817167579865
 31
0.0
  0
LINE
  5
143AC
  8
0
 10
3714.8538323817310811
 20
164.7422817167579865
 30
0.0
 11
3714.8244307069658134
 21
164.7389522777147874
 31
0.0
  0
ARC
  5
143AD
  8
0
 10
3714.8234643139689979
 20
164.7474863197103048
 30
0.0
 40
0.0085885847616197
 50
257.024948285579228
 51
276.4606395412957909
  0
ARC
  5
143AE
  8
0
 10
3714.8207865104059238
 20
164.7451493767269994
 30
0.0
 40
0.0060787326295796
 50
248.0581534990288048
 51
277.0819162129718052
  0
LINE
  5
143AF
  8
0
 10
3714.8185150987301313
 20
164.7395109656580132
 30
0.0
 11
3714.796789518029982
 21
164.7487413388579967
 31
0.0
  0
ARC
  5
143B0
  8
0
 10
3714.8097017314121331
 20
164.745233687672993
 30
0.0
 40
0.0133214971320116
 50
332.6672296267850015
 51
2.853840582330009
  0
LINE
  5
143B1
  8
0
 10
3714.8230067071231133
 20
164.7458969426571969
 30
0.0
 11
3714.8230067071299345
 21
164.7646062781473972
 31
0.0
  0
LINE
  5
143B2
  8
0
 10
3714.8504514677310908
 20
164.7613101378929059
 30
0.0
 11
3714.8504514677310908
 21
164.749004829857995
 31
0.0
  0
ARC
  5
143B3
  8
0
 10
3714.85763122508979
 20
164.7492994052840913
 30
0.0
 40
0.0071857978285074
 50
182.3494481645940084
 51
243.8977657986148984
  0
LINE
  5
143B4
  8
0
 10
3714.8187777691200608
 20
164.7300361741625068
 30
0.0
 11
3714.8382912964298157
 21
164.7217893046579889
 31
0.0
  0
LINE
  5
143B5
  8
0
 10
3714.8382912964298157
 20
164.7217893046579889
 30
0.0
 11
3714.8657360570300625
 21
164.7248971917580036
 31
0.0
  0
LINE
  5
143B6
  8
0
 10
3714.8657360570300625
 20
164.7248971917580036
 30
0.0
 11
3714.8718890971149449
 21
164.7346020822336072
 31
0.0
  0
LINE
  5
143B7
  8
0
 10
3714.8814735707060208
 20
164.7324926555197067
 30
0.0
 11
3714.8745535240300342
 21
164.7215780029580117
 31
0.0
  0
ARC
  5
143B8
  8
0
 10
3714.869369847625876
 20
164.7248645283389976
 30
0.0
 40
0.006137731677458
 50
273.5907386522050047
 51
327.6247149670783188
  0
LINE
  5
143B9
  8
0
 10
3714.8697542488312138
 20
164.7187388458580131
 30
0.0
 11
3714.8691169710300528
 21
164.7181740786579951
 31
0.0
  0
LINE
  5
143BA
  8
0
 10
3714.8691169710300528
 20
164.7181740786579951
 30
0.0
 11
3714.8397152962670589
 21
164.7148446396147961
 31
0.0
  0
ARC
  5
143BB
  8
0
 10
3714.8387489032688791
 20
164.7233786816103134
 30
0.0
 40
0.0085885847616197
 50
257.024948285579228
 51
276.4606395412957909
  0
ARC
  5
143BC
  8
0
 10
3714.836071099705805
 20
164.721041738627008
 30
0.0
 40
0.0060787326295796
 50
248.0581534990288048
 51
277.0819162129718052
  0
LINE
  5
143BD
  8
0
 10
3714.8337996880300125
 20
164.7154033275579934
 30
0.0
 11
3714.8120741073307727
 21
164.7246337007580053
 31
0.0
  0
ARC
  5
143BE
  8
0
 10
3714.8249863207120143
 20
164.7211260495730016
 30
0.0
 40
0.0133214971320116
 50
332.6672296267850015
 51
2.853840582330009
  0
LINE
  5
143BF
  8
0
 10
3714.8382912964229945
 20
164.7217893045572055
 30
0.0
 11
3714.8382912964298157
 21
164.7405218477510118
 31
0.0
  0
LINE
  5
143C0
  8
0
 10
3714.8657360570300625
 20
164.7372024997928861
 30
0.0
 11
3714.8657360570300625
 21
164.7248971917580036
 31
0.0
  0
ARC
  5
143C1
  8
0
 10
3714.8729158143901259
 20
164.7251917671840999
 30
0.0
 40
0.0071857978285074
 50
182.3494481645940084
 51
243.8977657986148984
  0
LINE
  5
143C2
  8
0
 10
3714.834062358419942
 20
164.7059285360124079
 30
0.0
 11
3714.8535758857301516
 21
164.6976816665080037
 31
0.0
  0
LINE
  5
143C3
  8
0
 10
3714.8535758857301516
 20
164.6976816665080037
 30
0.0
 11
3714.8810206463299437
 21
164.70078955360799
 31
0.0
  0
LINE
  5
143C4
  8
0
 10
3714.8810206463299437
 20
164.70078955360799
 30
0.0
 11
3714.8871736864148261
 21
164.7104944440835936
 31
0.0
  0
LINE
  5
143C5
  8
0
 10
3714.896758160005902
 20
164.7083850173696931
 30
0.0
 11
3714.8898381133308249
 21
164.6974703648079981
 31
0.0
  0
ARC
  5
143C6
  8
0
 10
3714.8846544369262119
 20
164.7007568901890977
 30
0.0
 40
0.006137731677458
 50
273.5907386522050047
 51
327.6247149670783188
  0
LINE
  5
143C7
  8
0
 10
3714.885038838131095
 20
164.6946312077079995
 30
0.0
 11
3714.884401560329934
 21
164.6940664405080099
 31
0.0
  0
LINE
  5
143C8
  8
0
 10
3714.884401560329934
 20
164.6940664405080099
 30
0.0
 11
3714.8549998855669401
 21
164.6907370014648109
 31
0.0
  0
ARC
  5
143C9
  8
0
 10
3714.854033492569215
 20
164.6992710434602998
 30
0.0
 40
0.0085885847616197
 50
257.024948285579228
 51
276.4606395412957909
  0
ARC
  5
143CA
  8
0
 10
3714.8513556890061409
 20
164.6969341004769944
 30
0.0
 40
0.0060787326295796
 50
248.0581534990288048
 51
277.0819162129718052
  0
LINE
  5
143CB
  8
0
 10
3714.8490842773308032
 20
164.6912956894080082
 30
0.0
 11
3714.8273586966311086
 21
164.7005260626079917
 31
0.0
  0
ARC
  5
143CC
  8
0
 10
3714.8402709100118955
 20
164.697018411422988
 30
0.0
 40
0.0133214971320116
 50
332.6672296267850015
 51
2.853840582330009
  0
LINE
  5
143CD
  8
0
 10
3714.8535758857228757
 20
164.6976816664071919
 30
0.0
 11
3714.8535758857301516
 21
164.716414209650992
 31
0.0
  0
LINE
  5
143CE
  8
0
 10
3714.8810206463299437
 20
164.7130948616429009
 30
0.0
 11
3714.8810206463299437
 21
164.70078955360799
 31
0.0
  0
ARC
  5
143CF
  8
0
 10
3714.8882004036909166
 20
164.7010841290340863
 30
0.0
 40
0.0071857978285074
 50
182.3494481645940084
 51
243.8977657986148984
  0
LINE
  5
143D0
  8
0
 10
3714.8493469476197788
 20
164.6818208979125018
 30
0.0
 11
3714.8688604749299884
 21
164.6735740284080123
 31
0.0
  0
LINE
  5
143D1
  8
0
 10
3714.8688604749299884
 20
164.6735740284080123
 30
0.0
 11
3714.8963052355311447
 21
164.6766819155079986
 31
0.0
  0
LINE
  5
143D2
  8
0
 10
3714.8963052355311447
 20
164.6766819155079986
 30
0.0
 11
3714.9024582756151176
 21
164.6863868059836022
 31
0.0
  0
LINE
  5
143D3
  8
0
 10
3714.9120427492061935
 20
164.6842773792697017
 30
0.0
 11
3714.9051227025311164
 21
164.6733627267080067
 31
0.0
  0
ARC
  5
143D4
  8
0
 10
3714.8999390261260487
 20
164.6766492520891063
 30
0.0
 40
0.006137731677458
 50
273.5907386522050047
 51
327.6247149670783188
  0
LINE
  5
143D5
  8
0
 10
3714.9003234273300222
 20
164.6705235696080081
 30
0.0
 11
3714.899686149531135
 21
164.6699588024079901
 31
0.0
  0
LINE
  5
143D6
  8
0
 10
3714.899686149531135
 20
164.6699588024079901
 30
0.0
 11
3714.8702844747667768
 21
164.6666293633647911
 31
0.0
  0
ARC
  5
143D7
  8
0
 10
3714.8693180817681423
 20
164.6751634053603084
 30
0.0
 40
0.0085885847616197
 50
257.024948285579228
 51
276.4606395412957909
  0
ARC
  5
143D8
  8
0
 10
3714.8666402782059777
 20
164.6728264623770031
 30
0.0
 40
0.0060787326295796
 50
248.0581534990288048
 51
277.0819162129718052
  0
LINE
  5
143D9
  8
0
 10
3714.8643688665310947
 20
164.6671880513079884
 30
0.0
 11
3714.8426432858300359
 21
164.6764184245080003
 31
0.0
  0
ARC
  5
143DA
  8
0
 10
3714.855555499212187
 20
164.6729107733229966
 30
0.0
 40
0.0133214971320116
 50
332.6672296267850015
 51
2.853840582330009
  0
LINE
  5
143DB
  8
0
 10
3714.868860474921803
 20
164.6735740283070868
 30
0.0
 11
3714.8688604749299884
 21
164.692306571489695
 31
0.0
  0
LINE
  5
143DC
  8
0
 10
3714.8963052355311447
 20
164.6889872235429095
 30
0.0
 11
3714.8963052355311447
 21
164.6766819155079986
 31
0.0
  0
ARC
  5
143DD
  8
0
 10
3714.9034849928898439
 20
164.676976490934095
 30
0.0
 40
0.0071857978285074
 50
182.3494481645940084
 51
243.8977657986148984
  0
LINE
  5
143DE
  8
0
 10
3714.7005965482189822
 20
164.8329263487624132
 30
0.0
 11
3714.7201100755310108
 21
164.824679479258009
 31
0.0
  0
LINE
  5
143DF
  8
0
 10
3714.7201100755310108
 20
164.824679479258009
 30
0.0
 11
3714.7475548361308029
 21
164.8277873663579953
 31
0.0
  0
LINE
  5
143E0
  8
0
 10
3714.7475548361308029
 20
164.8277873663579953
 30
0.0
 11
3714.7537078762147758
 21
164.837492256833599
 31
0.0
  0
LINE
  5
143E1
  8
0
 10
3714.7632923498058517
 20
164.8353828301196984
 30
0.0
 11
3714.756372303129865
 21
164.8244681775580034
 31
0.0
  0
ARC
  5
143E2
  8
0
 10
3714.7511886267261616
 20
164.827754702939103
 30
0.0
 40
0.006137731677458
 50
273.5907386522050047
 51
327.6247149670783188
  0
LINE
  5
143E3
  8
0
 10
3714.7515730279310446
 20
164.8216290204580048
 30
0.0
 11
3714.7509357501307932
 21
164.8210642532579868
 31
0.0
  0
LINE
  5
143E4
  8
0
 10
3714.7509357501307932
 20
164.8210642532579868
 30
0.0
 11
3714.7215340753659802
 21
164.8177348142147878
 31
0.0
  0
ARC
  5
143E5
  8
0
 10
3714.7205676823678004
 20
164.8262688562103051
 30
0.0
 40
0.0085885847616197
 50
257.024948285579228
 51
276.4606395412957909
  0
ARC
  5
143E6
  8
0
 10
3714.7178898788060906
 20
164.8239319132269998
 30
0.0
 40
0.0060787326295796
 50
248.0581534990288048
 51
277.0819162129718052
  0
LINE
  5
143E7
  8
0
 10
3714.7156184671298433
 20
164.8182935021580136
 30
0.0
 11
3714.6938928864301488
 21
164.827523875357997
 31
0.0
  0
ARC
  5
143E8
  8
0
 10
3714.7068050998118451
 20
164.8240162241729934
 30
0.0
 40
0.0133214971320116
 50
332.6672296267850015
 51
2.853840582330009
  0
LINE
  5
143E9
  8
0
 10
3714.7201100755241896
 20
164.8246794791571972
 30
0.0
 11
3714.7201100755310108
 21
164.8434120468781998
 31
0.0
  0
LINE
  5
143EA
  8
0
 10
3714.7475548361308029
 20
164.8400926743929062
 30
0.0
 11
3714.7475548361308029
 21
164.8277873663579953
 31
0.0
  0
ARC
  5
143EB
  8
0
 10
3714.7547345934908662
 20
164.8280819417840917
 30
0.0
 40
0.0071857978285074
 50
182.3494481645940084
 51
243.8977657986148984
  0
LINE
  5
143EC
  8
0
 10
3714.7158811375197729
 20
164.8088187106625071
 30
0.0
 11
3714.7353946648299825
 21
164.8005718411579892
 31
0.0
  0
LINE
  5
143ED
  8
0
 10
3714.7353946648299825
 20
164.8005718411579892
 30
0.0
 11
3714.7628394254311388
 21
164.8036797282580039
 31
0.0
  0
LINE
  5
143EE
  8
0
 10
3714.7628394254311388
 20
164.8036797282580039
 30
0.0
 11
3714.7689924655151117
 21
164.8133846187336076
 31
0.0
  0
LINE
  5
143EF
  8
0
 10
3714.7785769391061876
 20
164.811275192019707
 30
0.0
 11
3714.771656892430201
 21
164.800360539458012
 31
0.0
  0
ARC
  5
143F0
  8
0
 10
3714.7664732160260428
 20
164.8036470648389979
 30
0.0
 40
0.006137731677458
 50
273.5907386522050047
 51
327.6247149670783188
  0
LINE
  5
143F1
  8
0
 10
3714.7668576172300163
 20
164.7975213823580134
 30
0.0
 11
3714.7662203394311291
 21
164.7969566151579954
 31
0.0
  0
LINE
  5
143F2
  8
0
 10
3714.7662203394311291
 20
164.7969566151579954
 30
0.0
 11
3714.7368186646672257
 21
164.7936271761147964
 31
0.0
  0
ARC
  5
143F3
  8
0
 10
3714.7358522716681364
 20
164.8021612181103137
 30
0.0
 40
0.0085885847616197
 50
257.024948285579228
 51
276.4606395412957909
  0
ARC
  5
143F4
  8
0
 10
3714.7331744681059718
 20
164.7998242751270084
 30
0.0
 40
0.0060787326295796
 50
248.0581534990288048
 51
277.0819162129718052
  0
LINE
  5
143F5
  8
0
 10
3714.7309030564301793
 20
164.7941858640579937
 30
0.0
 11
3714.70917747573003
 21
164.8034162372580056
 31
0.0
  0
ARC
  5
143F6
  8
0
 10
3714.7220896891121811
 20
164.799908586073002
 30
0.0
 40
0.0133214971320116
 50
332.6672296267850015
 51
2.853840582330009
  0
LINE
  5
143F7
  8
0
 10
3714.7353946648231613
 20
164.8005718410572058
 30
0.0
 11
3714.7353946648299825
 21
164.8193043842510122
 31
0.0
  0
LINE
  5
143F8
  8
0
 10
3714.7628394254311388
 20
164.8159850362928864
 30
0.0
 11
3714.7628394254311388
 21
164.8036797282580039
 31
0.0
  0
ARC
  5
143F9
  8
0
 10
3714.7700191827898379
 20
164.8039743036841003
 30
0.0
 40
0.0071857978285074
 50
182.3494481645940084
 51
243.8977657986148984
  0
LINE
  5
143FA
  8
0
 10
3714.7311657268201088
 20
164.7847110725124082
 30
0.0
 11
3714.7506792541307732
 21
164.776464203008004
 31
0.0
  0
LINE
  5
143FB
  8
0
 10
3714.7506792541307732
 20
164.776464203008004
 30
0.0
 11
3714.7781240147301105
 21
164.7795720901079903
 31
0.0
  0
LINE
  5
143FC
  8
0
 10
3714.7781240147301105
 20
164.7795720901079903
 30
0.0
 11
3714.7842770548140834
 21
164.789276980583594
 31
0.0
  0
LINE
  5
143FD
  8
0
 10
3714.7938615284060688
 20
164.7871675538696934
 30
0.0
 11
3714.7869414817300822
 21
164.7762529013079984
 31
0.0
  0
ARC
  5
143FE
  8
0
 10
3714.781757805325924
 20
164.779539426689098
 30
0.0
 40
0.006137731677458
 50
273.5907386522050047
 51
327.6247149670783188
  0
LINE
  5
143FF
  8
0
 10
3714.782142206530807
 20
164.7734137442079998
 30
0.0
 11
3714.7815049287301008
 21
164.7728489770080103
 31
0.0
  0
LINE
  5
14400
  8
0
 10
3714.7815049287301008
 20
164.7728489770080103
 30
0.0
 11
3714.7521032539661974
 21
164.7695195379648112
 31
0.0
  0
ARC
  5
14401
  8
0
 10
3714.7511368609680176
 20
164.7780535799603001
 30
0.0
 40
0.0085885847616197
 50
257.024948285579228
 51
276.4606395412957909
  0
ARC
  5
14402
  8
0
 10
3714.7484590574058529
 20
164.7757166369769948
 30
0.0
 40
0.0060787326295796
 50
248.0581534990288048
 51
277.0819162129718052
  0
LINE
  5
14403
  8
0
 10
3714.7461876457300605
 20
164.7700782259080086
 30
0.0
 11
3714.7244620650308207
 21
164.779308599107992
 31
0.0
  0
ARC
  5
14404
  8
0
 10
3714.7373742784120623
 20
164.7758009479229884
 30
0.0
 40
0.0133214971320116
 50
332.6672296267850015
 51
2.853840582330009
  0
LINE
  5
14405
  8
0
 10
3714.7506792541230425
 20
164.7764642029071922
 30
0.0
 11
3714.7506792541307732
 21
164.7951967461509923
 31
0.0
  0
LINE
  5
14406
  8
0
 10
3714.7781240147301105
 20
164.7918773981429013
 30
0.0
 11
3714.7781240147301105
 21
164.7795720901079903
 31
0.0
  0
ARC
  5
14407
  8
0
 10
3714.7853037720901739
 20
164.7798666655340867
 30
0.0
 40
0.0071857978285074
 50
182.3494481645940084
 51
243.8977657986148984
  0
LINE
  5
14408
  8
0
 10
3714.7464503160699678
 20
164.7606034344125021
 30
0.0
 11
3714.7659638433801774
 21
164.7523565649080126
 31
0.0
  0
LINE
  5
14409
  8
0
 10
3714.7659638433801774
 20
164.7523565649080126
 30
0.0
 11
3714.793408603980879
 21
164.7554644520079989
 31
0.0
  0
LINE
  5
1440A
  8
0
 10
3714.793408603980879
 20
164.7554644520079989
 30
0.0
 11
3714.7995616440648519
 21
164.7651693424836026
 31
0.0
  0
LINE
  5
1440B
  8
0
 10
3714.8091461176559278
 20
164.763059915769702
 30
0.0
 11
3714.8022260709799411
 21
164.752145263208007
 31
0.0
  0
ARC
  5
1440C
  8
0
 10
3714.797042394575783
 20
164.7554317885891066
 30
0.0
 40
0.006137731677458
 50
273.5907386522050047
 51
327.6247149670783188
  0
LINE
  5
1440D
  8
0
 10
3714.7974267957802113
 20
164.7493061061080084
 30
0.0
 11
3714.7967895179799598
 21
164.7487413389079904
 31
0.0
  0
LINE
  5
1440E
  8
0
 10
3714.7967895179799598
 20
164.7487413389079904
 30
0.0
 11
3714.7673878432160564
 21
164.7454118998647914
 31
0.0
  0
ARC
  5
1440F
  8
0
 10
3714.766421450218786
 20
164.7539459418603087
 30
0.0
 40
0.0085885847616197
 50
257.024948285579228
 51
276.4606395412957909
  0
ARC
  5
14410
  8
0
 10
3714.7637436466561667
 20
164.7516089988770034
 30
0.0
 40
0.0060787326295796
 50
248.0581534990288048
 51
277.0819162129718052
  0
LINE
  5
14411
  8
0
 10
3714.7614722349808289
 20
164.7459705878079887
 30
0.0
 11
3714.7397466542811344
 21
164.7552009610080006
 31
0.0
  0
ARC
  5
14412
  8
0
 10
3714.7526588676619212
 20
164.751693309822997
 30
0.0
 40
0.0133214971320116
 50
332.6672296267850015
 51
2.853840582330009
  0
LINE
  5
14413
  8
0
 10
3714.7659638433729015
 20
164.7523565648072008
 30
0.0
 11
3714.7659638433801774
 21
164.7710659002974012
 31
0.0
  0
LINE
  5
14414
  8
0
 10
3714.793408603980879
 20
164.7677697600429099
 30
0.0
 11
3714.793408603980879
 21
164.7554644520079989
 31
0.0
  0
ARC
  5
14415
  8
0
 10
3714.8005883613409424
 20
164.7557590274340953
 30
0.0
 40
0.0071857978285074
 50
182.3494481645940084
 51
243.8977657986148984
  0
LINE
  5
14416
  8
0
 10
3714.7617349053198268
 20
164.736495796312397
 30
0.0
 11
3714.7812484326300364
 21
164.7282489268079928
 31
0.0
  0
LINE
  5
14417
  8
0
 10
3714.7812484326300364
 20
164.7282489268079928
 30
0.0
 11
3714.8086931932298285
 21
164.7313568139080076
 31
0.0
  0
LINE
  5
14418
  8
0
 10
3714.8086931932298285
 20
164.7313568139080076
 30
0.0
 11
3714.8148462333151656
 21
164.7410617043836965
 31
0.0
  0
LINE
  5
14419
  8
0
 10
3714.8244307069057868
 20
164.7389522776697106
 30
0.0
 11
3714.8175106602311644
 21
164.7280376251079872
 31
0.0
  0
ARC
  5
1441A
  8
0
 10
3714.8123269838260967
 20
164.7313241504890016
 30
0.0
 40
0.006137731677458
 50
273.5907386522050047
 51
327.6247149670783188
  0
LINE
  5
1441B
  8
0
 10
3714.8127113850300702
 20
164.7251984680079886
 30
0.0
 11
3714.812074107231183
 21
164.724633700807999
 31
0.0
  0
LINE
  5
1441C
  8
0
 10
3714.812074107231183
 20
164.724633700807999
 30
0.0
 11
3714.7826724324668248
 21
164.7213042617648
 31
0.0
  0
ARC
  5
1441D
  8
0
 10
3714.7817060394681903
 20
164.7298383037604026
 30
0.0
 40
0.0085885847616197
 50
257.024948285579228
 51
276.4606395412957909
  0
ARC
  5
1441E
  8
0
 10
3714.7790282359060257
 20
164.727501360777012
 30
0.0
 40
0.0060787326295796
 50
248.0581534990288048
 51
277.0819162129718052
  0
LINE
  5
1441F
  8
0
 10
3714.7767568242297784
 20
164.7218629497079974
 30
0.0
 11
3714.7550312435300839
 21
164.7310933229080092
 31
0.0
  0
ARC
  5
14420
  8
0
 10
3714.7679434569117802
 20
164.7275856717230056
 30
0.0
 40
0.0133214971320116
 50
332.6672296267850015
 51
2.853840582330009
  0
LINE
  5
14421
  8
0
 10
3714.7812484326232152
 20
164.7282489267072094
 30
0.0
 11
3714.7812484326300364
 21
164.746981469895303
 31
0.0
  0
LINE
  5
14422
  8
0
 10
3714.8086931932298285
 20
164.7436621219428901
 30
0.0
 11
3714.8086931932298285
 21
164.7313568139080076
 31
0.0
  0
ARC
  5
14423
  8
0
 10
3714.8158729505898918
 20
164.7316513893341039
 30
0.0
 40
0.0071857978285074
 50
182.3494481645940084
 51
243.8977657986148984
  0
LINE
  5
14424
  8
0
 10
3714.7770194946201627
 20
164.7123881581624119
 30
0.0
 11
3714.7965330219308271
 21
164.7041412886580076
 31
0.0
  0
LINE
  5
14425
  8
0
 10
3714.7965330219308271
 20
164.7041412886580076
 30
0.0
 11
3714.8239777825301644
 21
164.707249175757994
 31
0.0
  0
LINE
  5
14426
  8
0
 10
3714.8239777825301644
 20
164.707249175757994
 30
0.0
 11
3714.8301308226150468
 21
164.7169540662335976
 31
0.0
  0
LINE
  5
14427
  8
0
 10
3714.8397152962061227
 20
164.714844639519697
 30
0.0
 11
3714.8327952495301361
 21
164.703929986958002
 31
0.0
  0
ARC
  5
14428
  8
0
 10
3714.8276115731259779
 20
164.7072165123391017
 30
0.0
 40
0.006137731677458
 50
273.5907386522050047
 51
327.6247149670783188
  0
LINE
  5
14429
  8
0
 10
3714.8279959743299514
 20
164.7010908298580034
 30
0.0
 11
3714.8273586965301547
 21
164.7005260626580139
 31
0.0
  0
LINE
  5
1442A
  8
0
 10
3714.8273586965301547
 20
164.7005260626580139
 30
0.0
 11
3714.7979570217671608
 21
164.6971966236147864
 31
0.0
  0
ARC
  5
1442B
  8
0
 10
3714.796990628768981
 20
164.7057306656103037
 30
0.0
 40
0.0085885847616197
 50
257.024948285579228
 51
276.4606395412957909
  0
ARC
  5
1442C
  8
0
 10
3714.7943128252049974
 20
164.7033937226269984
 30
0.0
 40
0.0060787326295796
 50
248.0581534990288048
 51
277.0819162129718052
  0
LINE
  5
1442D
  8
0
 10
3714.7920414135301144
 20
164.6977553115580122
 30
0.0
 11
3714.7703158328299651
 21
164.7069856847579956
 31
0.0
  0
ARC
  5
1442E
  8
0
 10
3714.7832280462121162
 20
164.703478033572992
 30
0.0
 40
0.0133214971320116
 50
332.6672296267850015
 51
2.853840582330009
  0
LINE
  5
1442F
  8
0
 10
3714.7965330219230964
 20
164.7041412885571958
 30
0.0
 11
3714.7965330219308271
 21
164.7228506240473962
 31
0.0
  0
LINE
  5
14430
  8
0
 10
3714.8239777825301644
 20
164.7195544837929049
 30
0.0
 11
3714.8239777825301644
 21
164.707249175757994
 31
0.0
  0
ARC
  5
14431
  8
0
 10
3714.831157539889773
 20
164.7075437511840903
 30
0.0
 40
0.0071857978285074
 50
182.3494481645940084
 51
243.8977657986148984
  0
LINE
  5
14432
  8
0
 10
3714.7923040839200439
 20
164.6882805200625057
 30
0.0
 11
3714.811817611231163
 21
164.6800336505579878
 31
0.0
  0
LINE
  5
14433
  8
0
 10
3714.811817611231163
 20
164.6800336505579878
 30
0.0
 11
3714.8392623718300456
 21
164.6831415376580026
 31
0.0
  0
LINE
  5
14434
  8
0
 10
3714.8392623718300456
 20
164.6831415376580026
 30
0.0
 11
3714.845415411914928
 21
164.6928464281336062
 31
0.0
  0
LINE
  5
14435
  8
0
 10
3714.8549998855060039
 20
164.6907370014197056
 30
0.0
 11
3714.8480798388300173
 21
164.6798223488580106
 31
0.0
  0
ARC
  5
14436
  8
0
 10
3714.8428961624258591
 20
164.6831088742389966
 30
0.0
 40
0.006137731677458
 50
273.5907386522050047
 51
327.6247149670783188
  0
LINE
  5
14437
  8
0
 10
3714.8432805636311969
 20
164.676983191758012
 30
0.0
 11
3714.8426432858300359
 21
164.6764184245579941
 31
0.0
  0
LINE
  5
14438
  8
0
 10
3714.8426432858300359
 20
164.6764184245579941
 30
0.0
 11
3714.813241611067042
 21
164.673088985514795
 31
0.0
  0
ARC
  5
14439
  8
0
 10
3714.8122752180688622
 20
164.6816230275103123
 30
0.0
 40
0.0085885847616197
 50
257.024948285579228
 51
276.4606395412957909
  0
ARC
  5
1443A
  8
0
 10
3714.809597414505788
 20
164.679286084527007
 30
0.0
 40
0.0060787326295796
 50
248.0581534990288048
 51
277.0819162129718052
  0
LINE
  5
1443B
  8
0
 10
3714.8073260028299956
 20
164.6736476734579924
 30
0.0
 11
3714.7856004221312105
 21
164.6828780466580042
 31
0.0
  0
ARC
  5
1443C
  8
0
 10
3714.7985126355129069
 20
164.6793703954730006
 30
0.0
 40
0.0133214971320116
 50
332.6672296267850015
 51
2.853840582330009
  0
LINE
  5
1443D
  8
0
 10
3714.8118176112229776
 20
164.6800336504572044
 30
0.0
 11
3714.811817611231163
 21
164.6987429859474048
 31
0.0
  0
LINE
  5
1443E
  8
0
 10
3714.8392623718300456
 20
164.6954468456929135
 30
0.0
 11
3714.8392623718300456
 21
164.6831415376580026
 31
0.0
  0
ARC
  5
1443F
  8
0
 10
3714.8464421291910185
 20
164.6834361130840989
 30
0.0
 40
0.0071857978285074
 50
182.3494481645940084
 51
243.8977657986148984
  0
LINE
  5
14440
  8
0
 10
3714.8885671733310119
 20
164.888326877908014
 30
0.0
 11
3714.8816471265299697
 21
164.8774122253080066
 31
0.0
  0
ARC
  5
14441
  8
0
 10
3714.8764634502731496
 20
164.8806987506436883
 30
0.0
 40
0.0061377315294667
 50
273.5907383043116852
 51
327.6247145926457165
  0
ARC
  5
14442
  8
0
 10
3714.8800094003240702
 20
164.8810259787591974
 30
0.0
 40
0.0071857807296463
 50
182.3493669743104135
 51
243.897846988886414
  0
LINE
  5
14443
  8
0
 10
3714.8728296596300424
 20
164.8807314142079861
 30
0.0
 11
3714.8728296595331813
 21
164.8926856267380003
 31
0.0
  0
LINE
  5
14444
  8
0
 10
3714.872829659529998
 20
164.8807314166454034
 30
0.0
 11
3714.8789826997299315
 21
164.8904363047080039
 31
0.0
  0
LINE
  5
14445
  8
0
 10
3714.8768478514311937
 20
164.8745730683079955
 30
0.0
 11
3714.87620843393006
 21
164.8740081108080062
 31
0.0
  0
LINE
  5
14446
  8
0
 10
3714.8829142354197757
 20
164.8794107744124062
 30
0.0
 11
3714.9024277627299853
 21
164.871163904908002
 31
0.0
  0
LINE
  5
14447
  8
0
 10
3714.9024277627299853
 20
164.871163904908002
 30
0.0
 11
3714.9298725233297773
 21
164.8742717920079883
 31
0.0
  0
LINE
  5
14448
  8
0
 10
3714.9332534373302224
 20
164.8675486789080082
 30
0.0
 11
3714.9038517625658642
 21
164.8642192398648092
 31
0.0
  0
ARC
  5
14449
  8
0
 10
3714.9028853695681391
 20
164.8727532818602981
 30
0.0
 40
0.0085885847616197
 50
257.024948285579228
 51
276.4606395412957909
  0
ARC
  5
1444A
  8
0
 10
3714.9002075660059745
 20
164.8704163388769928
 30
0.0
 40
0.0060787326295796
 50
248.0581534990288048
 51
277.0819162129718052
  0
LINE
  5
1444B
  8
0
 10
3714.8979361543310915
 20
164.8647779278080066
 30
0.0
 11
3714.8762105736300327
 21
164.87400830100799
 31
0.0
  0
ARC
  5
1444C
  8
0
 10
3714.8891227870121838
 20
164.8705006498229864
 30
0.0
 40
0.0133214971320116
 50
332.6672296267850015
 51
2.853840582330009
  0
LINE
  5
1444D
  8
0
 10
3714.9024277627231641
 20
164.8711639048071902
 30
0.0
 11
3714.9024277627299853
 21
164.8898732402973906
 31
0.0
  0
LINE
  5
1444E
  8
0
 10
3714.9038517626299836
 20
164.8642192397580004
 30
0.0
 11
3714.8969317158312151
 21
164.853304587157993
 31
0.0
  0
ARC
  5
1444F
  8
0
 10
3714.8917480395730308
 20
164.8565911124937031
 30
0.0
 40
0.0061377315294667
 50
273.5907383043116852
 51
327.6247145926457165
  0
ARC
  5
14450
  8
0
 10
3714.8952939896239513
 20
164.8569183406092122
 30
0.0
 40
0.0071857807296463
 50
182.3493669743104135
 51
243.897846988886414
  0
LINE
  5
14451
  8
0
 10
3714.8881142489299236
 20
164.8566237760580009
 30
0.0
 11
3714.8881142488307887
 21
164.8689290841579975
 31
0.0
  0
LINE
  5
14452
  8
0
 10
3714.8881142488307887
 20
164.8566237784953898
 30
0.0
 11
3714.8942672890311769
 21
164.8663286665579903
 31
0.0
  0
LINE
  5
14453
  8
0
 10
3714.8921324407310749
 20
164.8504654301580103
 30
0.0
 11
3714.8914930232299412
 21
164.8499004726579926
 31
0.0
  0
LINE
  5
14454
  8
0
 10
3714.8981988247201116
 20
164.8553031362625063
 30
0.0
 11
3714.9177123520298665
 21
164.8470562667579884
 31
0.0
  0
LINE
  5
14455
  8
0
 10
3714.9177123520298665
 20
164.8470562667579884
 30
0.0
 11
3714.9451571126301133
 21
164.8501641538580031
 31
0.0
  0
LINE
  5
14456
  8
0
 10
3714.9485380266301036
 20
164.8434410407579946
 30
0.0
 11
3714.9191363518662001
 21
164.8401116017147956
 31
0.0
  0
ARC
  5
14457
  8
0
 10
3714.9181699588689298
 20
164.8486456437103982
 30
0.0
 40
0.0085885847616197
 50
257.024948285579228
 51
276.4606395412957909
  0
ARC
  5
14458
  8
0
 10
3714.9154921553058557
 20
164.8463087007270076
 30
0.0
 40
0.0060787326295796
 50
248.0581534990288048
 51
277.0819162129718052
  0
LINE
  5
14459
  8
0
 10
3714.9132207436309727
 20
164.840670289657993
 30
0.0
 11
3714.8914951629299139
 21
164.8499006628580048
 31
0.0
  0
ARC
  5
1445A
  8
0
 10
3714.904407376312065
 20
164.8463930116730012
 30
0.0
 40
0.0133214971320116
 50
332.6672296267850015
 51
2.853840582330009
  0
LINE
  5
1445B
  8
0
 10
3714.9177123520221357
 20
164.847056266657205
 30
0.0
 11
3714.9177123520298665
 21
164.8657888099010052
 31
0.0
  0
LINE
  5
1445C
  8
0
 10
3714.9191363519307743
 20
164.840111601658009
 30
0.0
 11
3714.9122163051301868
 21
164.8291969490580016
 31
0.0
  0
ARC
  5
1445D
  8
0
 10
3714.9070326288720025
 20
164.832483474393598
 30
0.0
 40
0.0061377315294667
 50
273.5907383043116852
 51
327.6247145926457165
  0
ARC
  5
1445E
  8
0
 10
3714.910578578922923
 20
164.8328107025091924
 30
0.0
 40
0.0071857807296463
 50
182.3493669743104135
 51
243.897846988886414
  0
LINE
  5
1445F
  8
0
 10
3714.9033988382311691
 20
164.8325161379580095
 30
0.0
 11
3714.9033988381311246
 21
164.8448214460580061
 31
0.0
  0
LINE
  5
14460
  8
0
 10
3714.9033988381311246
 20
164.8325161403953985
 30
0.0
 11
3714.9095518783310581
 21
164.842221028457999
 31
0.0
  0
LINE
  5
14461
  8
0
 10
3714.9074170300300466
 20
164.8263577920579905
 30
0.0
 11
3714.9067776125311866
 21
164.8257928345580012
 31
0.0
  0
LINE
  5
14462
  8
0
 10
3714.9134834140199928
 20
164.8311954981624012
 30
0.0
 11
3714.9329969413302024
 21
164.822948628657997
 31
0.0
  0
LINE
  5
14463
  8
0
 10
3714.9329969413302024
 20
164.822948628657997
 30
0.0
 11
3714.9604417019299945
 21
164.8260565157580118
 31
0.0
  0
LINE
  5
14464
  8
0
 10
3714.9638226159299847
 20
164.8193334026580033
 30
0.0
 11
3714.9344209411660813
 21
164.8160039636148042
 31
0.0
  0
ARC
  5
14465
  8
0
 10
3714.933454548168811
 20
164.8245380056102931
 30
0.0
 40
0.0085885847616197
 50
257.024948285579228
 51
276.4606395412957909
  0
ARC
  5
14466
  8
0
 10
3714.9307767446048274
 20
164.8222010626269878
 30
0.0
 40
0.0060787326295796
 50
248.0581534990288048
 51
277.0819162129718052
  0
LINE
  5
14467
  8
0
 10
3714.9285053329299444
 20
164.8165626515580016
 30
0.0
 11
3714.9067797522311594
 21
164.8257930247580134
 31
0.0
  0
ARC
  5
14468
  8
0
 10
3714.9196919656119462
 20
164.8222853735730098
 30
0.0
 40
0.0133214971320116
 50
332.6672296267850015
 51
2.853840582330009
  0
LINE
  5
14469
  8
0
 10
3714.9329969413229264
 20
164.8229486285572136
 30
0.0
 11
3714.9329969413302024
 21
164.841657964047414
 31
0.0
  0
LINE
  5
1446A
  8
0
 10
3714.9344209411301563
 20
164.8160039635579892
 30
0.0
 11
3714.9275008943300236
 21
164.8050893109580102
 31
0.0
  0
ARC
  5
1446B
  8
0
 10
3714.9223172180732035
 20
164.8083758362936919
 30
0.0
 40
0.0061377315294667
 50
273.5907383043116852
 51
327.6247145926457165
  0
ARC
  5
1446C
  8
0
 10
3714.9258631681241241
 20
164.808703064409201
 30
0.0
 40
0.0071857807296463
 50
182.3493669743104135
 51
243.897846988886414
  0
LINE
  5
1446D
  8
0
 10
3714.9186834274310058
 20
164.8084084998579897
 30
0.0
 11
3714.9186834273300519
 21
164.8207138079579863
 31
0.0
  0
LINE
  5
1446E
  8
0
 10
3714.9186834273300519
 20
164.8084085022954071
 30
0.0
 11
3714.9248364675299854
 21
164.8181133903580076
 31
0.0
  0
LINE
  5
1446F
  8
0
 10
3714.9227016192307929
 20
164.8022501539579991
 30
0.0
 11
3714.9220622017301139
 21
164.8016851964580098
 31
0.0
  0
LINE
  5
14470
  8
0
 10
3714.9287680032211938
 20
164.8070878600624098
 30
0.0
 11
3714.9482815305300392
 21
164.7988409905580056
 31
0.0
  0
LINE
  5
14471
  8
0
 10
3714.9482815305300392
 20
164.7988409905580056
 30
0.0
 11
3714.9757262911298312
 21
164.8019488776579919
 31
0.0
  0
LINE
  5
14472
  8
0
 10
3714.9791072051298215
 20
164.7952257645580119
 30
0.0
 11
3714.9497055303659181
 21
164.7918963255148128
 31
0.0
  0
ARC
  5
14473
  8
0
 10
3714.948739137368193
 20
164.8004303675103017
 30
0.0
 40
0.0085885847616197
 50
257.024948285579228
 51
276.4606395412957909
  0
ARC
  5
14474
  8
0
 10
3714.9460613338060284
 20
164.7980934245269964
 30
0.0
 40
0.0060787326295796
 50
248.0581534990288048
 51
277.0819162129718052
  0
LINE
  5
14475
  8
0
 10
3714.9437899221311454
 20
164.7924550134580102
 30
0.0
 11
3714.9220643414300866
 21
164.8016853866579936
 31
0.0
  0
ARC
  5
14476
  8
0
 10
3714.934976554811783
 20
164.79817773547299
 30
0.0
 40
0.0133214971320116
 50
332.6672296267850015
 51
2.853840582330009
  0
LINE
  5
14477
  8
0
 10
3714.948281530523218
 20
164.7988409904571938
 30
0.0
 11
3714.9482815305300392
 21
164.8175503259473942
 31
0.0
  0
LINE
  5
14478
  8
0
 10
3714.9649901197308282
 20
164.7677886873080126
 30
0.0
 11
3714.958070072929786
 21
164.7568740347080052
 31
0.0
  0
ARC
  5
14479
  8
0
 10
3714.9528863966729659
 20
164.7601605600436869
 30
0.0
 40
0.0061377315294667
 50
273.5907383043116852
 51
327.6247145926457165
  0
ARC
  5
1447A
  8
0
 10
3714.9564323467238864
 20
164.760487788159196
 30
0.0
 40
0.0071857807296463
 50
182.3493669743104135
 51
243.897846988886414
  0
LINE
  5
1447B
  8
0
 10
3714.949252606031223
 20
164.7601932236080131
 30
0.0
 11
3714.9492526059311786
 21
164.7724985317080098
 31
0.0
  0
LINE
  5
1447C
  8
0
 10
3714.9492526059311786
 20
164.7601932260454021
 30
0.0
 11
3714.955405646131112
 21
164.7698981141080026
 31
0.0
  0
LINE
  5
1447D
  8
0
 10
3714.9532707978301005
 20
164.7540348777079942
 30
0.0
 11
3714.9526313803307858
 21
164.7534699202080049
 31
0.0
  0
LINE
  5
1447E
  8
0
 10
3714.9593371818200467
 20
164.7588725838124049
 30
0.0
 11
3714.9788507091298015
 21
164.7506257143080006
 31
0.0
  0
LINE
  5
1447F
  8
0
 10
3714.9788507091298015
 20
164.7506257143080006
 30
0.0
 11
3715.0062954697309578
 21
164.753733601407987
 31
0.0
  0
LINE
  5
14480
  8
0
 10
3715.0096763837309481
 20
164.7470104883080069
 30
0.0
 11
3714.9802747089661352
 21
164.7436810492648078
 31
0.0
  0
ARC
  5
14481
  8
0
 10
3714.9793083159688649
 20
164.7522150912602967
 30
0.0
 40
0.0085885847616197
 50
257.024948285579228
 51
276.4606395412957909
  0
ARC
  5
14482
  8
0
 10
3714.9766305124048813
 20
164.7498781482769914
 30
0.0
 40
0.0060787326295796
 50
248.0581534990288048
 51
277.0819162129718052
  0
LINE
  5
14483
  8
0
 10
3714.9743591007299983
 20
164.7442397372080052
 30
0.0
 11
3714.9526335200312133
 21
164.7534701104079886
 31
0.0
  0
ARC
  5
14484
  8
0
 10
3714.9655457334120001
 20
164.7499624592230134
 30
0.0
 40
0.0133214971320116
 50
332.6672296267850015
 51
2.853840582330009
  0
LINE
  5
14485
  8
0
 10
3714.9788507091229803
 20
164.7506257142071888
 30
0.0
 11
3714.9788507091298015
 21
164.7693582573328968
 31
0.0
  0
LINE
  5
14486
  8
0
 10
3714.9802747090311641
 20
164.7436810492079928
 30
0.0
 11
3714.9733546622301219
 21
164.7327663966080138
 31
0.0
  0
ARC
  5
14487
  8
0
 10
3714.9681709859728471
 20
164.7360529219436955
 30
0.0
 40
0.0061377315294667
 50
273.5907383043116852
 51
327.6247145926457165
  0
ARC
  5
14488
  8
0
 10
3714.9717169360242224
 20
164.7363801500592047
 30
0.0
 40
0.0071857807296463
 50
182.3493669743104135
 51
243.897846988886414
  0
LINE
  5
14489
  8
0
 10
3714.9645371953311042
 20
164.7360855855079933
 30
0.0
 11
3714.9645371952310597
 21
164.7483908936079899
 31
0.0
  0
LINE
  5
1448A
  8
0
 10
3714.9645371952310597
 20
164.7360855879454107
 30
0.0
 11
3714.9706902354309932
 21
164.7457904760080112
 31
0.0
  0
LINE
  5
1448B
  8
0
 10
3714.9685553871299817
 20
164.7299272396080028
 30
0.0
 11
3714.9679159696302122
 21
164.7293622821080135
 31
0.0
  0
LINE
  5
1448C
  8
0
 10
3714.9746217711199279
 20
164.7347649457124135
 30
0.0
 11
3714.9941352984301375
 21
164.7265180762080092
 31
0.0
  0
LINE
  5
1448D
  8
0
 10
3714.9941352984301375
 20
164.7265180762080092
 30
0.0
 11
3715.0215800590299295
 21
164.7296259633079956
 31
0.0
  0
LINE
  5
1448E
  8
0
 10
3715.0249609730308293
 20
164.7229028502079871
 30
0.0
 11
3714.9955592982660164
 21
164.719573411164788
 31
0.0
  0
ARC
  5
1448F
  8
0
 10
3714.9945929052692009
 20
164.7281074531603053
 30
0.0
 40
0.0085885847616197
 50
257.024948285579228
 51
276.4606395412957909
  0
ARC
  5
14490
  8
0
 10
3714.9919151017061267
 20
164.725770510177
 30
0.0
 40
0.0060787326295796
 50
248.0581534990288048
 51
277.0819162129718052
  0
LINE
  5
14491
  8
0
 10
3714.989643690030789
 20
164.7201320991080138
 30
0.0
 11
3714.967918109330185
 21
164.7293624723079972
 31
0.0
  0
ARC
  5
14492
  8
0
 10
3714.9808303227118813
 20
164.7258548211229936
 30
0.0
 40
0.0133214971320116
 50
332.6672296267850015
 51
2.853840582330009
  0
LINE
  5
14493
  8
0
 10
3714.9941352984228615
 20
164.7265180761071974
 30
0.0
 11
3714.9941352984301375
 21
164.7452274115973978
 31
0.0
  0
LINE
  5
14494
  8
0
 10
3714.9955592982801136
 20
164.7195734111080014
 30
0.0
 11
3714.9886392514799809
 21
164.708658758507994
 31
0.0
  0
ARC
  5
14495
  8
0
 10
3714.9834555752217966
 20
164.7119452838437041
 30
0.0
 40
0.0061377315294667
 50
273.5907383043116852
 51
327.6247145926457165
  0
ARC
  5
14496
  8
0
 10
3714.9870015252731719
 20
164.7122725119592133
 30
0.0
 40
0.0071857807296463
 50
182.3493669743104135
 51
243.897846988886414
  0
LINE
  5
14497
  8
0
 10
3714.9798217845800536
 20
164.7119779474080019
 30
0.0
 11
3714.9798217844800092
 21
164.7242832555079985
 31
0.0
  0
LINE
  5
14498
  8
0
 10
3714.9798217844800092
 20
164.7119779498453909
 30
0.0
 11
3714.9859748246799427
 21
164.7216828379079914
 31
0.0
  0
LINE
  5
14499
  8
0
 10
3714.9838399763798407
 20
164.7058196015080114
 30
0.0
 11
3714.9832005588800712
 21
164.7052546440079936
 31
0.0
  0
LINE
  5
1449A
  8
0
 10
3714.9899063603697869
 20
164.7106573076125073
 30
0.0
 11
3715.0094198876799965
 21
164.7024104381079894
 31
0.0
  0
LINE
  5
1449B
  8
0
 10
3715.0094198876799965
 20
164.7024104381079894
 30
0.0
 11
3715.0368646482797885
 21
164.7055183252080042
 31
0.0
  0
LINE
  5
1449C
  8
0
 10
3715.0402455622797788
 20
164.6987952121079957
 30
0.0
 11
3715.0108438875167849
 21
164.6954657730647966
 31
0.0
  0
ARC
  5
1449D
  8
0
 10
3715.0098774945190598
 20
164.7039998150603139
 30
0.0
 40
0.0085885847616197
 50
257.024948285579228
 51
276.4606395412957909
  0
ARC
  5
1449E
  8
0
 10
3715.0071996909550762
 20
164.7016628720770086
 30
0.0
 40
0.0060787326295796
 50
248.0581534990288048
 51
277.0819162129718052
  0
LINE
  5
1449F
  8
0
 10
3715.0049282792801932
 20
164.696024461007994
 30
0.0
 11
3714.9832026985800439
 21
164.7052548342080058
 31
0.0
  0
ARC
  5
144A0
  8
0
 10
3714.9961149119631045
 20
164.7017471830230022
 30
0.0
 40
0.0133214971320116
 50
332.6672296267850015
 51
2.853840582330009
  0
LINE
  5
144A1
  8
0
 10
3715.0094198876731753
 20
164.7024104380070924
 30
0.0
 11
3715.0094198876799965
 21
164.7211429811952996
 31
0.0
  0
LINE
  5
144A2
  8
0
 10
3715.0108438875799948
 20
164.6954657729579878
 30
0.0
 11
3715.0039238407812263
 21
164.6845511203580088
 31
0.0
  0
ARC
  5
144A3
  8
0
 10
3714.9987401645221325
 20
164.6878376456936905
 30
0.0
 40
0.0061377315294667
 50
273.5907383043116852
 51
327.6247145926457165
  0
ARC
  5
144A4
  8
0
 10
3715.0022861145730531
 20
164.6881648738091997
 30
0.0
 40
0.0071857807296463
 50
182.3493669743104135
 51
243.897846988886414
  0
LINE
  5
144A5
  8
0
 10
3714.9951063738799348
 20
164.6878703092579883
 30
0.0
 11
3714.9951063737798904
 21
164.7001756173580134
 31
0.0
  0
LINE
  5
144A6
  8
0
 10
3714.9951063737798904
 20
164.6878703116954057
 30
0.0
 11
3715.0012594139798239
 21
164.6975751997580062
 31
0.0
  0
LINE
  5
144A7
  8
0
 10
3714.9991245656801766
 20
164.6817119633579978
 30
0.0
 11
3714.9984851481799524
 21
164.6811470058580085
 31
0.0
  0
LINE
  5
144A8
  8
0
 10
3715.0051909496701228
 20
164.6865496694624937
 30
0.0
 11
3715.0247044769807871
 21
164.6783027999580042
 31
0.0
  0
LINE
  5
144A9
  8
0
 10
3715.0247044769807871
 20
164.6783027999580042
 30
0.0
 11
3715.0521492375801245
 21
164.6814106870579906
 31
0.0
  0
LINE
  5
144AA
  8
0
 10
3715.0555301515801148
 20
164.6746875739580105
 30
0.0
 11
3715.0261284768171208
 21
164.6713581349148114
 31
0.0
  0
ARC
  5
144AB
  8
0
 10
3715.025162083818941
 20
164.6798921769103003
 30
0.0
 40
0.0085885847616197
 50
257.024948285579228
 51
276.4606395412957909
  0
ARC
  5
144AC
  8
0
 10
3715.0224842802558669
 20
164.677555233926995
 30
0.0
 40
0.0060787326295796
 50
248.0581534990288048
 51
277.0819162129718052
  0
LINE
  5
144AD
  8
0
 10
3715.0202128685800744
 20
164.6719168228580088
 30
0.0
 11
3714.9984872878799251
 21
164.6811471960579922
 31
0.0
  0
ARC
  5
144AE
  8
0
 10
3715.0113995012629857
 20
164.6776395448729886
 30
0.0
 40
0.0133214971320116
 50
332.6672296267850015
 51
2.853840582330009
  0
LINE
  5
144AF
  8
0
 10
3715.0247044769730564
 20
164.6783027998571924
 30
0.0
 11
3715.0247044769807871
 21
164.6970353431009926
 31
0.0
  0
LINE
  5
144B0
  8
0
 10
3715.0678867512801844
 20
164.6890061508080123
 30
0.0
 11
3715.0609667044809612
 21
164.6780914982080049
 31
0.0
  0
ARC
  5
144B1
  8
0
 10
3715.0557830282227769
 20
164.6813780235436866
 30
0.0
 40
0.0061377315294667
 50
273.5907383043116852
 51
327.6247145926457165
  0
ARC
  5
144B2
  8
0
 10
3715.0593289782741522
 20
164.6817052516591957
 30
0.0
 40
0.0071857807296463
 50
182.3493669743104135
 51
243.897846988886414
  0
LINE
  5
144B3
  8
0
 10
3715.0521492375801245
 20
164.6814106871080128
 30
0.0
 11
3715.05214923748008
 21
164.6937159952080094
 31
0.0
  0
LINE
  5
144B4
  8
0
 10
3715.05214923748008
 20
164.6814106895454017
 30
0.0
 11
3715.0583022776800135
 21
164.6911155776080022
 31
0.0
  0
LINE
  5
144B5
  8
0
 10
3715.056167429380821
 20
164.6752523412079938
 30
0.0
 11
3715.055528011880142
 21
164.6746873837080045
 31
0.0
  0
LINE
  5
144B6
  8
0
 10
3715.0622338133698577
 20
164.6800900473124045
 30
0.0
 11
3715.0817473406800673
 21
164.6718431778080003
 31
0.0
  0
LINE
  5
144B7
  8
0
 10
3715.0817473406800673
 20
164.6718431778080003
 30
0.0
 11
3715.1091921012812236
 21
164.6749510649079866
 31
0.0
  0
LINE
  5
144B8
  8
0
 10
3715.1125730152812139
 20
164.6682279518080065
 30
0.0
 11
3715.0831713405168557
 21
164.6648985127648075
 31
0.0
  0
ARC
  5
144B9
  8
0
 10
3715.0822049475182212
 20
164.6734325547602964
 30
0.0
 40
0.0085885847616197
 50
257.024948285579228
 51
276.4606395412957909
  0
ARC
  5
144BA
  8
0
 10
3715.0795271439560565
 20
164.6710956117769911
 30
0.0
 40
0.0060787326295796
 50
248.0581534990288048
 51
277.0819162129718052
  0
LINE
  5
144BB
  8
0
 10
3715.0772557322811736
 20
164.6654572007080048
 30
0.0
 11
3715.0555301515801148
 21
164.6746875739079883
 31
0.0
  0
ARC
  5
144BC
  8
0
 10
3715.0684423649618111
 20
164.6711799227230131
 30
0.0
 40
0.0133214971320116
 50
332.6672296267850015
 51
2.853840582330009
  0
LINE
  5
144BD
  8
0
 10
3715.0817473406718818
 20
164.6718431777071885
 30
0.0
 11
3715.0817473406800673
 21
164.6905757208340049
 31
0.0
  0
LINE
  5
144BE
  8
0
 10
3714.8280446123421825
 20
164.8849519346184138
 30
0.0
 11
3714.8453848989811377
 21
164.8776235270580059
 31
0.0
  0
LINE
  5
144BF
  8
0
 10
3714.8453848989811377
 20
164.8776235270580059
 30
0.0
 11
3714.8728296595800202
 21
164.8807314141579923
 31
0.0
  0
LINE
  5
144C0
  8
0
 10
3714.8762105735800105
 20
164.8740083010580122
 30
0.0
 11
3714.8468088988161071
 21
164.8706788620148131
 31
0.0
  0
ARC
  5
144C1
  8
0
 10
3714.8458425058188368
 20
164.8792129040103021
 30
0.0
 40
0.0085885847616197
 50
257.024948285579228
 51
276.4606395412957909
  0
ARC
  5
144C2
  8
0
 10
3714.8431647022548532
 20
164.8768759610269967
 30
0.0
 40
0.0060787326295796
 50
248.0581534990288048
 51
277.0819162129718052
  0
LINE
  5
144C3
  8
0
 10
3714.8408932905799702
 20
164.8712375499580105
 30
0.0
 11
3714.8191677098798209
 21
164.8804679231579939
 31
0.0
  0
ARC
  5
144C4
  8
0
 10
3714.832079923261972
 20
164.8769602719729903
 30
0.0
 40
0.0133214971320116
 50
332.6672296267850015
 51
2.853840582330009
  0
LINE
  5
144C5
  8
0
 10
3714.8453848989729522
 20
164.8776235269571941
 30
0.0
 11
3714.8453848989770449
 21
164.8883780056594901
 31
0.0
  0
LINE
  5
144C6
  8
0
 10
3714.8411559609698998
 20
164.8617627584623904
 30
0.0
 11
3714.8606694882801094
 21
164.8535158889579861
 31
0.0
  0
LINE
  5
144C7
  8
0
 10
3714.8606694882801094
 20
164.8535158889579861
 30
0.0
 11
3714.8881142488808109
 21
164.8566237760580009
 31
0.0
  0
LINE
  5
144C8
  8
0
 10
3714.8914951628808012
 20
164.8499006629579924
 30
0.0
 11
3714.8620934881159883
 21
164.8465712239147933
 31
0.0
  0
ARC
  5
144C9
  8
0
 10
3714.8611270951191727
 20
164.8551052659103107
 30
0.0
 40
0.0085885847616197
 50
257.024948285579228
 51
276.4606395412957909
  0
ARC
  5
144CA
  8
0
 10
3714.8473645125618532
 20
164.8528526338729989
 30
0.0
 40
0.0133214971320116
 50
332.6672296267850015
 51
2.853840582330009
  0
LINE
  5
144CB
  8
0
 10
3714.8606694882728334
 20
164.8535158888570891
 30
0.0
 11
3714.8606694882801094
 21
164.8722484320510091
 31
0.0
  0
LINE
  5
144CC
  8
0
 10
3714.8564405502202135
 20
164.8376551203124052
 30
0.0
 11
3714.8759540775299683
 21
164.829408250808001
 31
0.0
  0
LINE
  5
144CD
  8
0
 10
3714.8759540775299683
 20
164.829408250808001
 30
0.0
 11
3714.9033988381311246
 21
164.8325161379079873
 31
0.0
  0
LINE
  5
144CE
  8
0
 10
3714.9067797521302055
 20
164.8257930248080072
 30
0.0
 11
3714.8773780773672115
 21
164.8224635857648082
 31
0.0
  0
ARC
  5
144CF
  8
0
 10
3714.8764116843690317
 20
164.8309976277602971
 30
0.0
 40
0.0085885847616197
 50
257.024948285579228
 51
276.4606395412957909
  0
ARC
  5
144D0
  8
0
 10
3714.8737338808059576
 20
164.8286606847769917
 30
0.0
 40
0.0060787326295796
 50
248.0581534990288048
 51
277.0819162129718052
  0
LINE
  5
144D1
  8
0
 10
3714.8714624691301651
 20
164.8230222737080055
 30
0.0
 11
3714.8497368884300158
 21
164.8322526469079889
 31
0.0
  0
ARC
  5
144D2
  8
0
 10
3714.8626491018121669
 20
164.8287449957230137
 30
0.0
 40
0.0133214971320116
 50
332.6672296267850015
 51
2.853840582330009
  0
LINE
  5
144D3
  8
0
 10
3714.8759540775231471
 20
164.8294082507071892
 30
0.0
 11
3714.8759540775299683
 21
164.8481407939453049
 31
0.0
  0
LINE
  5
144D4
  8
0
 10
3714.8717251395200947
 20
164.8135474822124138
 30
0.0
 11
3714.8912386668312138
 21
164.8053006127080096
 31
0.0
  0
LINE
  5
144D5
  8
0
 10
3714.8912386668312138
 20
164.8053006127080096
 30
0.0
 11
3714.9186834274310058
 21
164.8084084998079959
 31
0.0
  0
LINE
  5
144D6
  8
0
 10
3714.9220643414300866
 20
164.8016853867079874
 30
0.0
 11
3714.8926626666670927
 21
164.7983559476647883
 31
0.0
  0
ARC
  5
144D7
  8
0
 10
3714.8916962736689129
 20
164.8068899896603057
 30
0.0
 40
0.0085885847616197
 50
257.024948285579228
 51
276.4606395412957909
  0
ARC
  5
144D8
  8
0
 10
3714.8890184701049293
 20
164.8045530466770003
 30
0.0
 40
0.0060787326295796
 50
248.0581534990288048
 51
277.0819162129718052
  0
LINE
  5
144D9
  8
0
 10
3714.8867470584300463
 20
164.7989146356080141
 30
0.0
 11
3714.8650214777308065
 21
164.8081450088079976
 31
0.0
  0
ARC
  5
144DA
  8
0
 10
3714.8779336911120481
 20
164.8046373576229939
 30
0.0
 40
0.0133214971320116
 50
332.6672296267850015
 51
2.853840582330009
  0
LINE
  5
144DB
  8
0
 10
3714.8912386668230283
 20
164.8053006126071978
 30
0.0
 11
3714.8912386668312138
 21
164.8240099480973981
 31
0.0
  0
LINE
  5
144DC
  8
0
 10
3714.8870097287699537
 20
164.789439844112394
 30
0.0
 11
3714.9065232560801633
 21
164.7811929746079898
 31
0.0
  0
LINE
  5
144DD
  8
0
 10
3714.9065232560801633
 20
164.7811929746079898
 30
0.0
 11
3714.9339680166799553
 21
164.7843008617080045
 31
0.0
  0
LINE
  5
144DE
  8
0
 10
3714.9373489306808551
 20
164.777577748607996
 30
0.0
 11
3714.9079472559160422
 21
164.774248309564797
 31
0.0
  0
ARC
  5
144DF
  8
0
 10
3714.9069808629192266
 20
164.7827823515602859
 30
0.0
 40
0.0085885847616197
 50
257.024948285579228
 51
276.4606395412957909
  0
ARC
  5
144E0
  8
0
 10
3714.9043030593561525
 20
164.7804454085770089
 30
0.0
 40
0.0060787326295796
 50
248.0581534990288048
 51
277.0819162129718052
  0
LINE
  5
144E1
  8
0
 10
3714.9020316476808148
 20
164.7748069975079943
 30
0.0
 11
3714.8803060669811202
 21
164.7840373707080062
 31
0.0
  0
ARC
  5
144E2
  8
0
 10
3714.8932182803619071
 20
164.7805297195230025
 30
0.0
 40
0.0133214971320116
 50
332.6672296267850015
 51
2.853840582330009
  0
LINE
  5
144E3
  8
0
 10
3714.9065232560728873
 20
164.7811929745070927
 30
0.0
 11
3714.9065232560801633
 21
164.7999255176953
 31
0.0
  0
LINE
  5
144E4
  8
0
 10
3714.9022943180198126
 20
164.7653322060124026
 30
0.0
 11
3714.9218078453300222
 21
164.7570853365079984
 31
0.0
  0
LINE
  5
144E5
  8
0
 10
3714.9218078453300222
 20
164.7570853365079984
 30
0.0
 11
3714.9492526059311786
 21
164.7601932236080131
 31
0.0
  0
LINE
  5
144E6
  8
0
 10
3714.9526335199298046
 20
164.7534701105080046
 30
0.0
 11
3714.9232318451668107
 21
164.7501406714648056
 31
0.0
  0
ARC
  5
144E7
  8
0
 10
3714.9222654521681761
 20
164.7586747134602945
 30
0.0
 40
0.0085885847616197
 50
257.024948285579228
 51
276.4606395412957909
  0
ARC
  5
144E8
  8
0
 10
3714.919587648605102
 20
164.7563377704769891
 30
0.0
 40
0.0060787326295796
 50
248.0581534990288048
 51
277.0819162129718052
  0
LINE
  5
144E9
  8
0
 10
3714.917316236930219
 20
164.7506993594080029
 30
0.0
 11
3714.8955906562300697
 21
164.7599297326079864
 31
0.0
  0
ARC
  5
144EA
  8
0
 10
3714.9085028696122208
 20
164.7564220814230112
 30
0.0
 40
0.0133214971320116
 50
332.6672296267850015
 51
2.853840582330009
  0
LINE
  5
144EB
  8
0
 10
3714.921807845323201
 20
164.7570853364071866
 30
0.0
 11
3714.9218078453300222
 21
164.7758178795953086
 31
0.0
  0
LINE
  5
144EC
  8
0
 10
3714.9175789073201486
 20
164.7412245678625027
 30
0.0
 11
3714.9370924346308129
 21
164.7329776983580132
 31
0.0
  0
LINE
  5
144ED
  8
0
 10
3714.9370924346308129
 20
164.7329776983580132
 30
0.0
 11
3714.9645371952310597
 21
164.7360855854579995
 31
0.0
  0
LINE
  5
144EE
  8
0
 10
3714.9679181092301405
 20
164.729362472357991
 30
0.0
 11
3714.9385164344671466
 21
164.726033033314792
 31
0.0
  0
ARC
  5
144EF
  8
0
 10
3714.9375500414689668
 20
164.7345670753103946
 30
0.0
 40
0.0085885847616197
 50
257.024948285579228
 51
276.4606395412957909
  0
ARC
  5
144F0
  8
0
 10
3714.9348722379049832
 20
164.732230132327004
 30
0.0
 40
0.0060787326295796
 50
248.0581534990288048
 51
277.0819162129718052
  0
LINE
  5
144F1
  8
0
 10
3714.9326008262301002
 20
164.7265917212579893
 30
0.0
 11
3714.9108752455299509
 21
164.7358220944580012
 31
0.0
  0
ARC
  5
144F2
  8
0
 10
3714.923787458912102
 20
164.7323144432729976
 30
0.0
 40
0.0133214971320116
 50
332.6672296267850015
 51
2.853840582330009
  0
LINE
  5
144F3
  8
0
 10
3714.9370924346230822
 20
164.7329776982570877
 30
0.0
 11
3714.9370924346308129
 21
164.7517102415010015
 31
0.0
  0
LINE
  5
144F4
  8
0
 10
3714.9328634966200298
 20
164.7171169297623976
 30
0.0
 11
3714.9523770239297846
 21
164.7088700602579934
 31
0.0
  0
LINE
  5
144F5
  8
0
 10
3714.9523770239297846
 20
164.7088700602579934
 30
0.0
 11
3714.9798217845300314
 21
164.7119779473580081
 31
0.0
  0
LINE
  5
144F6
  8
0
 10
3714.9832026985300217
 20
164.7052548342579996
 30
0.0
 11
3714.9538010237661183
 21
164.7019253952148006
 31
0.0
  0
ARC
  5
144F7
  8
0
 10
3714.9528346307679385
 20
164.7104594372104032
 30
0.0
 40
0.0085885847616197
 50
257.024948285579228
 51
276.4606395412957909
  0
ARC
  5
144F8
  8
0
 10
3714.9501568272048644
 20
164.7081224942270126
 30
0.0
 40
0.0060787326295796
 50
248.0581534990288048
 51
277.0819162129718052
  0
LINE
  5
144F9
  8
0
 10
3714.9478854155299814
 20
164.7024840831579979
 30
0.0
 11
3714.9261598348298321
 21
164.7117144563580098
 31
0.0
  0
ARC
  5
144FA
  8
0
 10
3714.9390720482119832
 20
164.7082068051730062
 30
0.0
 40
0.0133214971320116
 50
332.6672296267850015
 51
2.853840582330009
  0
LINE
  5
144FB
  8
0
 10
3714.9523770239229634
 20
164.7088700601570963
 30
0.0
 11
3714.9523770239297846
 21
164.7276026033509879
 31
0.0
  0
LINE
  5
144FC
  8
0
 10
3714.948148085919911
 20
164.6930092916124124
 30
0.0
 11
3714.9676616132301206
 21
164.6847624221080082
 31
0.0
  0
LINE
  5
144FD
  8
0
 10
3714.9676616132301206
 20
164.6847624221080082
 30
0.0
 11
3714.9951063738308221
 21
164.6878703092079945
 31
0.0
  0
LINE
  5
144FE
  8
0
 10
3714.9984872878308124
 20
164.681147196107986
 30
0.0
 11
3714.9690856130659995
 21
164.677817757064787
 31
0.0
  0
ARC
  5
144FF
  8
0
 10
3714.9681192200678197
 20
164.6863517990603043
 30
0.0
 40
0.0085885847616197
 50
257.024948285579228
 51
276.4606395412957909
  0
ARC
  5
14500
  8
0
 10
3714.9654414165061098
 20
164.684014856076999
 30
0.0
 40
0.0060787326295796
 50
248.0581534990288048
 51
277.0819162129718052
  0
LINE
  5
14501
  8
0
 10
3714.9631700048312268
 20
164.6783764450080128
 30
0.0
 11
3714.941444424130168
 21
164.6876068182079962
 31
0.0
  0
ARC
  5
14502
  8
0
 10
3714.9543566375118644
 20
164.6840991670229926
 30
0.0
 40
0.0133214971320116
 50
332.6672296267850015
 51
2.853840582330009
  0
LINE
  5
14503
  8
0
 10
3714.9676616132228446
 20
164.6847624220071964
 30
0.0
 11
3714.9676616132301206
 21
164.7034949652509965
 31
0.0
  0
LINE
  5
14504
  8
0
 10
3714.9634326751702247
 20
164.6689016535125063
 30
0.0
 11
3714.9829462024799795
 21
164.6606547840079884
 31
0.0
  0
LINE
  5
14505
  8
0
 10
3714.9829462024799795
 20
164.6606547840079884
 30
0.0
 11
3715.0103909630802264
 21
164.6637626711080031
 31
0.0
  0
LINE
  5
14506
  8
0
 10
3715.0137718770802167
 20
164.6570395580079946
 30
0.0
 11
3714.9843702023158585
 21
164.6537101189647956
 31
0.0
  0
ARC
  5
14507
  8
0
 10
3714.9834038093190429
 20
164.6622441609603129
 30
0.0
 40
0.0085885847616197
 50
257.024948285579228
 51
276.4606395412957909
  0
ARC
  5
14508
  8
0
 10
3714.9807260057559688
 20
164.6599072179770076
 30
0.0
 40
0.0060787326295796
 50
248.0581534990288048
 51
277.0819162129718052
  0
LINE
  5
14509
  8
0
 10
3714.9784545940801763
 20
164.6542688069079929
 30
0.0
 11
3714.956729013380027
 21
164.6634991801080048
 31
0.0
  0
ARC
  5
1450A
  8
0
 10
3714.9696412267621781
 20
164.6599915289230012
 30
0.0
 40
0.0133214971320116
 50
332.6672296267850015
 51
2.853840582330009
  0
LINE
  5
1450B
  8
0
 10
3714.9829462024731583
 20
164.660654783907205
 30
0.0
 11
3714.9829462024799795
 21
164.6793873270952986
 31
0.0
  0
ARC
  5
1450C
  8
0
 10
3714.9708594282719787
 20
164.1723750577872067
 30
0.0
 40
0.7269662682518663
 50
89.8400408926478633
 51
93.6002190393889038
  0
ARC
  5
1450D
  8
0
 10
3714.9704868197759424
 20
164.1782971389660872
 30
0.0
 40
0.7210324766662534
 50
93.6002190393889038
 51
99.3663766878736965
  0
ARC
  5
1450E
  8
0
 10
3714.9392172115449284
 20
164.3678718848454139
 30
0.0
 40
0.5288961379010471
 50
99.3663766878736965
 51
106.266731386291994
  0
ARC
  5
1450F
  8
0
 10
3714.9050557513078274
 20
164.4849472755335
 30
0.0
 40
0.4069385531828719
 50
106.266731386291994
 51
114.4676898968586016
  0
ARC
  5
14510
  8
0
 10
3714.8281759867159053
 20
164.6538969352513107
 30
0.0
 40
0.2213193577246777
 50
114.4676898968586016
 51
130.0408790702691988
  0
ARC
  5
14511
  8
0
 10
3714.7484001150819495
 20
164.7488324764817094
 30
0.0
 40
0.0973155405109017
 50
130.0408790702691988
 51
155.3846529996311858
  0
ARC
  5
14512
  8
0
 10
3714.7083088203057741
 20
164.7672006955812094
 30
0.0
 40
0.0532167492606349
 50
155.3846529996297932
 51
175.1358908498133076
  0
ARC
  5
14513
  8
0
 10
3714.7120840019379102
 20
164.7658066703374971
 30
0.0
 40
0.057106542718832
 50
174.0633895060013003
 51
193.9790490346194076
  0
ARC
  5
14514
  8
0
 10
3714.7259408451682248
 20
164.7698581244522984
 30
0.0
 40
0.0715340861264302
 50
194.446901352802314
 51
214.7772778951822943
  0
ARC
  5
14515
  8
0
 10
3714.7572876407989497
 20
164.791258695719506
 30
0.0
 40
0.1094886179690675
 50
214.6192778401469923
 51
227.4944327471677923
  0
ARC
  5
14516
  8
0
 10
3714.8093085604991757
 20
164.8502143095878978
 30
0.0
 40
0.1881057870355638
 50
227.946340930250301
 51
242.0013524560403937
  0
ARC
  5
14517
  8
0
 10
3714.9008296003289615
 20
165.029350635188905
 30
0.0
 40
0.3892542510610661
 50
242.4850928587806891
 51
257.3202641359401923
  0
ARC
  5
14518
  8
0
 10
3714.9679999660511385
 20
165.3135027778075994
 30
0.0
 40
0.681227863832512
 50
257.0544438680611279
 51
270.4112019792062824
  0
ARC
  5
14519
  8
0
 10
3714.8189126521401704
 20
164.8882614110090969
 30
0.0
 40
0.0072835886370667
 50
277.0371667202529125
 51
326.9797490501067045
  0
LINE
  5
1451A
  8
0
 10
3714.8198049876300502
 20
164.8810326904579995
 30
0.0
 11
3714.8191677098798209
 21
164.8804679231579939
 31
0.0
  0
LINE
  5
1451B
  8
0
 10
3714.8191677098798209
 20
164.8804679231579939
 30
0.0
 11
3714.8011533009230334
 21
164.8784298945471107
 31
0.0
  0
LINE
  5
1451C
  8
0
 10
3714.8036262696759877
 20
164.8787096695363061
 30
0.0
 11
3714.8036266244298531
 21
164.8599755110579963
 31
0.0
  0
LINE
  5
1451D
  8
0
 10
3714.8036266244298531
 20
164.8599755110579963
 30
0.0
 11
3714.8310713851301443
 21
164.8630833982579986
 31
0.0
  0
LINE
  5
1451E
  8
0
 10
3714.8310713851301443
 20
164.8630833982579986
 30
0.0
 11
3714.8372278868009744
 21
164.872794840659509
 31
0.0
  0
LINE
  5
1451F
  8
0
 10
3714.8468088989311582
 20
164.8706788620580141
 30
0.0
 11
3714.839888852130116
 21
164.8597642093579907
 31
0.0
  0
ARC
  5
14520
  8
0
 10
3714.8347051759119495
 20
164.8630507346387049
 30
0.0
 40
0.0061377314669973
 50
273.5907370600306194
 51
327.624714830041512
  0
ARC
  5
14521
  8
0
 10
3714.8382975803438057
 20
164.8634082734114088
 30
0.0
 40
0.0072334943923755
 50
182.5741692297810914
 51
243.6730447542311992
  0
LINE
  5
14522
  8
0
 10
3714.8310713851301443
 20
164.8630833982579986
 30
0.0
 11
3714.8310645892079265
 21
164.8754133914686975
 31
0.0
  0
LINE
  5
14523
  8
0
 10
3714.8591987278700799
 20
164.8467359655832922
 30
0.0
 11
3714.8350895769331146
 21
164.8569250523570133
 31
0.0
  0
LINE
  5
14524
  8
0
 10
3714.8350895769422095
 20
164.8569250523592871
 30
0.0
 11
3714.8021558642308264
 21
164.8531955877579946
 31
0.0
  0
LINE
  5
14525
  8
0
 10
3714.8021558642308264
 20
164.8531955877579946
 30
0.0
 11
3714.8006197025351867
 21
164.8532003248222964
 31
0.0
  0
ARC
  5
14526
  8
0
 10
3714.8012788367509529
 20
164.8587410370842861
 30
0.0
 40
0.0055797804871339
 50
247.4051487812027972
 51
263.2158624934809836
  0
LINE
  5
14527
  8
0
 10
3714.7991350161300943
 20
164.8535895340579884
 30
0.0
 11
3714.7773189283748252
 21
164.8628097102132983
 31
0.0
  0
LINE
  5
14528
  8
0
 10
3714.7774072956299278
 20
164.8628197170579881
 30
0.0
 11
3714.7468599217299925
 21
164.8593604851579926
 31
0.0
  0
LINE
  5
14529
  8
0
 10
3714.7468599217299925
 20
164.8593604851579926
 30
0.0
 11
3714.7458387257061077
 21
164.859445506270589
 31
0.0
  0
LINE
  5
1452A
  8
0
 10
3714.7774072956299278
 20
164.8628197170579881
 30
0.0
 11
3714.7780467131310616
 21
164.8633846744579898
 31
0.0
  0
ARC
  5
1452B
  8
0
 10
3714.7772980579788964
 20
164.8701260184558066
 30
0.0
 40
0.0067828160652466
 50
276.3366301372233806
 51
324.8790170160639263
  0
LINE
  5
1452C
  8
0
 10
3714.7828459883307914
 20
164.8662238315579884
 30
0.0
 11
3714.7882640007610462
 21
164.8747660450544004
 31
0.0
  0
LINE
  5
1452D
  8
0
 10
3714.7841134894351853
 20
164.868222214761289
 30
0.0
 11
3714.8036266244298531
 21
164.8599755110579963
 31
0.0
  0
ARC
  5
1452E
  8
0
 10
3714.7882091454471265
 20
164.8597705185786992
 30
0.0
 40
0.0154188417242909
 50
334.7593056726283862
 51
0.7617660352837627
  0
LINE
  5
1452F
  8
0
 10
3714.8021558642089985
 20
164.8531955877242865
 30
0.0
 11
3714.7933313031730904
 21
164.8392770360441091
 31
0.0
  0
LINE
  5
14530
  8
0
 10
3714.7933313031730904
 20
164.8392770360441091
 30
0.0
 11
3714.8174404535311623
 21
164.8290879496580033
 31
0.0
  0
ARC
  5
14531
  8
0
 10
3714.8192016135508311
 20
164.8345191647476042
 30
0.0
 40
0.0057096218759032
 50
252.0338684597253973
 51
281.4517146385973092
  0
LINE
  5
14532
  8
0
 10
3714.8203352135451496
 20
164.8289232079019087
 30
0.0
 11
3714.849736888391817
 21
164.8322526469241893
 31
0.0
  0
LINE
  5
14533
  8
0
 10
3714.8497368884300158
 20
164.8322526469079889
 30
0.0
 11
3714.8503741662311768
 21
164.8328174142579883
 31
0.0
  0
LINE
  5
14534
  8
0
 10
3714.8503741662311768
 20
164.8328174142579883
 30
0.0
 11
3714.8591987279801288
 21
164.8467359655579969
 31
0.0
  0
LINE
  5
14535
  8
0
 10
3714.862093488174196
 20
164.8465712239269862
 30
0.0
 11
3714.8551734413308623
 21
164.8356565712579993
 31
0.0
  0
ARC
  5
14536
  8
0
 10
3714.8499897650731327
 20
164.8389430965937095
 30
0.0
 40
0.0061377315294627
 50
273.5907383042854804
 51
327.6247145926416238
  0
LINE
  5
14537
  8
0
 10
3714.8503741662311768
 20
164.8328174142579883
 30
0.0
 11
3714.8174404528258492
 21
164.8290879495783088
 31
0.0
  0
ARC
  5
14538
  8
0
 10
3714.8167049213898281
 20
164.835223785143711
 30
0.0
 40
0.0061797641247023
 50
248.2863443886755874
 51
276.8357025224971721
  0
LINE
  5
14539
  8
0
 10
3714.8144186052300029
 20
164.8294825097580087
 30
0.0
 11
3714.7926036144071986
 21
164.8387020311745914
 31
0.0
  0
LINE
  5
1453A
  8
0
 10
3714.7710766834579772
 20
164.8691979690196945
 30
0.0
 11
3714.7740285213299103
 21
164.8695430204579964
 31
0.0
  0
LINE
  5
1453B
  8
0
 10
3714.7740285213299103
 20
164.8695430204579964
 30
0.0
 11
3714.7745709550949869
 21
164.8703985746930982
 31
0.0
  0
LINE
  5
1453C
  8
0
 10
3714.7740285213299103
 20
164.8702143437579934
 30
0.0
 11
3714.7740285213990319
 21
164.8695430204660113
 31
0.0
  0
ARC
  5
1453D
  8
0
 10
3714.7807568849761992
 20
164.8695430211523103
 30
0.0
 40
0.0067283635773237
 50
180.0000058442460897
 51
246.2464351995540994
  0
LINE
  5
1453E
  8
0
 10
3714.7480077605978295
 20
164.8594904682080085
 30
0.0
 11
3714.7410877138299838
 21
164.8485758155580072
 31
0.0
  0
ARC
  5
1453F
  8
0
 10
3714.7359040376009034
 20
164.8518623408455142
 30
0.0
 40
0.0061377314795918
 50
273.5907380669004851
 51
327.6247148300248
  0
ARC
  5
14540
  8
0
 10
3714.7394985347391412
 20
164.85222124510301
 30
0.0
 40
0.0072356464148183
 50
182.5842267717239054
 51
243.6629884965732913
  0
LINE
  5
14541
  8
0
 10
3714.7322702468300122
 20
164.8518950044579867
 30
0.0
 11
3714.73227551197715
 21
164.8533596060659079
 31
0.0
  0
LINE
  5
14542
  8
0
 10
3714.7322702469300566
 20
164.8518950322749106
 30
0.0
 11
3714.7336288308101757
 21
164.8540046397849892
 31
0.0
  0
LINE
  5
14543
  8
0
 10
3714.7322713845192084
 20
164.8518967987212989
 30
0.0
 11
3714.7284104385121282
 21
164.8514547584202035
 31
0.0
  0
LINE
  5
14544
  8
0
 10
3714.712440411757143
 20
164.8425435222671069
 30
0.0
 11
3714.7356490211300297
 21
164.8451717011579944
 31
0.0
  0
LINE
  5
14545
  8
0
 10
3714.7356490211300297
 20
164.8451717011579944
 30
0.0
 11
3714.7362884383610435
 21
164.8457366587412025
 31
0.0
  0
LINE
  5
14546
  8
0
 10
3714.690438515851838
 20
164.8271327491688965
 30
0.0
 11
3714.6938928864301488
 21
164.827523875357997
 31
0.0
  0
LINE
  5
14547
  8
0
 10
3714.6938928864301488
 20
164.827523875357997
 30
0.0
 11
3714.6945301642299455
 21
164.8280886425579865
 31
0.0
  0
ARC
  5
14548
  8
0
 10
3714.6931905696069407
 20
164.8359908801606082
 30
0.0
 40
0.0080149780338796
 50
279.6213651919517247
 51
337.5206414040047775
  0
LINE
  5
14549
  8
0
 10
3714.7005965482758256
 20
164.8329263487387095
 30
0.0
 11
3714.7026616674429533
 21
164.8361835605458054
 31
0.0
  0
ARC
  5
1454A
  8
0
 10
3714.6966346483509369
 20
164.8329974838441956
 30
0.0
 40
0.005340934018287
 50
226.6441302275759995
 51
246.7945566077472961
  0
LINE
  5
1454B
  8
0
 10
3714.6797758009170138
 20
164.8000867982648003
 30
0.0
 11
3714.6728557542301132
 21
164.7891721455580125
 31
0.0
  0
ARC
  5
1454C
  8
0
 10
3714.6676720780928918
 20
164.7924586707310937
 30
0.0
 40
0.0061377313407848
 50
273.5907367821022831
 51
327.6247152729939103
  0
ARC
  5
1454D
  8
0
 10
3714.6712665750319502
 20
164.7928175750217861
 30
0.0
 40
0.0072356463051039
 50
182.5842261673097937
 51
243.6629885253302916
  0
LINE
  5
1454E
  8
0
 10
3714.6640382872301416
 20
164.792491334457992
 30
0.0
 11
3714.6640382872301416
 21
164.7973442938717028
 31
0.0
  0
LINE
  5
1454F
  8
0
 10
3714.6640382872301416
 20
164.792491334457992
 30
0.0
 11
3714.6701946932821556
 21
164.8022028175344076
 31
0.0
  0
LINE
  5
14550
  8
0
 10
3714.6640382872301416
 20
164.792491334457992
 30
0.0
 11
3714.6612751878301424
 21
164.7921784367580074
 31
0.0
  0
LINE
  5
14551
  8
0
 10
3714.6580623326440218
 20
164.7847310372654022
 30
0.0
 11
3714.6674192012678759
 21
164.7857682212917894
 31
0.0
  0
LINE
  5
14552
  8
0
 10
3714.6674192012678759
 20
164.7857682212917894
 30
0.0
 11
3714.6680564790299286
 21
164.7863329885580015
 31
0.0
  0
LINE
  5
14553
  8
0
 10
3714.6549777833929511
 20
164.7656142519431057
 30
0.0
 11
3714.6793228765309323
 21
164.7683836963580006
 31
0.0
  0
LINE
  5
14554
  8
0
 10
3714.6793228765309323
 20
164.7683836963580006
 30
0.0
 11
3714.6854820348789872
 21
164.7780940100666953
 31
0.0
  0
LINE
  5
14555
  8
0
 10
3714.6950603901659633
 20
164.7759791601648089
 30
0.0
 11
3714.6881403435299944
 21
164.7650645074579927
 31
0.0
  0
ARC
  5
14556
  8
0
 10
3714.6829566671849534
 20
164.7683510327389911
 30
0.0
 40
0.0061377315738587
 50
273.5907381591081275
 51
327.6247154602045839
  0
ARC
  5
14557
  8
0
 10
3714.6865511644091384
 20
164.7687099368262125
 30
0.0
 40
0.0072356463771745
 50
182.5842253837475084
 51
243.6629877278905951
  0
LINE
  5
14558
  8
0
 10
3714.6793228765309323
 20
164.7683836963580006
 30
0.0
 11
3714.6793235213181106
 21
164.7807105283231977
 31
0.0
  0
LINE
  5
14559
  8
0
 10
3714.6833410685890158
 20
164.7622253503743082
 30
0.0
 11
3714.6827037905309226
 21
164.7616605831580046
 31
0.0
  0
LINE
  5
1455A
  8
0
 10
3714.6827037905309226
 20
164.7616605831580046
 30
0.0
 11
3714.6554429923448879
 21
164.758552507000104
 31
0.0
  0
ARC
  5
1455B
  8
0
 10
3714.7250735671009352
 20
164.7803541468051947
 30
0.0
 40
0.0729667324021053
 50
197.3851703789378007
 51
216.7924283711925
  0
ARC
  5
1455C
  8
0
 10
3714.7777897383598429
 20
164.8260261136350096
 30
0.0
 40
0.1426238881094135
 50
218.8022516638849879
 51
234.6499469181952122
  0
ARC
  5
1455D
  8
0
 10
3714.8268647588838576
 20
164.8937414742036083
 30
0.0
 40
0.2262496809621958
 50
234.4349245917831865
 51
243.1915688156726958
  0
ARC
  5
1455E
  8
0
 10
3714.8761795344908023
 20
164.9907054652923932
 30
0.0
 40
0.3350334511766243
 50
243.143209880051586
 51
250.2432276399061948
  0
ARC
  5
1455F
  8
0
 10
3714.9213843797820118
 20
165.1162077385720863
 30
0.0
 40
0.4684286843301518
 50
250.2284724872581023
 51
256.6193610019686275
  0
ARC
  5
14560
  8
0
 10
3714.9590080494808717
 20
165.2772798680369988
 30
0.0
 40
0.6338355670231507
 50
256.6801823376645757
 51
264.5256740477067865
  0
ARC
  5
14561
  8
0
 10
3714.9707078595711209
 20
165.3860926692350972
 30
0.0
 40
0.7432693143200926
 50
264.4281030985579832
 51
270.1681344138626173
  0
ARC
  5
14562
  8
0
 10
3714.2079120454518488
 20
164.4114470642410026
 30
0.0
 40
0.5654920758407452
 50
35.6689073180598086
 51
37.5458490123614865
  0
LINE
  5
14563
  8
0
 10
3714.6673178516448388
 20
164.7411857381553091
 30
0.0
 11
3714.6673147826309105
 21
164.7599060414081862
 31
0.0
  0
ARC
  5
14564
  8
0
 10
3714.6773902285931399
 20
164.7415989053041017
 30
0.0
 40
0.0100808473309446
 50
182.3489351463310868
 51
225.4160204616175918
  0
LINE
  5
14565
  8
0
 10
3714.6703139381302208
 20
164.7344191005580001
 30
0.0
 11
3714.6979883798308038
 21
164.7375529450580132
 31
0.0
  0
LINE
  5
14566
  8
0
 10
3714.6979883798139781
 20
164.7375529450436034
 30
0.0
 11
3714.6986256576310552
 21
164.7381177122580027
 31
0.0
  0
ARC
  5
14567
  8
0
 10
3714.6975137424951754
 20
164.745734444302002
 30
0.0
 40
0.0076974646668242
 50
278.3055543058833905
 51
338.8364526456032877
  0
LINE
  5
14568
  8
0
 10
3714.7046920415341447
 20
164.7429554183563027
 30
0.0
 11
3714.7103449794658445
 21
164.7518715220147953
 31
0.0
  0
LINE
  5
14569
  8
0
 10
3714.700760505929793
 20
164.7539809487579987
 30
0.0
 11
3714.6946074657298595
 21
164.7442760581579932
 31
0.0
  0
LINE
  5
1456A
  8
0
 10
3714.6946074657298595
 20
164.7442760581579932
 30
0.0
 11
3714.6673178518899476
 21
164.7411857340717063
 31
0.0
  0
LINE
  5
1456B
  8
0
 10
3714.6946048635691113
 20
164.7566042697206967
 30
0.0
 11
3714.6946074658380894
 21
164.7442750350496965
 31
0.0
  0
ARC
  5
1456C
  8
0
 10
3714.7013363605401537
 20
164.7442764552835968
 30
0.0
 40
0.006728894851167
 50
180.0120931313778101
 51
246.2438341823917085
  0
LINE
  5
1456D
  8
0
 10
3714.6923760934300844
 20
164.7369174116275872
 30
0.0
 11
3714.6923761000521154
 21
164.7185051116935028
 31
0.0
  0
ARC
  5
1456E
  8
0
 10
3714.7000849656760693
 20
164.7185051144658132
 30
0.0
 40
0.0077088656237599
 50
180.0000206056853926
 51
244.0989989737543908
  0
LINE
  5
1456F
  8
0
 10
3714.6967175982299523
 20
164.7115706032579965
 30
0.0
 11
3714.713272969080208
 21
164.7134453069579934
 31
0.0
  0
LINE
  5
14570
  8
0
 10
3714.7132708292310781
 20
164.7134451167580096
 30
0.0
 11
3714.7139102468299825
 21
164.7140100741580113
 31
0.0
  0
ARC
  5
14571
  8
0
 10
3714.7132528614060902
 20
164.7205977320058139
 30
0.0
 40
0.0066203769920489
 50
275.6987061550537987
 51
325.4994158195008254
  0
LINE
  5
14572
  8
0
 10
3714.7187088492300973
 20
164.7168478535579936
 30
0.0
 11
3714.7256295687698184
 21
164.7277638839208862
 31
0.0
  0
LINE
  5
14573
  8
0
 10
3714.7160488665940647
 20
164.7298797308982046
 30
0.0
 11
3714.709892055031105
 21
164.7201684200580019
 31
0.0
  0
LINE
  5
14574
  8
0
 10
3714.709892055031105
 20
164.7201684200580019
 30
0.0
 11
3714.6923827229620656
 21
164.7181856361879113
 31
0.0
  0
LINE
  5
14575
  8
0
 10
3714.7098908561038115
 20
164.732496035418194
 30
0.0
 11
3714.709892055031105
 21
164.7201684200580019
 31
0.0
  0
ARC
  5
14576
  8
0
 10
3714.7166213443510969
 20
164.7201690745172868
 30
0.0
 40
0.0067292893528808
 50
180.0055723200028126
 51
246.2416416423126009
  0
ARC
  5
14577
  8
0
 10
3714.7784980722099135
 20
164.8381572449744965
 30
0.0
 40
0.1474250115486443
 50
224.5312236621088005
 51
234.2556552977511046
  0
ARC
  5
14578
  8
0
 10
3714.8334502745738064
 20
164.9172453748514044
 30
0.0
 40
0.2437986864258356
 50
237.2808585941803017
 51
243.9407871356847011
  0
LINE
  5
14579
  8
0
 10
3714.7263496552300239
 20
164.7078703484199877
 30
0.0
 11
3714.7263505879300283
 21
164.6979123860579932
 31
0.0
  0
ARC
  5
1457A
  8
0
 10
3714.7327796489989851
 20
164.6979129882278983
 30
0.0
 40
0.006429061097178
 50
180.005366537002601
 51
248.9430276358027072
  0
ARC
  5
1457B
  8
0
 10
3714.7320472307219461
 20
164.6947468255756064
 30
0.0
 40
0.003243114299926
 50
240.8943998828821123
 51
283.5214602458186732
  0
ARC
  5
1457C
  8
0
 10
3714.7322324511242186
 20
164.6932706334359864
 30
0.0
 40
0.0017722357673713
 50
288.8655806868591185
 51
328.3492436812658184
  0
LINE
  5
1457D
  8
0
 10
3714.7337410888308113
 20
164.6923406700580017
 30
0.0
 11
3714.7409141580160394
 21
164.7036562458148126
 31
0.0
  0
LINE
  5
1457E
  8
0
 10
3714.7313296844299657
 20
164.7057656724579999
 30
0.0
 11
3714.7263505878631804
 21
164.6979123859769913
 31
0.0
  0
LINE
  5
1457F
  8
0
 10
3714.8773780774799889
 20
164.8224635857579869
 30
0.0
 11
3714.8704580306812204
 21
164.8115489331580079
 31
0.0
  0
ARC
  5
14580
  8
0
 10
3714.8652743544230361
 20
164.8148354584936897
 30
0.0
 40
0.0061377315294667
 50
273.5907383043116852
 51
327.6247145926457165
  0
ARC
  5
14581
  8
0
 10
3714.8688203044739566
 20
164.8151626866091988
 30
0.0
 40
0.0071857807296463
 50
182.3493669743104135
 51
243.897846988886414
  0
LINE
  5
14582
  8
0
 10
3714.8616405637808384
 20
164.8148681220579874
 30
0.0
 11
3714.8616405636798845
 21
164.8271734301580125
 31
0.0
  0
LINE
  5
14583
  8
0
 10
3714.8616405636798845
 20
164.8148681244954048
 30
0.0
 11
3714.867793603879818
 21
164.8245730125580053
 31
0.0
  0
LINE
  5
14584
  8
0
 10
3714.8656587555810802
 20
164.8087097761579969
 30
0.0
 11
3714.8650193380799465
 21
164.8081448186580076
 31
0.0
  0
LINE
  5
14585
  8
0
 10
3714.8146822757698828
 20
164.8200071044124115
 30
0.0
 11
3714.8341958030810019
 21
164.8117602349080073
 31
0.0
  0
LINE
  5
14586
  8
0
 10
3714.8341958030810019
 20
164.8117602349080073
 30
0.0
 11
3714.8616405636798845
 21
164.8148681220079936
 31
0.0
  0
LINE
  5
14587
  8
0
 10
3714.8650214776798748
 20
164.8081450089080136
 30
0.0
 11
3714.8356198029159714
 21
164.8048155698647861
 31
0.0
  0
ARC
  5
14588
  8
0
 10
3714.8346534099177916
 20
164.8133496118603034
 30
0.0
 40
0.0085885847616197
 50
257.024948285579228
 51
276.4606395412957909
  0
ARC
  5
14589
  8
0
 10
3714.8319756063560817
 20
164.8110126688769981
 30
0.0
 40
0.0060787326295796
 50
248.0581534990288048
 51
277.0819162129718052
  0
LINE
  5
1458A
  8
0
 10
3714.8297041946811987
 20
164.8053742578080119
 30
0.0
 11
3714.8079786139801399
 21
164.8146046310079953
 31
0.0
  0
ARC
  5
1458B
  8
0
 10
3714.8208908273618363
 20
164.8110969798229917
 30
0.0
 40
0.0133214971320116
 50
332.6672296267850015
 51
2.853840582330009
  0
LINE
  5
1458C
  8
0
 10
3714.8341958030728165
 20
164.8117602348071955
 30
0.0
 11
3714.8341958030810019
 21
164.8304927779319087
 31
0.0
  0
LINE
  5
1458D
  8
0
 10
3714.8926626667312121
 20
164.7983559476080018
 30
0.0
 11
3714.8857426199301699
 21
164.7874412950079943
 31
0.0
  0
ARC
  5
1458E
  8
0
 10
3714.8805589436728951
 20
164.7907278203437045
 30
0.0
 40
0.0061377315294667
 50
273.5907383043116852
 51
327.6247145926457165
  0
ARC
  5
1458F
  8
0
 10
3714.8841048937238156
 20
164.7910550484592136
 30
0.0
 40
0.0071857807296463
 50
182.3493669743104135
 51
243.897846988886414
  0
LINE
  5
14590
  8
0
 10
3714.8769251530297879
 20
164.7907604839080022
 30
0.0
 11
3714.8769251529301982
 21
164.8030875898112981
 31
0.0
  0
LINE
  5
14591
  8
0
 10
3714.8769251529301982
 20
164.7907604863453912
 30
0.0
 11
3714.8830781931310412
 21
164.8004653744079917
 31
0.0
  0
LINE
  5
14592
  8
0
 10
3714.8809433448300297
 20
164.7846021380080117
 30
0.0
 11
3714.8803039273298054
 21
164.784037180507994
 31
0.0
  0
LINE
  5
14593
  8
0
 10
3714.8299668650201966
 20
164.7958994662623979
 30
0.0
 11
3714.8494803923299514
 21
164.7876525967579937
 31
0.0
  0
LINE
  5
14594
  8
0
 10
3714.8494803923299514
 20
164.7876525967579937
 30
0.0
 11
3714.8769251529301982
 21
164.7907604838580085
 31
0.0
  0
LINE
  5
14595
  8
0
 10
3714.8803060669301885
 20
164.784037370758
 30
0.0
 11
3714.8509043921671946
 21
164.7807079317148009
 31
0.0
  0
ARC
  5
14596
  8
0
 10
3714.8499379991690148
 20
164.7892419737104035
 30
0.0
 40
0.0085885847616197
 50
257.024948285579228
 51
276.4606395412957909
  0
ARC
  5
14597
  8
0
 10
3714.8472601956059407
 20
164.7869050307270129
 30
0.0
 40
0.0060787326295796
 50
248.0581534990288048
 51
277.0819162129718052
  0
LINE
  5
14598
  8
0
 10
3714.8449887839301482
 20
164.7812666196579983
 30
0.0
 11
3714.8232632032309084
 21
164.7904969928580101
 31
0.0
  0
ARC
  5
14599
  8
0
 10
3714.8361754166130595
 20
164.7869893416730065
 30
0.0
 40
0.0133214971320116
 50
332.6672296267850015
 51
2.853840582330009
  0
LINE
  5
1459A
  8
0
 10
3714.8494803923231302
 20
164.7876525966570966
 30
0.0
 11
3714.8494803923299514
 21
164.8063851398952977
 31
0.0
  0
LINE
  5
1459B
  8
0
 10
3714.9079472560301838
 20
164.7742483095080104
 30
0.0
 11
3714.9010272092309606
 21
164.7633336569080029
 31
0.0
  0
ARC
  5
1459C
  8
0
 10
3714.8958435329727763
 20
164.7666201822437131
 30
0.0
 40
0.0061377315294667
 50
273.5907383043116852
 51
327.6247145926457165
  0
ARC
  5
1459D
  8
0
 10
3714.8993894830241516
 20
164.7669474103591938
 30
0.0
 40
0.0071857807296463
 50
182.3493669743104135
 51
243.897846988886414
  0
LINE
  5
1459E
  8
0
 10
3714.8922097423301238
 20
164.7666528458080109
 30
0.0
 11
3714.8922097422300794
 21
164.7789581539080075
 31
0.0
  0
LINE
  5
1459F
  8
0
 10
3714.8922097422300794
 20
164.7666528482453998
 30
0.0
 11
3714.8983627824300129
 21
164.7763577363080003
 31
0.0
  0
LINE
  5
145A0
  8
0
 10
3714.8962279341308204
 20
164.7604944999079919
 30
0.0
 11
3714.8955885166301414
 21
164.7599295424080026
 31
0.0
  0
LINE
  5
145A1
  8
0
 10
3714.8452514543191683
 20
164.7717918281624065
 30
0.0
 11
3714.8647649816298326
 21
164.7635449586580023
 31
0.0
  0
LINE
  5
145A2
  8
0
 10
3714.8647649816298326
 20
164.7635449586580023
 30
0.0
 11
3714.8922097422300794
 21
164.7666528457579886
 31
0.0
  0
LINE
  5
145A3
  8
0
 10
3714.8955906562300697
 20
164.7599297326580086
 30
0.0
 11
3714.8661889814661663
 21
164.7566002936148095
 31
0.0
  0
ARC
  5
145A4
  8
0
 10
3714.8652225884679865
 20
164.7651343356102984
 30
0.0
 40
0.0085885847616197
 50
257.024948285579228
 51
276.4606395412957909
  0
ARC
  5
145A5
  8
0
 10
3714.8625447849058219
 20
164.7627973926269931
 30
0.0
 40
0.0060787326295796
 50
248.0581534990288048
 51
277.0819162129718052
  0
LINE
  5
145A6
  8
0
 10
3714.8602733732300294
 20
164.7571589815580069
 30
0.0
 11
3714.8385477925298801
 21
164.7663893547579903
 31
0.0
  0
ARC
  5
145A7
  8
0
 10
3714.8514600059120312
 20
164.7628817035729867
 30
0.0
 40
0.0133214971320116
 50
332.6672296267850015
 51
2.853840582330009
  0
LINE
  5
145A8
  8
0
 10
3714.8647649816230114
 20
164.7635449585571905
 30
0.0
 11
3714.8647649816298326
 21
164.7822542940473909
 31
0.0
  0
LINE
  5
145A9
  8
0
 10
3714.923231845330065
 20
164.7501406713579968
 30
0.0
 11
3714.9163117985308418
 21
164.7392260187579893
 31
0.0
  0
ARC
  5
145AA
  8
0
 10
3714.9111281222731122
 20
164.7425125440936995
 30
0.0
 40
0.0061377315294667
 50
273.5907383043116852
 51
327.6247145926457165
  0
ARC
  5
145AB
  8
0
 10
3714.9146740723240327
 20
164.7428397722092086
 30
0.0
 40
0.0071857807296463
 50
182.3493669743104135
 51
243.897846988886414
  0
LINE
  5
145AC
  8
0
 10
3714.907494331630005
 20
164.7425452076579973
 30
0.0
 11
3714.9074943315299606
 21
164.7548505157579939
 31
0.0
  0
LINE
  5
145AD
  8
0
 10
3714.9074943315299606
 20
164.7425452100953862
 30
0.0
 11
3714.9136473717308036
 21
164.7522500981579867
 31
0.0
  0
LINE
  5
145AE
  8
0
 10
3714.9115125234311563
 20
164.7363868617580067
 30
0.0
 11
3714.9108731059300226
 21
164.735821904257989
 31
0.0
  0
LINE
  5
145AF
  8
0
 10
3714.8605360436190495
 20
164.7476841900125066
 30
0.0
 11
3714.8800495709301686
 21
164.7394373205079887
 31
0.0
  0
LINE
  5
145B0
  8
0
 10
3714.8800495709301686
 20
164.7394373205079887
 30
0.0
 11
3714.9074943315299606
 21
164.7425452076080035
 31
0.0
  0
LINE
  5
145B1
  8
0
 10
3714.9108752455299509
 20
164.735822094507995
 30
0.0
 11
3714.8814735707660475
 21
164.7324926554647959
 31
0.0
  0
ARC
  5
145B2
  8
0
 10
3714.8805071777687772
 20
164.7410266974603985
 30
0.0
 40
0.0085885847616197
 50
257.024948285579228
 51
276.4606395412957909
  0
ARC
  5
145B3
  8
0
 10
3714.8778293742061578
 20
164.7386897544770079
 30
0.0
 40
0.0060787326295796
 50
248.0581534990288048
 51
277.0819162129718052
  0
LINE
  5
145B4
  8
0
 10
3714.8755579625299106
 20
164.7330513434079933
 30
0.0
 11
3714.853832381830216
 21
164.7422817166080051
 31
0.0
  0
ARC
  5
145B5
  8
0
 10
3714.8667445952119124
 20
164.7387740654230015
 30
0.0
 40
0.0133214971320116
 50
332.6672296267850015
 51
2.853840582330009
  0
LINE
  5
145B6
  8
0
 10
3714.8800495709228926
 20
164.7394373204072053
 30
0.0
 11
3714.8800495709301686
 21
164.7581698636510055
 31
0.0
  0
LINE
  5
145B7
  8
0
 10
3714.9385164345308112
 20
164.7260330332580054
 30
0.0
 11
3714.9315963877311333
 21
164.7151183806579979
 31
0.0
  0
ARC
  5
145B8
  8
0
 10
3714.926412711472949
 20
164.7184049059937081
 30
0.0
 40
0.0061377315294667
 50
273.5907383043116852
 51
327.6247145926457165
  0
ARC
  5
145B9
  8
0
 10
3714.9299586615238695
 20
164.7187321341091888
 30
0.0
 40
0.0071857807296463
 50
182.3493669743104135
 51
243.897846988886414
  0
LINE
  5
145BA
  8
0
 10
3714.9227789208312061
 20
164.7184375695580059
 30
0.0
 11
3714.9227789207297974
 21
164.7307428776580025
 31
0.0
  0
LINE
  5
145BB
  8
0
 10
3714.9227789207297974
 20
164.7184375719953948
 30
0.0
 11
3714.9289319609301856
 21
164.7281424600579953
 31
0.0
  0
LINE
  5
145BC
  8
0
 10
3714.9267971126300836
 20
164.7122792236579869
 30
0.0
 11
3714.9261576951298593
 21
164.7117142661579976
 31
0.0
  0
LINE
  5
145BD
  8
0
 10
3714.8758206328197957
 20
164.7235765519124016
 30
0.0
 11
3714.8953341601300053
 21
164.7153296824079973
 31
0.0
  0
LINE
  5
145BE
  8
0
 10
3714.8953341601300053
 20
164.7153296824079973
 30
0.0
 11
3714.9227789207297974
 21
164.7184375695080121
 31
0.0
  0
LINE
  5
145BF
  8
0
 10
3714.9261598347297877
 20
164.7117144564080036
 30
0.0
 11
3714.8967581599658843
 21
164.7083850173648045
 31
0.0
  0
ARC
  5
145C0
  8
0
 10
3714.8957917669690687
 20
164.7169190593602934
 30
0.0
 40
0.0085885847616197
 50
257.024948285579228
 51
276.4606395412957909
  0
ARC
  5
145C1
  8
0
 10
3714.8931139634059946
 20
164.7145821163769881
 30
0.0
 40
0.0060787326295796
 50
248.0581534990288048
 51
277.0819162129718052
  0
LINE
  5
145C2
  8
0
 10
3714.8908425517311116
 20
164.7089437053080019
 30
0.0
 11
3714.8691169710300528
 21
164.7181740785080137
 31
0.0
  0
ARC
  5
145C3
  8
0
 10
3714.8820291844122039
 20
164.7146664273230101
 30
0.0
 40
0.0133214971320116
 50
332.6672296267850015
 51
2.853840582330009
  0
LINE
  5
145C4
  8
0
 10
3714.8953341601231841
 20
164.7153296823072139
 30
0.0
 11
3714.8953341601300053
 21
164.7340622254897085
 31
0.0
  0
LINE
  5
145C5
  8
0
 10
3714.9690856131301189
 20
164.6778177570579942
 30
0.0
 11
3714.9621655663299862
 21
164.6669031044579867
 31
0.0
  0
ARC
  5
145C6
  8
0
 10
3714.9569818900718019
 20
164.6701896297936969
 30
0.0
 40
0.0061377315294667
 50
273.5907383043116852
 51
327.6247145926457165
  0
ARC
  5
145C7
  8
0
 10
3714.9605278401231772
 20
164.670516857909206
 30
0.0
 40
0.0071857807296463
 50
182.3493669743104135
 51
243.897846988886414
  0
LINE
  5
145C8
  8
0
 10
3714.9533480994300589
 20
164.6702222933579947
 30
0.0
 11
3714.9533480993300145
 21
164.6825276014579913
 31
0.0
  0
LINE
  5
145C9
  8
0
 10
3714.9533480993300145
 20
164.670222295795412
 30
0.0
 11
3714.959501139529948
 21
164.6799271838580125
 31
0.0
  0
LINE
  5
145CA
  8
0
 10
3714.957366291229846
 20
164.6640639474580041
 30
0.0
 11
3714.9567268737300765
 21
164.6634989899579864
 31
0.0
  0
LINE
  5
145CB
  8
0
 10
3714.9063898114200128
 20
164.6753612757123904
 30
0.0
 11
3714.9259033387302225
 21
164.6671144062079861
 31
0.0
  0
LINE
  5
145CC
  8
0
 10
3714.9259033387302225
 20
164.6671144062079861
 30
0.0
 11
3714.9533480993300145
 21
164.6702222933080009
 31
0.0
  0
LINE
  5
145CD
  8
0
 10
3714.9567290133300048
 20
164.6634991802079924
 30
0.0
 11
3714.9273273385661014
 21
164.6601697411647933
 31
0.0
  0
ARC
  5
145CE
  8
0
 10
3714.9263609455688311
 20
164.6687037831603106
 30
0.0
 40
0.0085885847616197
 50
257.024948285579228
 51
276.4606395412957909
  0
ARC
  5
145CF
  8
0
 10
3714.9236831420062117
 20
164.6663668401770053
 30
0.0
 40
0.0060787326295796
 50
248.0581534990288048
 51
277.0819162129718052
  0
LINE
  5
145D0
  8
0
 10
3714.9214117303299645
 20
164.6607284291079907
 30
0.0
 11
3714.8996861496298152
 21
164.6699588023080025
 31
0.0
  0
ARC
  5
145D1
  8
0
 10
3714.9125983630119663
 20
164.6664511511229989
 30
0.0
 40
0.0133214971320116
 50
332.6672296267850015
 51
2.853840582330009
  0
LINE
  5
145D2
  8
0
 10
3714.9259033387229465
 20
164.6671144061070891
 30
0.0
 11
3714.9259033387302225
 21
164.6863395226345972
 31
0.0
  0
LINE
  5
145D3
  8
0
 10
3714.8843110531888669
 20
164.6940562433921968
 30
0.0
 11
3714.9061275655471945
 21
164.6848358878625049
 31
0.0
  0
ARC
  5
145D4
  8
0
 10
3714.9083485435739931
 20
164.6900909991659034
 30
0.0
 40
0.005705167675471
 50
247.0895266248836037
 51
278.0551701560688116
  0
LINE
  5
145D5
  8
0
 10
3714.9091479891308154
 20
164.6844421209580105
 30
0.0
 11
3714.9420817019117749
 21
164.6881715854775052
 31
0.0
  0
ARC
  5
145D6
  8
0
 10
3714.9413339597549566
 20
164.6949114547699935
 30
0.0
 40
0.0067812208643212
 50
276.3306840042156978
 51
324.8847701127439791
  0
LINE
  5
145D7
  8
0
 10
3714.9468809770310145
 20
164.6910107425580065
 30
0.0
 11
3714.9538010237661183
 21
164.7019253952148006
 31
0.0
  0
LINE
  5
145D8
  8
0
 10
3714.9509062636311683
 20
164.7020901368580041
 30
0.0
 11
3714.9420817019117749
 21
164.6881715854775905
 31
0.0
  0
LINE
  5
145D9
  8
0
 10
3714.9420817019117749
 20
164.6881715854775905
 30
0.0
 11
3714.941444424130168
 21
164.6876068182079962
 31
0.0
  0
LINE
  5
145DA
  8
0
 10
3714.941444424130168
 20
164.6876068182079962
 30
0.0
 11
3714.912042749163902
 21
164.6842773792031949
 31
0.0
  0
ARC
  5
145DB
  8
0
 10
3714.9108497226479813
 20
164.6888291230619927
 30
0.0
 40
0.00470549513067
 50
248.798552089121614
 51
284.6870311039461967
  0
LINE
  5
145DC
  8
0
 10
3714.9091479891308154
 20
164.6844421209580105
 30
0.0
 11
3714.8850388388727879
 21
164.6946312073440879
 31
0.0
  0
ARC
  5
145DD
  8
0
 10
3714.9176279665580296
 20
165.1181345020891058
 30
0.0
 40
0.4619661903468267
 50
251.1558892313503009
 51
255.3632673572994918
  0
LINE
  5
145DE
  8
0
 10
3714.8008927044229495
 20
164.6763809373478011
 30
0.0
 11
3714.800893908352009
 21
164.6711603308714018
 31
0.0
  0
ARC
  5
145DF
  8
0
 10
3714.806477312125935
 20
164.6711616184657885
 30
0.0
 40
0.0055834039235668
 50
180.0132130366528997
 51
240.1196175053219122
  0
ARC
  5
145E0
  8
0
 10
3714.8061715534258838
 20
164.6706294662373864
 30
0.0
 40
0.0049696658871625
 50
240.1196175053210879
 51
307.0968321725342207
  0
LINE
  5
145E1
  8
0
 10
3714.8091690764299528
 20
164.6666655748580013
 30
0.0
 11
3714.8132416111739076
 21
164.6730889855269879
 31
0.0
  0
LINE
  5
145E2
  8
0
 10
3714.8036614851089325
 20
164.6752045877072135
 30
0.0
 11
3714.8009024151401718
 21
164.6708535227583923
 31
0.0
  0
ARC
  5
145E3
  8
0
 10
3714.9482563176638905
 20
165.2370969177837878
 30
0.0
 40
0.5848215549669887
 50
256.3739398407121257
 51
260.806757228059098
  0
LINE
  5
145E4
  8
0
 10
3714.8548197957429693
 20
164.6712450884155032
 30
0.0
 11
3714.8548224377518636
 21
164.6597885285127063
 31
0.0
  0
ARC
  5
145E5
  8
0
 10
3714.8604058415271538
 20
164.6597898161070077
 30
0.0
 40
0.0055834039235668
 50
180.0132130366528997
 51
240.1196175053219122
  0
ARC
  5
145E6
  8
0
 10
3714.8601000828261931
 20
164.6592576638786056
 30
0.0
 40
0.0049696658871625
 50
240.1196175053210879
 51
307.0968321725342207
  0
LINE
  5
145E7
  8
0
 10
3714.8630976058311717
 20
164.6552937724991921
 30
0.0
 11
3714.8702845380048529
 21
164.6666293705258965
 31
0.0
  0
LINE
  5
145E8
  8
0
 10
3714.8607047793648235
 20
164.668744782630398
 30
0.0
 11
3714.8548309445409359
 21
164.6594817203996968
 31
0.0
  0
LINE
  5
145E9
  8
0
 10
3714.9116278234041602
 20
164.6648852391622029
 30
0.0
 11
3714.9116305740508324
 21
164.652957586712688
 31
0.0
  0
ARC
  5
145EA
  8
0
 10
3714.9172139778270321
 20
164.6529588743069894
 30
0.0
 40
0.0055834039235668
 50
180.0132130366528997
 51
240.1196175053219122
  0
ARC
  5
145EB
  8
0
 10
3714.9169082191260713
 20
164.6524267220785873
 30
0.0
 40
0.0049696658871625
 50
240.1196175053210879
 51
307.0968321725342207
  0
LINE
  5
145EC
  8
0
 10
3714.9199057421301404
 20
164.6484628306992022
 30
0.0
 11
3714.9273281499868062
 21
164.6601698330499062
 31
0.0
  0
LINE
  5
145ED
  8
0
 10
3714.9177482192999378
 20
164.6622849156526058
 30
0.0
 11
3714.9116390808399046
 21
164.6526507785995932
 31
0.0
  0
LINE
  5
145EE
  8
0
 10
3714.9712915625650567
 20
164.657312106649897
 30
0.0
 11
3714.971293104050801
 21
164.6506277449126969
 31
0.0
  0
ARC
  5
145EF
  8
0
 10
3714.9768765078260913
 20
164.6506290325069983
 30
0.0
 40
0.0055834039235668
 50
180.0132130366528997
 51
240.1196175053219122
  0
ARC
  5
145F0
  8
0
 10
3714.97657074912604
 20
164.6500968802785962
 30
0.0
 40
0.0049696658871625
 50
240.1196175053210879
 51
307.0968321725342207
  0
LINE
  5
145F1
  8
0
 10
3714.9795682721310186
 20
164.6461329888992111
 30
0.0
 11
3714.984372442392214
 21
164.6537103726303997
 31
0.0
  0
LINE
  5
145F2
  8
0
 10
3714.9747918045259212
 20
164.6558249869250119
 30
0.0
 11
3714.9713016108407828
 21
164.6503209367996874
 31
0.0
  0
ARC
  5
145F3
  8
0
 10
3714.9663636534628495
 20
165.3487732233442955
 30
0.0
 40
0.6979649777481497
 50
261.6453900764130935
 51
265.5023568011444013
  0
ARC
  5
145F4
  8
0
 10
3714.9708866901301008
 20
165.4075485867575992
 30
0.0
 40
0.7569176798995804
 50
266.317403726033092
 51
270.030766574889924
  0
ARC
  5
145F5
  8
0
 10
3714.9712048630581194
 20
165.4010115074912903
 30
0.0
 40
0.7503775311945179
 50
270.8606155486131115
 51
274.0616243071564782
  0
LINE
  5
145F6
  8
0
 10
3715.0136814670049716
 20
164.6570293199912953
 30
0.0
 11
3715.032015382130794
 21
164.6492809819579861
 31
0.0
  0
ARC
  5
145F7
  8
0
 10
3715.0344702450051955
 20
164.6560794700210124
 30
0.0
 40
0.0072281250455723
 50
250.1458793916008858
 51
284.7309520554164237
  0
ARC
  5
145F8
  8
0
 10
3715.0356074601168075
 20
164.6549696301350991
 30
0.0
 40
0.0059223050391577
 50
276.7954333149198192
 51
346.735720514250886
  0
LINE
  5
145F9
  8
0
 10
3715.01038743718982
 20
164.6760912750779084
 30
0.0
 11
3715.0103909630302041
 21
164.6637626711579969
 31
0.0
  0
ARC
  5
145FA
  8
0
 10
3715.0171221996220083
 20
164.6637645962150032
 30
0.0
 40
0.0067312368673704
 50
180.0163859397030137
 51
246.2308293286376966
  0
LINE
  5
145FB
  8
0
 10
3715.0137697374311756
 20
164.6570393678580047
 30
0.0
 11
3715.0144091568199656
 21
164.6576043244261029
 31
0.0
  0
ARC
  5
145FC
  8
0
 10
3715.0137364298170723
 20
164.664217384569298
 30
0.0
 40
0.0066471893365149
 50
275.8085483941633242
 51
325.4069379331318146
  0
LINE
  5
145FD
  8
0
 10
3715.0192084301302202
 20
164.660443482257989
 30
0.0
 11
3715.026128476831218
 21
164.6713581349580124
 31
0.0
  0
LINE
  5
145FE
  8
0
 10
3715.0165475938470081
 20
164.6734740587328929
 30
0.0
 11
3715.0103909631311581
 21
164.6637626711136875
 31
0.0
  0
LINE
  5
145FF
  8
0
 10
3715.0204755389750062
 20
164.6624420313391113
 30
0.0
 11
3715.0413717706060197
 21
164.6536107991773861
 31
0.0
  0
LINE
  5
14600
  8
0
 10
3715.0413717654278116
 20
164.6536104980600044
 30
0.0
 11
3715.0413742877299228
 21
164.673084567116689
 31
0.0
  0
ARC
  5
14601
  8
0
 10
3714.9758775333070844
 20
165.3465807087939083
 30
0.0
 40
0.6957405165074541
 50
275.4018002587220053
 51
277.5196793476137032
  0
LINE
  5
14602
  8
0
 10
3715.0669255152060941
 20
164.6698461171725114
 30
0.0
 11
3715.0669268095412008
 21
164.6568235808078953
 31
0.0
  0
ARC
  5
14603
  8
0
 10
3715.0706064110149782
 20
164.6568239465304089
 30
0.0
 40
0.0036796014929596
 50
180.0056947360369008
 51
269.5376745649876966
  0
ARC
  5
14604
  8
0
 10
3715.0706557267308199
 20
164.662935488002006
 30
0.0
 40
0.0097913419324032
 50
269.5376745649876966
 51
314.0807037694672772
  0
LINE
  5
14605
  8
0
 10
3715.0774672784300492
 20
164.6559017734579982
 30
0.0
 11
3715.0831713405650589
 21
164.6648985128117033
 31
0.0
  0
LINE
  5
14606
  8
0
 10
3715.0735868670349191
 20
164.6670079394660036
 30
0.0
 11
3715.0669391516680662
 21
164.6565228219261883
 31
0.0
  0
LINE
  5
14607
  8
0
 10
3715.0958011012189672
 20
164.8776799238625017
 30
0.0
 11
3715.1153146285300863
 21
164.8694330543580122
 31
0.0
  0
LINE
  5
14608
  8
0
 10
3715.1153146285300863
 20
164.8694330543580122
 30
0.0
 11
3715.1427593891307879
 21
164.8725409414579985
 31
0.0
  0
LINE
  5
14609
  8
0
 10
3715.1427593891307879
 20
164.8725409414579985
 30
0.0
 11
3715.1455909471637824
 21
164.8770070200488078
 31
0.0
  0
LINE
  5
1460A
  8
0
 10
3715.1548129762359167
 20
164.8743259272766011
 30
0.0
 11
3715.1515768561298501
 21
164.8692217526580066
 31
0.0
  0
ARC
  5
1460B
  8
0
 10
3715.1463931797261466
 20
164.8725082780391062
 30
0.0
 40
0.006137731677458
 50
273.5907386522050047
 51
327.6247149670783188
  0
LINE
  5
1460C
  8
0
 10
3715.1467775809301202
 20
164.866382595558008
 30
0.0
 11
3715.1461403031307782
 21
164.86581782835799
 31
0.0
  0
LINE
  5
1460D
  8
0
 10
3715.1461403031307782
 20
164.86581782835799
 30
0.0
 11
3715.1167386283659653
 21
164.862488389314791
 31
0.0
  0
ARC
  5
1460E
  8
0
 10
3715.1157722353677855
 20
164.8710224313103083
 30
0.0
 40
0.0085885847616197
 50
257.024948285579228
 51
276.4606395412957909
  0
ARC
  5
1460F
  8
0
 10
3715.1130944318060756
 20
164.868685488327003
 30
0.0
 40
0.0060787326295796
 50
248.0581534990288048
 51
277.0819162129718052
  0
LINE
  5
14610
  8
0
 10
3715.1108230201298284
 20
164.8630470772579883
 30
0.0
 11
3715.0890974394301338
 21
164.8722774504580002
 31
0.0
  0
ARC
  5
14611
  8
0
 10
3715.1020096528118302
 20
164.8687697992729966
 30
0.0
 40
0.0133214971320116
 50
332.6672296267850015
 51
2.853840582330009
  0
LINE
  5
14612
  8
0
 10
3715.1153146285228104
 20
164.8694330542572004
 30
0.0
 11
3715.1153146285291768
 21
164.8845957461726073
 31
0.0
  0
LINE
  5
14613
  8
0
 10
3715.1427593891307879
 20
164.8777951134277089
 30
0.0
 11
3715.1427593891307879
 21
164.8725409414579985
 31
0.0
  0
ARC
  5
14614
  8
0
 10
3715.1499391464908513
 20
164.8728355168840949
 30
0.0
 40
0.0071857978285074
 50
182.3494481645940084
 51
243.8977657986148984
  0
LINE
  5
14615
  8
0
 10
3715.1110856904201682
 20
164.8535722857124028
 30
0.0
 11
3715.1305992177299231
 21
164.8453254162079986
 31
0.0
  0
LINE
  5
14616
  8
0
 10
3715.1305992177299231
 20
164.8453254162079986
 30
0.0
 11
3715.1580439783301699
 21
164.8484333033080134
 31
0.0
  0
LINE
  5
14617
  8
0
 10
3715.1580439783301699
 20
164.8484333033080134
 30
0.0
 11
3715.1641970184150523
 21
164.8581381937835886
 31
0.0
  0
LINE
  5
14618
  8
0
 10
3715.1737814920061282
 20
164.856028767069688
 30
0.0
 11
3715.1668614453301416
 21
164.845114114507993
 31
0.0
  0
ARC
  5
14619
  8
0
 10
3715.1616777689259834
 20
164.8484006398890074
 30
0.0
 40
0.006137731677458
 50
273.5907386522050047
 51
327.6247149670783188
  0
LINE
  5
1461A
  8
0
 10
3715.1620621701299569
 20
164.8422749574079944
 30
0.0
 11
3715.1614248923301602
 21
164.8417101902080049
 31
0.0
  0
LINE
  5
1461B
  8
0
 10
3715.1614248923301602
 20
164.8417101902080049
 30
0.0
 11
3715.1320232175671663
 21
164.8383807511648058
 31
0.0
  0
ARC
  5
1461C
  8
0
 10
3715.1310568245689865
 20
164.8469147931602947
 30
0.0
 40
0.0085885847616197
 50
257.024948285579228
 51
276.4606395412957909
  0
ARC
  5
1461D
  8
0
 10
3715.1283790210059124
 20
164.8445778501769894
 30
0.0
 40
0.0060787326295796
 50
248.0581534990288048
 51
277.0819162129718052
  0
LINE
  5
1461E
  8
0
 10
3715.1261076093301199
 20
164.8389394391080032
 30
0.0
 11
3715.1043820286299706
 21
164.8481698123079866
 31
0.0
  0
ARC
  5
1461F
  8
0
 10
3715.1172942420130312
 20
164.8446621611230114
 30
0.0
 40
0.0133214971320116
 50
332.6672296267850015
 51
2.853840582330009
  0
LINE
  5
14620
  8
0
 10
3715.1305992177231019
 20
164.8453254161071868
 30
0.0
 11
3715.1305992177308326
 21
164.8640579593397035
 31
0.0
  0
LINE
  5
14621
  8
0
 10
3715.1580439783301699
 20
164.8607386113428959
 30
0.0
 11
3715.1580439783301699
 21
164.8484333033080134
 31
0.0
  0
ARC
  5
14622
  8
0
 10
3715.1652237356911428
 20
164.8487278787341097
 30
0.0
 40
0.0071857978285074
 50
182.3494481645940084
 51
243.8977657986148984
  0
LINE
  5
14623
  8
0
 10
3715.1263702797191399
 20
164.8294646476124967
 30
0.0
 11
3715.1458838070311685
 21
164.8212177781080072
 31
0.0
  0
LINE
  5
14624
  8
0
 10
3715.1458838070311685
 20
164.8212177781080072
 30
0.0
 11
3715.1733285676300511
 21
164.8243256652079936
 31
0.0
  0
LINE
  5
14625
  8
0
 10
3715.1733285676300511
 20
164.8243256652079936
 30
0.0
 11
3715.1794816077149335
 21
164.8340305556835972
 31
0.0
  0
LINE
  5
14626
  8
0
 10
3715.1890660813060094
 20
164.8319211289696966
 30
0.0
 11
3715.1821460346300228
 21
164.8210064764080016
 31
0.0
  0
ARC
  5
14627
  8
0
 10
3715.1769623582258646
 20
164.8242930017889876
 30
0.0
 40
0.006137731677458
 50
273.5907386522050047
 51
327.6247149670783188
  0
LINE
  5
14628
  8
0
 10
3715.1773467594312024
 20
164.818167319308003
 30
0.0
 11
3715.1767094816300414
 21
164.8176025521080135
 31
0.0
  0
LINE
  5
14629
  8
0
 10
3715.1767094816300414
 20
164.8176025521080135
 30
0.0
 11
3715.147307806866138
 21
164.814273113064786
 31
0.0
  0
ARC
  5
1462A
  8
0
 10
3715.1463414138688677
 20
164.8228071550603033
 30
0.0
 40
0.0085885847616197
 50
257.024948285579228
 51
276.4606395412957909
  0
ARC
  5
1462B
  8
0
 10
3715.1436636103057936
 20
164.820470212076998
 30
0.0
 40
0.0060787326295796
 50
248.0581534990288048
 51
277.0819162129718052
  0
LINE
  5
1462C
  8
0
 10
3715.1413921986300011
 20
164.8148318010080118
 30
0.0
 11
3715.1196666179298518
 21
164.8240621742079952
 31
0.0
  0
ARC
  5
1462D
  8
0
 10
3715.1325788313120029
 20
164.8205545230229916
 30
0.0
 40
0.0133214971320116
 50
332.6672296267850015
 51
2.853840582330009
  0
LINE
  5
1462E
  8
0
 10
3715.1458838070238926
 20
164.8212177780071954
 30
0.0
 11
3715.1458838070311685
 21
164.8399503212010018
 31
0.0
  0
LINE
  5
1462F
  8
0
 10
3715.1733285676300511
 20
164.8366309732429045
 30
0.0
 11
3715.1733285676300511
 21
164.8243256652079936
 31
0.0
  0
ARC
  5
14630
  8
0
 10
3715.180508324991024
 20
164.8246202406340899
 30
0.0
 40
0.0071857978285074
 50
182.3494481645940084
 51
243.8977657986148984
  0
LINE
  5
14631
  8
0
 10
3715.1569394583198118
 20
164.7812493714124003
 30
0.0
 11
3715.1764529856300214
 21
164.773002501907996
 31
0.0
  0
LINE
  5
14632
  8
0
 10
3715.1764529856300214
 20
164.773002501907996
 30
0.0
 11
3715.2038977462298135
 21
164.7761103890080108
 31
0.0
  0
LINE
  5
14633
  8
0
 10
3715.2038977462298135
 20
164.7761103890080108
 30
0.0
 11
3715.2100507863151506
 21
164.7858152794836997
 31
0.0
  0
LINE
  5
14634
  8
0
 10
3715.2196352599062266
 20
164.7837058527697991
 30
0.0
 11
3715.2127152132297851
 21
164.7727912002079904
 31
0.0
  0
ARC
  5
14635
  8
0
 10
3715.2075315368260817
 20
164.7760777255890048
 30
0.0
 40
0.006137731677458
 50
273.5907386522050047
 51
327.6247149670783188
  0
LINE
  5
14636
  8
0
 10
3715.2079159380300553
 20
164.7699520431079918
 30
0.0
 11
3715.2072786602298038
 21
164.7693872759080023
 31
0.0
  0
LINE
  5
14637
  8
0
 10
3715.2072786602298038
 20
164.7693872759080023
 30
0.0
 11
3715.1778769854668099
 21
164.7660578368648032
 31
0.0
  0
ARC
  5
14638
  8
0
 10
3715.1769105924690848
 20
164.7745918788602921
 30
0.0
 40
0.0085885847616197
 50
257.024948285579228
 51
276.4606395412957909
  0
ARC
  5
14639
  8
0
 10
3715.1742327889060107
 20
164.7722549358769868
 30
0.0
 40
0.0060787326295796
 50
248.0581534990288048
 51
277.0819162129718052
  0
LINE
  5
1463A
  8
0
 10
3715.1719613772302182
 20
164.7666165248080006
 30
0.0
 11
3715.1502357965300689
 21
164.7758468980080124
 31
0.0
  0
ARC
  5
1463B
  8
0
 10
3715.16314800991222
 20
164.7723392468230088
 30
0.0
 40
0.0133214971320116
 50
332.6672296267850015
 51
2.853840582330009
  0
LINE
  5
1463C
  8
0
 10
3715.1764529856232002
 20
164.7730025018072126
 30
0.0
 11
3715.1764529856300214
 21
164.7917350449542937
 31
0.0
  0
LINE
  5
1463D
  8
0
 10
3715.2038977462298135
 20
164.7884156970428933
 30
0.0
 11
3715.2038977462298135
 21
164.7761103890080108
 31
0.0
  0
ARC
  5
1463E
  8
0
 10
3715.2110775035898769
 20
164.7764049644341071
 30
0.0
 40
0.0071857978285074
 50
182.3494481645940084
 51
243.8977657986148984
  0
LINE
  5
1463F
  8
0
 10
3715.1722240475701255
 20
164.7571417332625003
 30
0.0
 11
3715.1917375748798804
 21
164.7488948637580108
 31
0.0
  0
LINE
  5
14640
  8
0
 10
3715.1917375748798804
 20
164.7488948637580108
 30
0.0
 11
3715.2191823354810367
 21
164.7520027508579972
 31
0.0
  0
LINE
  5
14641
  8
0
 10
3715.2191823354810367
 20
164.7520027508579972
 30
0.0
 11
3715.2253353755650096
 21
164.7617076413336008
 31
0.0
  0
LINE
  5
14642
  8
0
 10
3715.2349198491560855
 20
164.7595982146197002
 30
0.0
 11
3715.2279998024800989
 21
164.7486835620580052
 31
0.0
  0
ARC
  5
14643
  8
0
 10
3715.2228161260759407
 20
164.7519700874389912
 30
0.0
 40
0.006137731677458
 50
273.5907386522050047
 51
327.6247149670783188
  0
LINE
  5
14644
  8
0
 10
3715.2232005272808237
 20
164.7458444049580066
 30
0.0
 11
3715.222563249481027
 21
164.7452796377579887
 31
0.0
  0
LINE
  5
14645
  8
0
 10
3715.222563249481027
 20
164.7452796377579887
 30
0.0
 11
3715.1931615747171236
 21
164.7419501987147896
 31
0.0
  0
ARC
  5
14646
  8
0
 10
3715.1921951817189438
 20
164.7504842407103069
 30
0.0
 40
0.0085885847616197
 50
257.024948285579228
 51
276.4606395412957909
  0
ARC
  5
14647
  8
0
 10
3715.1895173781549602
 20
164.7481472977270016
 30
0.0
 40
0.0060787326295796
 50
248.0581534990288048
 51
277.0819162129718052
  0
LINE
  5
14648
  8
0
 10
3715.1872459664800772
 20
164.742508886657987
 30
0.0
 11
3715.1655203857799279
 21
164.7517392598579988
 31
0.0
  0
ARC
  5
14649
  8
0
 10
3715.178432599162079
 20
164.7482316086729952
 30
0.0
 40
0.0133214971320116
 50
332.6672296267850015
 51
2.853840582330009
  0
LINE
  5
1464A
  8
0
 10
3715.1917375748730592
 20
164.748894863657199
 30
0.0
 11
3715.1917375748798804
 21
164.7676041991473994
 31
0.0
  0
LINE
  5
1464B
  8
0
 10
3715.2191823354810367
 20
164.7643080588929081
 30
0.0
 11
3715.2191823354810367
 21
164.7520027508579972
 31
0.0
  0
ARC
  5
1464C
  8
0
 10
3715.2263620928401906
 20
164.7522973262840935
 30
0.0
 40
0.0071857978285074
 50
182.3494481645940084
 51
243.8977657986148984
  0
LINE
  5
1464D
  8
0
 10
3715.1875086368199845
 20
164.7330340951625089
 30
0.0
 11
3715.2070221641301941
 21
164.724787225657991
 31
0.0
  0
LINE
  5
1464E
  8
0
 10
3715.2070221641301941
 20
164.724787225657991
 30
0.0
 11
3715.2344669247299862
 21
164.7278951127580058
 31
0.0
  0
LINE
  5
1464F
  8
0
 10
3715.2344669247299862
 20
164.7278951127580058
 30
0.0
 11
3715.2406199648148686
 21
164.7376000032336947
 31
0.0
  0
LINE
  5
14650
  8
0
 10
3715.2502044384059445
 20
164.7354905765197088
 30
0.0
 11
3715.2432843917308674
 21
164.7245759239580138
 31
0.0
  0
ARC
  5
14651
  8
0
 10
3715.2381007153257997
 20
164.7278624493389998
 30
0.0
 40
0.006137731677458
 50
273.5907386522050047
 51
327.6247149670783188
  0
LINE
  5
14652
  8
0
 10
3715.2384851165297732
 20
164.7217367668579868
 30
0.0
 11
3715.2378478387299765
 21
164.7211719996579973
 31
0.0
  0
LINE
  5
14653
  8
0
 10
3715.2378478387299765
 20
164.7211719996579973
 30
0.0
 11
3715.2084461639660731
 21
164.7178425606147982
 31
0.0
  0
ARC
  5
14654
  8
0
 10
3715.2074797709688028
 20
164.7263766026104008
 30
0.0
 40
0.0085885847616197
 50
257.024948285579228
 51
276.4606395412957909
  0
ARC
  5
14655
  8
0
 10
3715.2048019674061834
 20
164.7240396596270102
 30
0.0
 40
0.0060787326295796
 50
248.0581534990288048
 51
277.0819162129718052
  0
LINE
  5
14656
  8
0
 10
3715.2025305557308457
 20
164.7184012485579956
 30
0.0
 11
3715.1808049750297869
 21
164.7276316217580074
 31
0.0
  0
ARC
  5
14657
  8
0
 10
3715.193717188411938
 20
164.7241239705730038
 30
0.0
 40
0.0133214971320116
 50
332.6672296267850015
 51
2.853840582330009
  0
LINE
  5
14658
  8
0
 10
3715.2070221641229182
 20
164.7247872255572076
 30
0.0
 11
3715.2070221641301941
 21
164.7435197687453012
 31
0.0
  0
LINE
  5
14659
  8
0
 10
3715.2344669247299862
 20
164.7402004207928883
 30
0.0
 11
3715.2344669247299862
 21
164.7278951127580058
 31
0.0
  0
ARC
  5
1465A
  8
0
 10
3715.2416466820900496
 20
164.7281896881841021
 30
0.0
 40
0.0071857978285074
 50
182.3494481645940084
 51
243.8977657986148984
  0
LINE
  5
1465B
  8
0
 10
3715.2296869318370227
 20
164.7507296748962915
 30
0.0
 11
3715.2492004591467776
 21
164.742482805391802
 31
0.0
  0
LINE
  5
1465C
  8
0
 10
3715.2492004591467776
 20
164.742482805391802
 30
0.0
 11
3715.2766452197470244
 21
164.7455906924917883
 31
0.0
  0
LINE
  5
1465D
  8
0
 10
3715.2766452197470244
 20
164.7455906924917883
 30
0.0
 11
3715.2826857157401719
 21
164.7551180726528059
 31
0.0
  0
LINE
  5
1465E
  8
0
 10
3715.2759104526599003
 20
164.7384015205904007
 30
0.0
 11
3715.2506244589831113
 21
164.7355381403486092
 31
0.0
  0
ARC
  5
1465F
  8
0
 10
3715.2496580659849315
 20
164.7440721823442118
 30
0.0
 40
0.0085885847616197
 50
257.024948285579228
 51
276.4606395412957909
  0
ARC
  5
14660
  8
0
 10
3715.2469802624232216
 20
164.7417352393607928
 30
0.0
 40
0.0060787326295796
 50
248.0581534990288048
 51
277.0819162129718052
  0
LINE
  5
14661
  8
0
 10
3715.2447088507469743
 20
164.7360968282918066
 30
0.0
 11
3715.2229832700468251
 21
164.74532720149179
 31
0.0
  0
ARC
  5
14662
  8
0
 10
3715.2358954834289761
 20
164.7418195503067864
 30
0.0
 40
0.0133214971320116
 50
332.6672296267850015
 51
2.853840582330009
  0
LINE
  5
14663
  8
0
 10
3715.2492004591390469
 20
164.7424828052909902
 30
0.0
 11
3715.2492004591467776
 21
164.7612153477298875
 31
0.0
  0
LINE
  5
14664
  8
0
 10
3715.2766452197470244
 20
164.7576709264363046
 30
0.0
 11
3715.2766452197470244
 21
164.7455906924917883
 31
0.0
  0
ARC
  5
14665
  8
0
 10
3715.2838249771070878
 20
164.7458852679179131
 30
0.0
 40
0.0071857978285074
 50
182.3494481645940084
 51
216.4875179775463039
  0
LINE
  5
14666
  8
0
 10
3715.2139823220200014
 20
164.7747897492124025
 30
0.0
 11
3715.2334958493311206
 21
164.7665428797079983
 31
0.0
  0
LINE
  5
14667
  8
0
 10
3715.2334958493311206
 20
164.7665428797079983
 30
0.0
 11
3715.2609406099300031
 21
164.769650766808013
 31
0.0
  0
LINE
  5
14668
  8
0
 10
3715.2609406099300031
 20
164.769650766808013
 30
0.0
 11
3715.2670936500148855
 21
164.7793556572835882
 31
0.0
  0
LINE
  5
14669
  8
0
 10
3715.2766781236059614
 20
164.7772462305696877
 30
0.0
 11
3715.2697580769299748
 21
164.7663315780079927
 31
0.0
  0
ARC
  5
1466A
  8
0
 10
3715.2645744005271808
 20
164.769618103389007
 30
0.0
 40
0.006137731677458
 50
273.5907386522050047
 51
327.6247149670783188
  0
LINE
  5
1466B
  8
0
 10
3715.2649588017311544
 20
164.7634924209079941
 30
0.0
 11
3715.2643215239299934
 21
164.7629276537080045
 31
0.0
  0
LINE
  5
1466C
  8
0
 10
3715.2643215239299934
 20
164.7629276537080045
 30
0.0
 11
3715.23491984916609
 21
164.7595982146648055
 31
0.0
  0
ARC
  5
1466D
  8
0
 10
3715.2339534561688197
 20
164.7681322566602944
 30
0.0
 40
0.0085885847616197
 50
257.024948285579228
 51
276.4606395412957909
  0
ARC
  5
1466E
  8
0
 10
3715.2312756526048361
 20
164.7657953136769891
 30
0.0
 40
0.0060787326295796
 50
248.0581534990288048
 51
277.0819162129718052
  0
LINE
  5
1466F
  8
0
 10
3715.2290042409299531
 20
164.7601569026080028
 30
0.0
 11
3715.2072786602298038
 21
164.7693872758079863
 31
0.0
  0
ARC
  5
14670
  8
0
 10
3715.2201908736119549
 20
164.7658796246230111
 30
0.0
 40
0.0133214971320116
 50
332.6672296267850015
 51
2.853840582330009
  0
LINE
  5
14671
  8
0
 10
3715.2334958493229351
 20
164.7665428796071865
 30
0.0
 11
3715.2334958493311206
 21
164.7852754228453023
 31
0.0
  0
LINE
  5
14672
  8
0
 10
3715.2609406099300031
 20
164.7819560748428955
 30
0.0
 11
3715.2609406099300031
 21
164.769650766808013
 31
0.0
  0
ARC
  5
14673
  8
0
 10
3715.2681203672900665
 20
164.7699453422341094
 30
0.0
 40
0.0071857978285074
 50
182.3494481645940084
 51
243.8977657986148984
  0
LINE
  5
14674
  8
0
 10
3715.1986977327701425
 20
164.7988973873625014
 30
0.0
 11
3715.2182112600808068
 21
164.7906505178580119
 31
0.0
  0
LINE
  5
14675
  8
0
 10
3715.2182112600808068
 20
164.7906505178580119
 30
0.0
 11
3715.2456560206801441
 21
164.7937584049579982
 31
0.0
  0
LINE
  5
14676
  8
0
 10
3715.2456560206801441
 20
164.7937584049579982
 30
0.0
 11
3715.2518090607650265
 21
164.8034632954336018
 31
0.0
  0
LINE
  5
14677
  8
0
 10
3715.2613935343561025
 20
164.8013538687197013
 30
0.0
 11
3715.2544734876810253
 21
164.7904392161580063
 31
0.0
  0
ARC
  5
14678
  8
0
 10
3715.2492898112759576
 20
164.7937257415389922
 30
0.0
 40
0.006137731677458
 50
273.5907386522050047
 51
327.6247149670783188
  0
LINE
  5
14679
  8
0
 10
3715.2496742124799312
 20
164.7876000590580077
 30
0.0
 11
3715.2490369346801344
 21
164.7870352918579897
 31
0.0
  0
LINE
  5
1467A
  8
0
 10
3715.2490369346801344
 20
164.7870352918579897
 30
0.0
 11
3715.2196352599157763
 21
164.7837058528147907
 31
0.0
  0
ARC
  5
1467B
  8
0
 10
3715.2186688669180512
 20
164.7922398948103933
 30
0.0
 40
0.0085885847616197
 50
257.024948285579228
 51
276.4606395412957909
  0
ARC
  5
1467C
  8
0
 10
3715.2159910633558866
 20
164.7899029518270027
 30
0.0
 40
0.0060787326295796
 50
248.0581534990288048
 51
277.0819162129718052
  0
LINE
  5
1467D
  8
0
 10
3715.2137196516810036
 20
164.784264540757988
 30
0.0
 11
3715.1919940709799448
 21
164.7934949139579999
 31
0.0
  0
ARC
  5
1467E
  8
0
 10
3715.2049062843630054
 20
164.7899872627729962
 30
0.0
 40
0.0133214971320116
 50
332.6672296267850015
 51
2.853840582330009
  0
LINE
  5
1467F
  8
0
 10
3715.2182112600730761
 20
164.7906505177570864
 30
0.0
 11
3715.2182112600808068
 21
164.8093830609452937
 31
0.0
  0
LINE
  5
14680
  8
0
 10
3715.2456560206801441
 20
164.8060637129929091
 30
0.0
 11
3715.2456560206801441
 21
164.7937584049579982
 31
0.0
  0
ARC
  5
14681
  8
0
 10
3715.2528357780402075
 20
164.7940529803840946
 30
0.0
 40
0.0071857978285074
 50
182.3494481645940084
 51
243.8977657986148984
  0
LINE
  5
14682
  8
0
 10
3715.1834131435198287
 20
164.8230050254624928
 30
0.0
 11
3715.2029266708300383
 21
164.8147581559580033
 31
0.0
  0
LINE
  5
14683
  8
0
 10
3715.2029266708300383
 20
164.8147581559580033
 30
0.0
 11
3715.2303714314311947
 21
164.8178660430579896
 31
0.0
  0
LINE
  5
14684
  8
0
 10
3715.2303714314311947
 20
164.8178660430579896
 30
0.0
 11
3715.2365244715151675
 21
164.8275709335335932
 31
0.0
  0
LINE
  5
14685
  8
0
 10
3715.2461089451057887
 20
164.8254615068196927
 30
0.0
 11
3715.2391888984311663
 21
164.8145468542579977
 31
0.0
  0
ARC
  5
14686
  8
0
 10
3715.2340052220260986
 20
164.817833379639012
 30
0.0
 40
0.006137731677458
 50
273.5907386522050047
 51
327.6247149670783188
  0
LINE
  5
14687
  8
0
 10
3715.2343896232300722
 20
164.8117076971579991
 30
0.0
 11
3715.2337523454311849
 21
164.8111429299580095
 31
0.0
  0
LINE
  5
14688
  8
0
 10
3715.2337523454311849
 20
164.8111429299580095
 30
0.0
 11
3715.2043506706659173
 21
164.8078134909148105
 31
0.0
  0
ARC
  5
14689
  8
0
 10
3715.2033842776681922
 20
164.8163475329102994
 30
0.0
 40
0.0085885847616197
 50
257.024948285579228
 51
276.4606395412957909
  0
ARC
  5
1468A
  8
0
 10
3715.2007064741060276
 20
164.814010589926994
 30
0.0
 40
0.0060787326295796
 50
248.0581534990288048
 51
277.0819162129718052
  0
LINE
  5
1468B
  8
0
 10
3715.1984350624297804
 20
164.8083721788580078
 30
0.0
 11
3715.1767094817300858
 21
164.8176025520579913
 31
0.0
  0
ARC
  5
1468C
  8
0
 10
3715.1896216951117822
 20
164.8140949008729876
 30
0.0
 40
0.0133214971320116
 50
332.6672296267850015
 51
2.853840582330009
  0
LINE
  5
1468D
  8
0
 10
3715.2029266708232171
 20
164.8147581558571915
 30
0.0
 11
3715.2029266708300383
 21
164.8334906991009916
 31
0.0
  0
LINE
  5
1468E
  8
0
 10
3715.2303714314311947
 20
164.8301713510929005
 30
0.0
 11
3715.2303714314311947
 21
164.8178660430579896
 31
0.0
  0
ARC
  5
1468F
  8
0
 10
3715.2375511887908033
 20
164.8181606184840859
 30
0.0
 40
0.0071857978285074
 50
182.3494481645940084
 51
243.8977657986148984
  0
LINE
  5
14690
  8
0
 10
3715.1681285542199475
 20
164.8471126636123927
 30
0.0
 11
3715.1876420815310667
 21
164.8388657941079884
 31
0.0
  0
LINE
  5
14691
  8
0
 10
3715.1876420815310667
 20
164.8388657941079884
 30
0.0
 11
3715.2150868421299492
 21
164.8419736812080032
 31
0.0
  0
LINE
  5
14692
  8
0
 10
3715.2150868421299492
 20
164.8419736812080032
 30
0.0
 11
3715.2191014050149533
 21
164.8483056557381019
 31
0.0
  0
LINE
  5
14693
  8
0
 10
3715.2270873190359453
 20
164.843674898893596
 30
0.0
 11
3715.2239043091308304
 21
164.8386544924080113
 31
0.0
  0
ARC
  5
14694
  8
0
 10
3715.2187206327262174
 20
164.8419410177889972
 30
0.0
 40
0.006137731677458
 50
273.5907386522050047
 51
327.6247149670783188
  0
LINE
  5
14695
  8
0
 10
3715.2191050339311005
 20
164.8358153353080127
 30
0.0
 11
3715.2184677561299395
 21
164.8352505681079947
 31
0.0
  0
LINE
  5
14696
  8
0
 10
3715.2184677561299395
 20
164.8352505681079947
 30
0.0
 11
3715.1890660813669456
 21
164.8319211290647957
 31
0.0
  0
ARC
  5
14697
  8
0
 10
3715.1880996883692205
 20
164.840455171060313
 30
0.0
 40
0.0085885847616197
 50
257.024948285579228
 51
276.4606395412957909
  0
ARC
  5
14698
  8
0
 10
3715.1854218848061464
 20
164.8381182280770076
 30
0.0
 40
0.0060787326295796
 50
248.0581534990288048
 51
277.0819162129718052
  0
LINE
  5
14699
  8
0
 10
3715.1831504731298992
 20
164.832479817007993
 30
0.0
 11
3715.1614248924311141
 21
164.8417101902080049
 31
0.0
  0
ARC
  5
1469A
  8
0
 10
3715.174337105811901
 20
164.8382025390230012
 30
0.0
 40
0.0133214971320116
 50
332.6672296267850015
 51
2.853840582330009
  0
LINE
  5
1469B
  8
0
 10
3715.1876420815228812
 20
164.8388657940070914
 30
0.0
 11
3715.1876420815310667
 21
164.8575751294974054
 31
0.0
  0
LINE
  5
1469C
  8
0
 10
3715.2150868421299492
 20
164.8504976240674011
 30
0.0
 11
3715.2150868421299492
 21
164.8419736812080032
 31
0.0
  0
ARC
  5
1469D
  8
0
 10
3715.2222665994909221
 20
164.8422682566340995
 30
0.0
 40
0.0071857978285074
 50
182.3494481645940084
 51
243.8977657986148984
  0
LINE
  5
1469E
  8
0
 10
3714.9339680166799553
 20
164.7843008617080045
 30
0.0
 11
3714.9339680166799553
 21
164.7966279676400063
 31
0.0
  0
LINE
  5
1469F
  8
0
 10
3714.9339680166799553
 20
164.7843008616790996
 30
0.0
 11
3714.9401251956592205
 21
164.7940120163974882
 31
0.0
  0
ARC
  5
146A0
  8
0
 10
3714.9411337251508485
 20
164.7845862705451907
 30
0.0
 40
0.0071713900566755
 50
182.2808742429035078
 51
243.966339720296304
  0
LINE
  5
146A1
  8
0
 10
3714.9373467910299951
 20
164.77757755835799
 30
0.0
 11
3714.9379862085311288
 21
164.7781425158580078
 31
0.0
  0
LINE
  5
146A2
  8
0
 10
3714.9379862085311288
 20
164.7781425158580078
 30
0.0
 11
3714.9468107703978603
 21
164.7920610674231909
 31
0.0
  0
LINE
  5
146A3
  8
0
 10
3714.9379862085311288
 20
164.7781425158580078
 30
0.0
 11
3714.9620953595299397
 21
164.7679534290579966
 31
0.0
  0
ARC
  5
146A4
  8
0
 10
3714.963796582283976
 20
164.772331455204295
 30
0.0
 40
0.0046969428137658
 50
248.7647628294843969
 51
284.7208209258400871
  0
LINE
  5
146A5
  8
0
 10
3714.9649901197308282
 20
164.7677886873080126
 30
0.0
 11
3714.9943917946297915
 21
164.7711181263580045
 31
0.0
  0
LINE
  5
146A6
  8
0
 10
3714.9950290722022146
 20
164.7716828934557043
 30
0.0
 11
3714.9620953595299397
 21
164.7679534290579966
 31
0.0
  0
ARC
  5
146A7
  8
0
 10
3714.9613816240557753
 20
164.7742561997872031
 30
0.0
 40
0.0063430542480041
 50
248.6613069548803026
 51
276.4607394696724896
  0
LINE
  5
146A8
  8
0
 10
3714.9590735113301889
 20
164.7683479891580021
 30
0.0
 11
3714.9372585206037911
 21
164.7775675105912967
 31
0.0
  0
LINE
  5
146A9
  8
0
 10
3714.8734578772509849
 20
164.892771222974801
 30
0.0
 11
3714.8826519424278558
 21
164.8888854064767884
 31
0.0
  0
ARC
  5
146AA
  8
0
 10
3714.8848729641358659
 20
164.8941404714929888
 30
0.0
 40
0.0057051420445877
 50
247.0889415888402141
 51
278.0552414577722971
  0
ARC
  5
146AB
  8
0
 10
3714.8874340447850955
 20
164.8939311210089897
 30
0.0
 40
0.0057176499573288
 50
252.0549854156687104
 51
281.4305983396236002
  0
LINE
  5
146AC
  8
0
 10
3714.8885671733310119
 20
164.888326877908014
 30
0.0
 11
3714.9179688481299308
 21
164.8916563169580058
 31
0.0
  0
LINE
  5
146AD
  8
0
 10
3714.9179688481299308
 20
164.8916563169580058
 30
0.0
 11
3714.9186061259301823
 21
164.8922210842580114
 31
0.0
  0
ARC
  5
146AE
  8
0
 10
3714.9222580360569737
 20
164.8990839782939872
 30
0.0
 40
0.0077740441288603
 50
194.2545394978118054
 51
241.9814886685531121
  0
ARC
  5
146AF
  8
0
 10
3714.9179454774448459
 20
164.8988137315841129
 30
0.0
 40
0.0066256663957238
 50
275.7224998239548199
 51
325.4929530726964799
  0
LINE
  5
146B0
  8
0
 10
3714.9234054010307773
 20
164.895060241257994
 30
0.0
 11
3714.9252100649300701
 21
164.8979066496580117
 31
0.0
  0
LINE
  5
146B1
  8
0
 10
3714.9246725099301329
 20
164.8970587903583862
 30
0.0
 11
3714.9441860372307929
 21
164.8888119208579894
 31
0.0
  0
LINE
  5
146B2
  8
0
 10
3714.9441860372307929
 20
164.8888119208579894
 30
0.0
 11
3714.9716307960770791
 21
164.891919807759507
 31
0.0
  0
LINE
  5
146B3
  8
0
 10
3714.9441811565629905
 20
164.8988516403379947
 30
0.0
 11
3714.9441860371312032
 21
164.8888119207580019
 31
0.0
  0
ARC
  5
146B4
  8
0
 10
3714.9278601678897758
 20
164.8888039843297975
 30
0.0
 40
0.016325871168923
 50
335.4932183964764931
 51
0.0278529612193703
  0
ARC
  5
146B5
  8
0
 10
3714.9419656617651526
 20
164.888062985164396
 30
0.0
 40
0.0060773953635944
 50
248.0548923773017975
 51
277.0851805782335191
  0
LINE
  5
146B6
  8
0
 10
3714.9396944289301246
 20
164.882425943757994
 30
0.0
 11
3714.9178784379218996
 21
164.8916460789262999
 31
0.0
  0
ARC
  5
146B7
  8
0
 10
3714.9444044745619067
 20
164.8861987238097981
 30
0.0
 40
0.0044961090176938
 50
247.9322860043961043
 51
285.5532987484078262
  0
LINE
  5
146B8
  8
0
 10
3714.9456100372549372
 20
164.8818672558261937
 30
0.0
 11
3714.9750117118801427
 21
164.8851966948080019
 31
0.0
  0
LINE
  5
146B9
  8
0
 10
3715.0306678061410821
 20
164.8969258705535026
 30
0.0
 11
3715.0384945669297849
 21
164.8936149513579892
 31
0.0
  0
ARC
  5
146BA
  8
0
 10
3715.0407173122521272
 20
164.8988693519937101
 30
0.0
 40
0.0057052013816202
 50
247.0703998711734073
 51
278.0516465533505084
  0
ARC
  5
146BB
  8
0
 10
3715.0432780466949225
 20
164.8986598936191967
 30
0.0
 40
0.0057176508903528
 50
252.0549894034959948
 51
281.430596621712084
  0
LINE
  5
146BC
  8
0
 10
3715.0444111752558456
 20
164.8930556495697033
 30
0.0
 11
3715.0561092355319488
 21
164.8943812460724985
 31
0.0
  0
ARC
  5
146BD
  8
0
 10
3715.0341056608731378
 20
164.8974726173350973
 30
0.0
 40
0.008544045018366
 50
330.1531725293780823
 51
349.0962873178407904
  0
LINE
  5
146BE
  8
0
 10
3715.089611429290926
 20
164.889621058333887
 30
0.0
 11
3715.0918695654149815
 21
164.8887054540836061
 31
0.0
  0
ARC
  5
146BF
  8
0
 10
3715.0407788256170534
 20
164.7627014025329117
 30
0.0
 40
0.1359679546814624
 50
66.2509385573525549
 51
67.9289699502808304
  0
ARC
  5
146C0
  8
0
 10
3715.0977225593937874
 20
164.8921216328184016
 30
0.0
 40
0.0054257680348619
 50
246.250938557352498
 51
278.8711083540537743
  0
ARC
  5
146C1
  8
0
 10
3715.1003209224209058
 20
164.8922004808665065
 30
0.0
 40
0.0057178537283789
 50
252.0555220360839996
 51
281.4300634675554988
  0
LINE
  5
146C2
  8
0
 10
3715.101454039030159
 20
164.8865960274580118
 30
0.0
 11
3715.1041587287791117
 21
164.8869340252797997
 31
0.0
  0
LINE
  5
146C3
  8
0
 10
3715.0985592789302245
 20
164.8867607691580019
 30
0.0
 11
3715.0991067256140923
 21
164.8879133611582972
 31
0.0
  0
LINE
  5
146C4
  8
0
 10
3715.1528439649341635
 20
164.8712203016563933
 30
0.0
 11
3715.1723574922298212
 21
164.8629734321579861
 31
0.0
  0
LINE
  5
146C5
  8
0
 10
3715.1723574922298212
 20
164.8629734321579861
 30
0.0
 11
3715.1846041363678523
 21
164.8644328927572076
 31
0.0
  0
LINE
  5
146C6
  8
0
 10
3715.1981078231870015
 20
164.8588258999621132
 30
0.0
 11
3715.1876420815310667
 21
164.8575751294974054
 31
0.0
  0
LINE
  5
146C7
  8
0
 10
3715.1876420815310667
 20
164.8575751294974054
 30
0.0
 11
3715.1737814921311838
 21
164.8560287671579943
 31
0.0
  0
ARC
  5
146C8
  8
0
 10
3715.1728199260051042
 20
164.8646476224539867
 30
0.0
 40
0.0086723281780047
 50
257.1196832883596244
 51
276.365902439905085
  0
ARC
  5
146C9
  8
0
 10
3715.1701372445968445
 20
164.8622254767003881
 30
0.0
 40
0.0060783523520392
 50
248.057227837871892
 51
277.0828451176789144
  0
LINE
  5
146CA
  8
0
 10
3715.1678658839300624
 20
164.8565874550579906
 30
0.0
 11
3715.1460497959678833
 21
164.8658076313012089
 31
0.0
  0
ARC
  5
146CB
  8
0
 10
3715.1581541212649427
 20
164.8625050649472996
 30
0.0
 40
0.0142110912537354
 50
333.6323815657295881
 51
1.888688527933212
  0
LINE
  5
146CC
  8
0
 10
3715.1723574922298212
 20
164.8629734321579861
 30
0.0
 11
3715.1723664059531984
 21
164.8687911124285961
 31
0.0
  0
LINE
  5
146CD
  8
0
 10
3715.1348606999690674
 20
164.7999443391011027
 30
0.0
 11
3715.1566757877308191
 21
164.7907247767579975
 31
0.0
  0
ARC
  5
146CE
  8
0
 10
3715.1588994780549911
 20
164.7959864147593123
 30
0.0
 40
0.0057122353869405
 50
247.089952487772905
 51
278.0320944236004266
  0
LINE
  5
146CF
  8
0
 10
3715.1596976360310691
 20
164.790330216657992
 30
0.0
 11
3715.1926313486769686
 21
164.7940596812520084
 31
0.0
  0
ARC
  5
146D0
  8
0
 10
3715.1920151659242038
 20
164.8005771645534878
 30
0.0
 40
0.006546546399326
 50
275.4008647524325966
 51
325.8145870981902021
  0
LINE
  5
146D1
  8
0
 10
3715.1974306239308135
 20
164.796898838257988
 30
0.0
 11
3715.2043506706659173
 21
164.8078134909148105
 31
0.0
  0
LINE
  5
146D2
  8
0
 10
3715.2014559105309672
 20
164.807978232558014
 30
0.0
 11
3715.1926313487301741
 21
164.7940596812580054
 31
0.0
  0
LINE
  5
146D3
  8
0
 10
3715.1926313487301741
 20
164.7940596812580054
 30
0.0
 11
3715.1919940709799448
 21
164.7934949139579999
 31
0.0
  0
LINE
  5
146D4
  8
0
 10
3715.1919940709799448
 20
164.7934949139579999
 30
0.0
 11
3715.1625923961059925
 21
164.7901654749192915
 31
0.0
  0
LINE
  5
146D5
  8
0
 10
3715.1625923961059925
 20
164.7901654749192915
 30
0.0
 11
3715.1614429308301624
 21
164.7900352879580055
 31
0.0
  0
LINE
  5
146D6
  8
0
 10
3715.1614429308301624
 20
164.7900352879580055
 30
0.0
 11
3715.1602733313297904
 21
164.7901330538579998
 31
0.0
  0
LINE
  5
146D7
  8
0
 10
3715.1602733313297904
 20
164.7901330538579998
 30
0.0
 11
3715.1355884781678469
 21
164.8005192973205908
 31
0.0
  0
LINE
  5
146D8
  8
0
 10
3715.2183773459069016
 20
164.8352403300746118
 30
0.0
 11
3715.2401923367301606
 21
164.8260208086580008
 31
0.0
  0
ARC
  5
146D9
  8
0
 10
3715.242416027049785
 20
164.8312824466246127
 30
0.0
 40
0.0057122353531528
 50
247.0899523939212941
 51
278.0320945173812106
  0
ARC
  5
146DA
  8
0
 10
3715.2449758160591955
 20
164.8310657423890859
 30
0.0
 40
0.0057176426102748
 50
252.0549681708970127
 51
281.4306200213869147
  0
LINE
  5
146DB
  8
0
 10
3715.2461089452681335
 20
164.8254615069182023
 30
0.0
 11
3715.2526149018299293
 21
164.8261982514580097
 31
0.0
  0
ARC
  5
146DC
  8
0
 10
3715.2299302394130791
 20
164.8319872498684902
 30
0.0
 40
0.0147283926082367
 50
334.4126263124746856
 51
0.5023729283100012
  0
LINE
  5
146DD
  8
0
 10
3715.2251714179701594
 20
164.8406530413413122
 30
0.0
 11
3715.2436169899601737
 21
164.8328575145397963
 31
0.0
  0
LINE
  5
146DE
  8
0
 10
3715.2336619352217895
 20
164.8111326919263036
 30
0.0
 11
3715.2554783500759186
 21
164.8019123775038111
 31
0.0
  0
ARC
  5
146DF
  8
0
 10
3715.2576993286929792
 20
164.8071674901451047
 30
0.0
 40
0.0057051691374585
 50
247.0895264002907936
 51
278.0551678858178093
  0
ARC
  5
146E0
  8
0
 10
3715.2602604058110956
 20
164.8069581114233131
 30
0.0
 40
0.0057176495677052
 50
252.0549849282529067
 51
281.4305991240956928
  0
LINE
  5
146E1
  8
0
 10
3715.2613935343561025
 20
164.8013538687197013
 30
0.0
 11
3715.2744058160128588
 21
164.8028273995888071
 31
0.0
  0
LINE
  5
146E2
  8
0
 10
3715.2695032136721238
 20
164.8093781422984136
 30
0.0
 11
3715.2599695345297732
 21
164.8082985337580055
 31
0.0
  0
LINE
  5
146E3
  8
0
 10
3715.2599695345297732
 20
164.8082985337580055
 30
0.0
 11
3715.2404560073300672
 21
164.8165454032580044
 31
0.0
  0
LINE
  5
146E4
  8
0
 10
3715.2599597835551322
 20
164.8197616975083122
 30
0.0
 11
3715.2599695345297732
 21
164.8082985337580055
 31
0.0
  0
ARC
  5
146E5
  8
0
 10
3715.2436709913699815
 20
164.8082846696368904
 30
0.0
 40
0.01629854905772
 50
335.4723322750202783
 51
0.0487378179805177
  0
LINE
  5
146E6
  8
0
 10
3715.2489465244329949
 20
164.7870250538217931
 30
0.0
 11
3715.2707615152298786
 21
164.7778055324579896
 31
0.0
  0
ARC
  5
146E7
  8
0
 10
3715.2729852058259894
 20
164.783067171100214
 30
0.0
 40
0.0057122360827173
 50
247.0899524877723081
 51
278.0320906950935864
  0
ARC
  5
146E8
  8
0
 10
3715.275544994601205
 20
164.7828504684478048
 30
0.0
 40
0.0057176448672231
 50
252.054975049277914
 51
281.4306146247179186
  0
LINE
  5
146E9
  8
0
 10
3715.276678123731017
 20
164.7772462306579939
 30
0.0
 11
3715.2855268644429998
 21
164.7782453768122082
 31
0.0
  0
LINE
  5
146EA
  8
0
 10
3715.2752562499940723
 20
164.8015807544186089
 30
0.0
 11
3715.2752541238301092
 21
164.7841908956580141
 31
0.0
  0
ARC
  5
146EB
  8
0
 10
3715.2588824419199227
 20
164.7841928973344068
 30
0.0
 40
0.016371682032764
 50
335.5280756869967718
 51
359.992994756852795
  0
LINE
  5
146EC
  8
0
 10
3715.2557405964948885
 20
164.7924377651729912
 30
0.0
 11
3715.2752541238301092
 21
164.7841908956580141
 31
0.0
  0
LINE
  5
146ED
  8
0
 10
3715.2752541238301092
 20
164.7841908956580141
 30
0.0
 11
3715.2836626238108693
 21
164.785128564277386
 31
0.0
  0
LINE
  5
146EE
  8
0
 10
3715.2710251858297852
 20
164.7683301270579932
 30
0.0
 11
3715.2858807529878504
 21
164.7620716857865091
 31
0.0
  0
LINE
  5
146EF
  8
0
 10
3715.2642311138151854
 20
164.7629174156868999
 30
0.0
 11
3715.2839652163520441
 21
164.7545710945898065
 31
0.0
  0
ARC
  5
146F0
  8
0
 10
3715.1692177832701418
 20
164.8317295280074859
 30
0.0
 40
0.1387176256496337
 50
308.0960092670014205
 51
317.4281289435651843
  0
LINE
  5
146F1
  8
0
 10
3715.2548038965301203
 20
164.7360114189172862
 30
0.0
 11
3715.2548038923300737
 21
164.7225582275989098
 31
0.0
  0
ARC
  5
146F2
  8
0
 10
3715.2465400251271603
 20
164.7225582301788052
 30
0.0
 40
0.0082638672032024
 50
304.7246365201316962
 51
359.9999821126353936
  0
ARC
  5
146F3
  8
0
 10
3715.2508807291737867
 20
164.7165573734407076
 30
0.0
 40
0.0008720415702536
 50
241.2589208834683916
 51
294.8642613488315192
  0
LINE
  5
146F4
  8
0
 10
3715.2504614060158019
 20
164.715792765966512
 30
0.0
 11
3715.2377574286010713
 21
164.721161761635301
 31
0.0
  0
LINE
  5
146F5
  8
0
 10
3715.2445515005338166
 20
164.7265744729564005
 30
0.0
 11
3715.2548015907300396
 21
164.7222425470579878
 31
0.0
  0
LINE
  5
146F6
  8
0
 10
3715.2215541038540323
 20
164.7193269007821073
 30
0.0
 11
3715.2215540982301718
 21
164.7013132346988868
 31
0.0
  0
ARC
  5
146F7
  8
0
 10
3715.2132902310268037
 20
164.7013132372788107
 30
0.0
 40
0.0082638672032024
 50
304.7246365201316962
 51
359.9999821126353936
  0
ARC
  5
146F8
  8
0
 10
3715.2176309350738848
 20
164.6953123805407131
 30
0.0
 40
0.0008720415702536
 50
241.2589208834683916
 51
294.8642613488315192
  0
LINE
  5
146F9
  8
0
 10
3715.2172116119149905
 20
164.6945477730666028
 30
0.0
 11
3715.1959971094061075
 21
164.7035135141387912
 31
0.0
  0
LINE
  5
146FA
  8
0
 10
3715.2027926781629503
 20
164.7089255927963052
 30
0.0
 11
3715.2215517966310472
 21
164.7009975541579934
 31
0.0
  0
LINE
  5
146FB
  8
0
 10
3715.1804371168450416
 20
164.7017515040776914
 30
0.0
 11
3715.1804371111138607
 21
164.6833952659769977
 31
0.0
  0
ARC
  5
146FC
  8
0
 10
3715.1721732439109473
 20
164.6833952685568931
 30
0.0
 40
0.0082638672032024
 50
304.7246365201316962
 51
359.9999821126353936
  0
ARC
  5
146FD
  8
0
 10
3715.1765139479580284
 20
164.6773944118187956
 30
0.0
 40
0.0008720415702536
 50
241.2589208834683916
 51
294.8642613488315192
  0
LINE
  5
146FE
  8
0
 10
3715.1760946247991342
 20
164.6766298043447136
 30
0.0
 11
3715.1542408319910464
 21
164.6858657243325865
 31
0.0
  0
LINE
  5
146FF
  8
0
 10
3715.1610349388120085
 20
164.6912784208327025
 30
0.0
 11
3715.1804348095138266
 21
164.6830795854361043
 31
0.0
  0
LINE
  5
14700
  8
0
 10
3715.1315217597298215
 20
164.6822251671173092
 30
0.0
 11
3715.131521755529775
 21
164.6687719757989044
 31
0.0
  0
ARC
  5
14701
  8
0
 10
3715.1232578883268616
 20
164.6687719783787998
 30
0.0
 40
0.0082638672032024
 50
304.7246365201316962
 51
359.9999821126353936
  0
ARC
  5
14702
  8
0
 10
3715.1275985923739427
 20
164.6627711216405885
 30
0.0
 40
0.0008720415702536
 50
241.2589208834683916
 51
294.8642613488315192
  0
LINE
  5
14703
  8
0
 10
3715.1271792692159579
 20
164.6620065141665918
 30
0.0
 11
3715.1124824181119948
 21
164.6682177445034085
 31
0.0
  0
LINE
  5
14704
  8
0
 10
3715.1192766529798064
 20
164.6736303869481048
 30
0.0
 11
3715.1315194539301956
 21
164.6684562952580109
 31
0.0
  0
LINE
  5
14705
  8
0
 10
3715.1091921013298816
 20
164.6872563729579895
 30
0.0
 11
3715.1091921013298816
 21
164.6749510649580088
 31
0.0
  0
LINE
  5
14706
  8
0
 10
3715.1091921013298816
 20
164.6749510649580088
 30
0.0
 11
3715.115345141529815
 21
164.6846559554579983
 31
0.0
  0
LINE
  5
14707
  8
0
 10
3715.124929615066776
 20
164.6825465287147949
 30
0.0
 11
3715.1180095683298532
 21
164.6716318760580009
 31
0.0
  0
ARC
  5
14708
  8
0
 10
3715.1128258921198722
 20
164.6749184013162051
 30
0.0
 40
0.0061377314480846
 50
273.590737098485306
 51
327.624714967079683
  0
ARC
  5
14709
  8
0
 10
3715.1185801460301263
 20
164.6766865016705026
 30
0.0
 40
0.0095471002943136
 50
190.4732425370619069
 51
235.7739719396593898
  0
LINE
  5
1470A
  8
0
 10
3715.1132102931428562
 20
164.6687927190536982
 30
0.0
 11
3715.1125730152812139
 21
164.6682279518080065
 31
0.0
  0
ARC
  5
1470B
  8
0
 10
3714.9873482141651948
 20
165.2696777628219138
 30
0.0
 40
0.6179821494922529
 50
278.5431705373313207
 51
282.2382561830415284
  0
ARC
  5
1470C
  8
0
 10
3715.014657173894193
 20
165.150519671825009
 30
0.0
 40
0.4957163729384567
 50
283.635777996925583
 51
288.1706853168416274
  0
ARC
  5
1470D
  8
0
 10
3715.0651824813671738
 20
165.004702039326105
 30
0.0
 40
0.3413493518076244
 50
289.7334179607511828
 51
295.5180266176470241
  0
ARC
  5
1470E
  8
0
 10
3715.1126272681772207
 20
164.9097250938069976
 30
0.0
 40
0.2351566031694206
 50
297.5944352872496097
 51
304.9856879181730847
  0
LINE
  5
1470F
  8
0
 10
3715.3252506299309061
 20
164.670201714988309
 30
0.0
 11
3715.3252506299309061
 21
162.2256843220131088
 31
0.0
  0
ARC
  5
14710
  8
0
 10
3714.9753290746548373
 20
159.1223290693619958
 30
0.0
 40
0.8092798705130118
 50
269.4741345025674946
 51
269.8272447315918043
  0
ARC
  5
14711
  8
0
 10
3714.9719012587670477
 20
164.0162265713744887
 30
0.0
 40
0.9341943130148839
 50
89.9394213348763714
 51
101.214401571703803
  0
ARC
  5
14712
  8
0
 10
3714.8983028769089287
 20
164.3683032339478132
 30
0.0
 40
0.5745386643755352
 50
100.8433302198181991
 51
116.4180644745054991
  0
ARC
  5
14713
  8
0
 10
3714.7446194819149241
 20
164.6776514931945883
 30
0.0
 40
0.2291187295192068
 50
116.4180644745054991
 51
137.648054205354498
  0
ARC
  5
14714
  8
0
 10
3714.649288179056839
 20
164.7645544261899033
 30
0.0
 40
0.1001219192192963
 50
137.648054205354498
 51
169.9344359291536932
  0
ARC
  5
14715
  8
0
 10
3714.627664393527084
 20
164.7707729063531019
 30
0.0
 40
0.0777794355779741
 50
171.6610017952077101
 51
199.7548353417242026
  0
ARC
  5
14716
  8
0
 10
3714.679004516130135
 20
164.7934954779337886
 30
0.0
 40
0.1338389681369904
 50
201.481401207781289
 51
217.3324186611185098
  0
ARC
  5
14717
  8
0
 10
3714.7261316256222017
 20
164.838722344902294
 30
0.0
 40
0.1988755141365146
 50
219.4595285917096135
 51
237.9264787997626911
  0
ARC
  5
14718
  8
0
 10
3714.881935912265817
 20
165.1099280003691092
 30
0.0
 40
0.5115600192906875
 50
239.2693536306217084
 51
259.7252888317203769
  0
ARC
  5
14719
  8
0
 10
3714.9667048794808579
 20
165.4767379373068081
 30
0.0
 40
0.8877899457678941
 50
258.5646651716335214
 51
266.5641214036490965
  0
ARC
  5
1471A
  8
0
 10
3715.0052828803818556
 20
166.5319507677097874
 30
0.0
 40
1.9435754223207531
 50
267.293223709323911
 51
269.0449973178148753
  0
ARC
  5
1471B
  8
0
 10
3714.9737213508910827
 20
165.4988180773740964
 30
0.0
 40
0.9006359234382079
 50
261.5058634485474727
 51
269.9470470046309174
  0
ARC
  5
1471C
  8
0
 10
3714.9381059842999093
 20
165.2603431547144908
 30
0.0
 40
0.6595161542881272
 50
247.5722545665852863
 51
261.5058634485474727
  0
ARC
  5
1471D
  8
0
 10
3714.7806710688150815
 20
164.878901803258799
 30
0.0
 40
0.2468622348666702
 50
223.8449663250225115
 51
247.5722545665852863
  0
ARC
  5
1471E
  8
0
 10
3714.6648561798419905
 20
164.7676647073137985
 30
0.0
 40
0.0862796080906639
 50
173.9014102976792913
 51
223.8449663250225115
  0
ARC
  5
1471F
  8
0
 10
3714.6753580522399716
 20
164.7581436078002923
 30
0.0
 40
0.0980897395539961
 50
134.3840238228754913
 51
169.0172525811952084
  0
ARC
  5
14720
  8
0
 10
3714.8083645150900338
 20
164.6123860964449932
 30
0.0
 40
0.2953717037624933
 50
107.6026754371943071
 51
133.0460870347503999
  0
ARC
  5
14721
  8
0
 10
3714.9574335602851534
 20
164.1831591359519109
 30
0.0
 40
0.7496820606419793
 50
92.3526052926891339
 51
108.5415977398135965
  0
ARC
  5
14722
  8
0
 10
3714.974725269791179
 20
164.001811020181691
 30
0.0
 40
0.9316390255751603
 50
90.1129318805449344
 51
92.9573424158203636
  0
ARC
  5
14723
  8
0
 10
3714.9738754215718473
 20
164.1169983025592103
 30
0.0
 40
0.7923795668566737
 50
90.0713281611779024
 51
100.5522104778880959
  0
ARC
  5
14724
  8
0
 10
3714.9263048873349362
 20
164.3723670330057018
 30
0.0
 40
0.5326178602533309
 50
100.5522104778880959
 51
112.1256371956283999
  0
ARC
  5
14725
  8
0
 10
3714.825326887547817
 20
164.6207269965238993
 30
0.0
 40
0.2645148428893538
 50
112.1256371956283999
 51
129.3432925586606075
  0
ARC
  5
14726
  8
0
 10
3714.725882873079172
 20
164.7420367124493907
 30
0.0
 40
0.1076545254352343
 50
129.3432925586606075
 51
149.6791030483512088
  0
ARC
  5
14727
  8
0
 10
3714.6976034591721145
 20
164.7585757066493954
 30
0.0
 40
0.0748938236719753
 50
149.6791030483512088
 51
183.8823000910599035
  0
ARC
  5
14728
  8
0
 10
3714.6780014939031389
 20
164.7572454622086866
 30
0.0
 40
0.0552467731893763
 50
183.8823000910599035
 51
209.68094109118951
  0
ARC
  5
14729
  8
0
 10
3714.7487015402648467
 20
164.7975408935159862
 30
0.0
 40
0.1366237867729077
 50
209.68094109118951
 51
231.7263313221768897
  0
ARC
  5
1472A
  8
0
 10
3714.8317133751338588
 20
164.9121731851340087
 30
0.0
 40
0.2780974339291988
 50
232.928792445113487
 51
248.9903996077997022
  0
ARC
  5
1472B
  8
0
 10
3714.9282359854241804
 20
165.1559636561117088
 30
0.0
 40
0.5402932633492991
 50
248.7039693371299904
 51
260.1116037428125196
  0
ARC
  5
1472C
  8
0
 10
3714.9744788123830403
 20
165.4290855515016005
 30
0.0
 40
0.8175380802327513
 50
264.4834512166581817
 51
269.8885791753116905
  0
LINE
  5
1472D
  8
0
 10
3714.606742711339848
 20
164.8282401982957026
 30
0.0
 11
3714.6067478182299055
 21
164.7746846413579931
 31
0.0
  0
ARC
  5
1472E
  8
0
 10
3714.6881779109780837
 20
164.7746924062761877
 30
0.0
 40
0.081430093117764
 50
180.0054635457732104
 51
207.1517949527820974
  0
ARC
  5
1472F
  8
0
 10
3714.7271860397399905
 20
164.7946983920220987
 30
0.0
 40
0.1252692716593303
 50
207.1517949527820974
 51
227.1985515504001967
  0
ARC
  5
14730
  8
0
 10
3714.7919516378410663
 20
164.8646353292228923
 30
0.0
 40
0.2205885135905627
 50
227.1985515504001967
 51
242.7283484259635884
  0
ARC
  5
14731
  8
0
 10
3714.8900003394819578
 20
165.0548320441324961
 30
0.0
 40
0.4345706115706751
 50
242.7283484259635884
 51
253.4918374342099128
  0
ARC
  5
14732
  8
0
 10
3714.946483501055809
 20
165.2454162937920046
 30
0.0
 40
0.6333486379208173
 50
253.4918374342099128
 51
262.8242123144634093
  0
ARC
  5
14733
  8
0
 10
3714.9784748439778923
 20
165.4992596717492859
 30
0.0
 40
0.8891999733027836
 50
262.8221382043195717
 51
269.6400713343221014
  0
ARC
  5
14734
  8
0
 10
3714.6810189065390659
 20
164.7733214817735927
 30
0.0
 40
0.0743452257549421
 50
151.8709836584868924
 51
177.4442402558227059
  0
ARC
  5
14735
  8
0
 10
3714.7115856106738647
 20
164.7569804830770863
 30
0.0
 40
0.1090057456597069
 50
133.6474875182838105
 51
151.8709836584868924
  0
ARC
  5
14736
  8
0
 10
3714.7809132891338777
 20
164.6842999653142954
 30
0.0
 40
0.2094486879851387
 50
119.6304890959698071
 51
133.6474875182838105
  0
ARC
  5
14737
  8
0
 10
3714.8660148706831023
 20
164.5346795291457909
 30
0.0
 40
0.3815781569944898
 50
104.6514686924988951
 51
119.6304890959698071
  0
ARC
  5
14738
  8
0
 10
3714.9848142250098135
 20
164.0802755677391076
 30
0.0
 40
0.8512549040562253
 50
97.0655230982326174
 51
104.6514686924988951
  0
ARC
  5
14739
  8
0
 10
3714.9738828962081243
 20
164.0864817955782939
 30
0.0
 40
0.8438114724842222
 50
91.1591522208695721
 51
96.3807286794977358
  0
ARC
  5
1473A
  8
0
 10
3714.936236845474923
 20
167.4153620255000874
 30
0.0
 40
2.4853266112681132
 50
270.474357802123393
 51
270.8449950653990186
  0
ARC
  5
1473B
  8
0
 10
3714.9665295622808117
 20
165.3483768819322961
 30
0.0
 40
0.7364390437774893
 50
259.7473638413833896
 51
264.4954050678600765
  0
LINE
  5
1473C
  8
0
 10
3711.8028988110299906
 20
158.3130832843579867
 30
0.0
 11
3718.1428791480861946
 21
158.3130832843579867
 31
0.0
  0
ARC
  5
1473E
  8
0
 10
3712.0221021323300192
 20
158.9036344654579977
 30
0.0
 40
1.2992125983999989
 50
27.047279627314289
 51
332.9643082101429172
  0
ARC
  5
1473F
  8
0
 10
3712.0221021326451591
 20
158.9036344659108124
 30
0.0
 40
0.6299212603495609
 50
230.3641348105223869
 51
249.6358651871537973
  0
LINE
  5
14740
  8
0
 10
3711.6202714679729979
 20
158.418523230038204
 30
0.0
 11
3711.4010681466302231
 21
158.7981945198579865
 31
0.0
  0
ARC
  5
14741
  8
0
 10
3712.0221021227739584
 20
158.9036344645923009
 30
0.0
 40
0.6299212502141315
 50
182.7182120331403041
 51
189.6358652579108934
  0
ARC
  5
14742
  8
0
 10
3712.2850154099937754
 20
161.7884954476371036
 30
0.0
 40
3.4755677677504551
 50
267.5392154477946178
 51
269.4646894769990126
  0
ARC
  5
14743
  8
0
 10
3712.4852272197281309
 20
159.2790727292002089
 30
0.0
 40
1.165108975958475
 50
200.357360801215691
 51
214.6589205894894974
  0
ARC
  5
14744
  8
0
 10
3713.1756156026140161
 20
159.535238980004209
 30
0.0
 40
1.901490172943205
 50
197.3334610956829067
 51
200.3572984834270017
  0
ARC
  5
14745
  8
0
 10
3711.4094149826510147
 20
158.98812831433969
 30
0.0
 40
0.0526440033724372
 50
146.2787521829075956
 51
201.6296572761335995
  0
ARC
  5
14746
  8
0
 10
3712.1699685170051453
 20
158.5634880392534001
 30
0.0
 40
0.9235567684372853
 50
140.6133254061263074
 51
150.5652254010180968
  0
ARC
  5
14747
  8
0
 10
3712.1456015156309149
 20
158.5834938308998119
 30
0.0
 40
0.8920292811391991
 50
121.1530484052868957
 51
140.6133254061263074
  0
ARC
  5
14748
  8
0
 10
3712.2270593884491063
 20
158.4026276607631871
 30
0.0
 40
1.0892140121457961
 50
93.3399430980550875
 51
119.8980516857507013
  0
ARC
  5
14749
  8
0
 10
3712.2926388815999417
 20
157.7657091968669079
 30
0.0
 40
1.729103905311578
 50
91.4622746562003357
 51
94.2797663110663962
  0
LINE
  5
1474A
  8
0
 10
3711.8028990701341172
 20
159.4941856465580088
 30
0.0
 11
3712.8463261234301171
 21
159.4943363542579959
 31
0.0
  0
ARC
  5
1474B
  8
0
 10
3712.0220939766759329
 20
158.9036480529169069
 30
0.0
 40
0.6299055933688936
 50
110.3638473143182068
 51
129.6360822899212053
  0
LINE
  5
1474C
  8
0
 10
3711.6202714679729979
 20
159.3887457008777062
 30
0.0
 11
3711.5256808252329392
 21
159.2249099018129073
 31
0.0
  0
ARC
  5
1474D
  8
0
 10
3713.0113088448060807
 20
165.3478295980717121
 30
0.0
 40
5.8558178296224961
 50
268.385526167317721
 51
276.4779363829923113
  0
ARC
  5
1474E
  8
0
 10
3713.3509285312497923
 20
161.741403761868213
 30
0.0
 40
2.2351800967324631
 50
278.2579086409141951
 51
291.540256214489375
  0
ARC
  5
1474F
  8
0
 10
3712.0222381384728578
 20
158.904498882435405
 30
0.0
 40
0.6161721915646825
 50
73.1584121303598494
 51
106.8581389357827049
  0
ARC
  5
14750
  8
0
 10
3712.0205614983801752
 20
158.9044995910909108
 30
0.0
 40
0.6152883611646619
 50
133.1218370525083117
 51
156.5318342231697955
  0
ARC
  5
14751
  8
0
 10
3712.0212921773600101
 20
158.9032554964636006
 30
0.0
 40
0.6161551883061686
 50
193.1366969728701974
 51
226.8633030167850961
  0
ARC
  5
14752
  8
0
 10
3712.0222466345539942
 20
158.9043108177737906
 30
0.0
 40
0.6176855278798321
 50
253.1695815237962961
 51
286.8304184762042155
  0
ARC
  5
14753
  8
0
 10
3714.9707265393772104
 20
161.5414680820094873
 30
0.0
 40
0.768629527062159
 50
89.8388054892371457
 51
154.3117466843551995
  0
ARC
  5
14754
  8
0
 10
3714.9172602684720914
 20
161.5633398851967115
 30
0.0
 40
0.7109751300176956
 50
154.0324182404847875
 51
179.4203878100549048
  0
ARC
  5
14755
  8
0
 10
3721.1395933023568432
 20
161.343784954173799
 30
0.0
 40
6.9369785862451359
 50
178.1268547794419135
 51
180.3422776534247021
  0
ARC
  5
14756
  8
0
 10
3664.3282507172039004
 20
161.429426712616106
 30
0.0
 40
49.8746496838736491
 50
357.969540920556085
 51
359.8540084418867764
  0
ARC
  5
14757
  8
0
 10
3731.4407517138120056
 20
159.0001880919411121
 30
0.0
 40
17.2818553349395998
 50
177.8042190620103895
 51
179.5148324347503035
  0
ARC
  5
14758
  8
0
 10
3715.0088800458170226
 20
159.1465251441138093
 30
0.0
 40
0.849364088887123
 50
180.0
 51
229.7480270796428954
  0
ARC
  5
14759
  8
0
 10
3714.9753290746548373
 20
159.1223290693619958
 30
0.0
 40
0.8092798705130118
 50
230.4540575281276915
 51
269.8272447315918043
  0
LINE
  5
1475A
  8
0
 10
3711.360477863936012
 20
158.9687234308580059
 30
0.0
 11
3714.178334498447839
 21
158.9687234308580059
 31
0.0
  0
ARC
  5
1475B
  8
0
 10
3714.9748580378300176
 20
168.186723665357988
 30
0.0
 40
0.3543307086999997
 50
90.3184011581613362
 51
180.0
  0
LINE
  5
1475C
  8
0
 10
3714.6205273291297999
 20
168.186723665357988
 30
0.0
 11
3714.6205273291297999
 21
165.7622723213796121
 31
0.0
  0
ARC
  5
1475D
  8
0
 10
3714.9716236632712025
 20
164.9625877800309013
 30
0.0
 40
0.8829151555472311
 50
89.9178887024060032
 51
103.9297649840143976
  0
ARC
  5
1475E
  8
0
 10
3714.8745569452448763
 20
165.343903087274299
 30
0.0
 40
0.4894526145697702
 50
103.6468008920161026
 51
121.2657053195842991
  0
ARC
  5
1475F
  8
0
 10
3714.7094925402129775
 20
165.5969131203943903
 30
0.0
 40
0.1877723998180761
 50
118.2807784263379034
 51
176.4045003452253866
  0
LINE
  5
14760
  8
0
 10
3714.5220897408298697
 20
165.6086887272579986
 30
0.0
 11
3714.5220897414310457
 21
165.4171758075335958
 31
0.0
  0
ARC
  5
14761
  8
0
 10
3714.6079897873541995
 20
165.416182969653903
 30
0.0
 40
0.0859057833717067
 50
179.3378014323843104
 51
191.1540962837864015
  0
ARC
  5
14762
  8
0
 10
3714.6103427735961304
 20
165.4151301483595944
 30
0.0
 40
0.0882735150785128
 50
153.0886195247094008
 51
178.8515121475400065
  0
ARC
  5
14763
  8
0
 10
3714.6803154624130912
 20
165.3727760726860936
 30
0.0
 40
0.1699480543402882
 50
122.7032668652239948
 51
151.0326586778367925
  0
ARC
  5
14764
  8
0
 10
3714.8553580364118716
 20
165.0955027522327043
 30
0.0
 40
0.4978477976317813
 50
102.3366166824933003
 51
122.4140855483533983
  0
ARC
  5
14765
  8
0
 10
3714.9631370785550644
 20
164.6793908011034944
 30
0.0
 40
0.9275236615267397
 50
93.2696375433522888
 51
103.3488819941394041
  0
ARC
  5
14766
  8
0
 10
3714.987308670317816
 20
164.2720199835868868
 30
0.0
 40
1.335610280975033
 50
90.6185962207492111
 51
93.3081545177523992
  0
ARC
  5
14767
  8
0
 10
3714.9778782800071895
 20
164.6554714512901114
 30
0.0
 40
0.9383475599998869
 50
90.3046495950705861
 51
107.2143023550076038
  0
ARC
  5
14768
  8
0
 10
3714.7967127988440552
 20
165.2431664803231968
 30
0.0
 40
0.3233645107243746
 50
107.3695534587296976
 51
132.7968253411486899
  0
ARC
  5
14769
  8
0
 10
3715.0134629064091314
 20
164.224690026715308
 30
0.0
 40
1.3409148168144931
 50
91.7339428445285137
 51
101.7893322931629001
  0
ARC
  5
1476A
  8
0
 10
3714.8573379828558245
 20
165.0443264391645073
 30
0.0
 40
0.5068810112128121
 50
103.443446405356994
 51
123.0708115206875988
  0
ARC
  5
1476B
  8
0
 10
3714.6639875505647979
 20
165.3412559449450043
 30
0.0
 40
0.1525485104881132
 50
123.0708115206875988
 51
146.5839572639332005
  0
ARC
  5
1476C
  8
0
 10
3714.6399926126027822
 20
165.3570873328027915
 30
0.0
 40
0.1238015125702118
 50
146.5839572639332005
 51
159.9271756821586905
  0
ARC
  5
1476D
  8
0
 10
3714.5913246058757977
 20
165.374871123908207
 30
0.0
 40
0.0719860891439455
 50
159.9271756821586905
 51
175.4091989139836016
  0
ARC
  5
1476E
  8
0
 10
3714.6071141262250421
 20
165.3718754640871964
 30
0.0
 40
0.0879815806123877
 50
174.2875403348922987
 51
179.6598430353770937
  0
ARC
  5
1476F
  8
0
 10
3714.6715916203747838
 20
165.3893423731072119
 30
0.0
 40
0.1313124612912999
 50
136.0720300090711987
 51
154.3894485402506973
  0
LINE
  5
14770
  8
0
 10
3714.5191340961209789
 20
165.3723977952579958
 30
0.0
 11
3714.5191340961209789
 21
164.9561859409122064
 31
0.0
  0
ARC
  5
14771
  8
0
 10
3715.169989825229095
 20
164.9560004058064919
 30
0.0
 40
0.6508557555539961
 50
179.9836670743617901
 51
198.9645071525035007
  0
LINE
  5
14772
  8
0
 10
3714.6205273291297999
 20
164.6702017150510073
 30
0.0
 11
3714.6205273291297999
 21
162.2256843219620066
 31
0.0
  0
ARC
  5
14773
  8
0
 10
3714.9704488845059132
 20
159.1223290693619958
 30
0.0
 40
0.8092798705130118
 50
270.1727552684081957
 51
270.5258654974325054
  0
ARC
  5
14774
  8
0
 10
3712.1345104328461275
 20
159.0809704843358077
 30
0.0
 40
0.7648388532278475
 50
217.394233775275211
 51
270.0958445879335841
  0
ARC
  5
14775
  8
0
 10
3717.9236758268298217
 20
158.9036344654579977
 30
0.0
 40
1.2992125983999989
 50
207.0356917898571965
 51
152.9527203726856897
  0
ARC
  5
14776
  8
0
 10
3717.9236758265151366
 20
158.9036344659108124
 30
0.0
 40
0.6299212603495609
 50
290.3641348128460891
 51
309.6358651894776131
  0
LINE
  5
14777
  8
0
 10
3718.3255064911882073
 20
158.418523230038204
 30
0.0
 11
3718.5447098125300727
 21
158.7981945198579865
 31
0.0
  0
ARC
  5
14778
  8
0
 10
3717.9236758363858826
 20
158.9036344645923009
 30
0.0
 40
0.6299212502141315
 50
350.3641347420891066
 51
357.2817879668596106
  0
ARC
  5
14779
  8
0
 10
3717.6607625491669751
 20
161.7884954476371036
 30
0.0
 40
3.4755677677504551
 50
270.5353105230008737
 51
272.4607845522053253
  0
ARC
  5
1477A
  8
0
 10
3717.4605507394330743
 20
159.2790727292002089
 30
0.0
 40
1.165108975958475
 50
325.3410794105104742
 51
339.642639198784309
  0
ARC
  5
1477B
  8
0
 10
3716.7701623565458249
 20
159.535238980004209
 30
0.0
 40
1.901490172943205
 50
339.6427015165730268
 51
342.6665389043171217
  0
ARC
  5
1477C
  8
0
 10
3718.5363629765101905
 20
158.98812831433969
 30
0.0
 40
0.0526440033724372
 50
338.3703427238664858
 51
33.7212478170923831
  0
ARC
  5
1477D
  8
0
 10
3717.77580944215606
 20
158.5634880392534001
 30
0.0
 40
0.9235567684372853
 50
29.4347745989818712
 51
39.3866745938737282
  0
ARC
  5
1477E
  8
0
 10
3717.8001764435298355
 20
158.5834938308998119
 30
0.0
 40
0.8920292811391991
 50
39.3866745938737282
 51
58.8469515947130617
  0
ARC
  5
1477F
  8
0
 10
3717.7187185707120989
 20
158.4026276607631871
 30
0.0
 40
1.0892140121457961
 50
60.101948314249249
 51
86.6600569019449125
  0
ARC
  5
14780
  8
0
 10
3717.6531390775608088
 20
157.7657091968669079
 30
0.0
 40
1.729103905311578
 50
85.7202336889336038
 51
88.5377253437996785
  0
LINE
  5
14781
  8
0
 10
3718.142878889027088
 20
159.4941856465580088
 30
0.0
 11
3717.0994518357310881
 21
159.4943363542579959
 31
0.0
  0
ARC
  5
14782
  8
0
 10
3717.9236839824848175
 20
158.9036480529169069
 30
0.0
 40
0.6299055933688936
 50
50.3639177100787805
 51
69.6361526856817932
  0
LINE
  5
14783
  8
0
 10
3718.3255064911882073
 20
159.3887457008777062
 30
0.0
 11
3718.4200971339278112
 21
159.2249099018129073
 31
0.0
  0
ARC
  5
14784
  8
0
 10
3717.9235398206878926
 20
158.904498882435405
 30
0.0
 40
0.6161721915646825
 50
73.1418610642172951
 51
106.8415878696400938
  0
ARC
  5
14785
  8
0
 10
3717.92521646078103
 20
158.9044995910909108
 30
0.0
 40
0.6152883611646619
 50
23.468165776830201
 51
46.878162947491667
  0
ARC
  5
14786
  8
0
 10
3717.9244857818011951
 20
158.9032554964636006
 30
0.0
 40
0.6161551883061686
 50
313.1366969832149039
 51
346.8633030271296889
  0
ARC
  5
14787
  8
0
 10
3717.923531324607211
 20
158.9043108177737906
 30
0.0
 40
0.6176855278798321
 50
253.1695815237958129
 51
286.8304184762038176
  0
ARC
  5
14788
  8
0
 10
3717.8112675263150777
 20
159.0809704843358077
 30
0.0
 40
0.7648388532278475
 50
269.9041554120664159
 51
322.6057662247246753
  0
ENDSEC
  0
EOF
