  0
SECTION
  2
HEADER
  9
$ACADVER
  1
AC1009
  9
$INSBASE
 10
4942.6254071057910551
 20
2.3731422927370849
 30
0.0
  9
$EXTMIN
 10
4940.9689272795403667
 20
-0.6042831730198417
 30
0.0
  9
$EXTMAX
 10
4944.2818869320417434
 20
5.0019260543664119
 30
0.0
  9
$LIMMIN
 10
0.0
 20
0.0
  9
$LIMMAX
 10
11.6929133858000007
 20
8.2677165353999982
  9
$ORTHOMODE
 70
     0
  9
$REGENMODE
 70
     1
  9
$FILLMODE
 70
     1
  9
$QTEXTMODE
 70
     0
  9
$MIRRTEXT
 70
     0
  9
$DRAGMODE
 70
     2
  9
$LTSCALE
 40
0.6431102362
  9
$OSMODE
 70
  3839
  9
$ATTMODE
 70
     1
  9
$TEXTSIZE
 40
0.2
  9
$TRACEWID
 40
0.05
  9
$TEXTSTYLE
  7
STANDARD
  9
$CLAYER
  8
0
  9
$CELTYPE
  6
BYLAYER
  9
$CECOLOR
 62
   256
  9
$DIMSCALE
 40
1.0
  9
$DIMASZ
 40
0.1875
  9
$DIMEXO
 40
0.0625
  9
$DIMDLI
 40
0.4443307087
  9
$DIMRND
 40
0.0
  9
$DIMDLE
 40
0.0
  9
$DIMEXE
 40
0.125
  9
$DIMTP
 40
0.01
  9
$DIMTM
 40
0.01
  9
$DIMTXT
 40
2.0
  9
$DIMCEN
 40
0.1052362205
  9
$DIMTSZ
 40
0.0
  9
$DIMTOL
 70
     1
  9
$DIMLIM
 70
     0
  9
$DIMTIH
 70
     1
  9
$DIMTOH
 70
     1
  9
$DIMSE1
 70
     0
  9
$DIMSE2
 70
     0
  9
$DIMTAD
 70
     0
  9
$DIMZIN
 70
     0
  9
$DIMBLK
  1

  9
$DIMASO
 70
     1
  9
$DIMSHO
 70
     1
  9
$DIMPOST
  1
\X
  9
$DIMAPOST
  1

  9
$DIMALT
 70
     1
  9
$DIMALTD
 70
     2
  9
$DIMALTF
 40
25.3999999999999986
  9
$DIMLFAC
 40
1.0
  9
$DIMTOFL
 70
     0
  9
$DIMTVP
 40
0.0
  9
$DIMTIX
 70
     0
  9
$DIMSOXD
 70
     0
  9
$DIMSAH
 70
     0
  9
$DIMBLK1
  1

  9
$DIMBLK2
  1

  9
$DIMSTYLE
  2
STANDARD
  9
$DIMCLRD
 70
     0
  9
$DIMCLRE
 70
     0
  9
$DIMCLRT
 70
     0
  9
$DIMTFAC
 40
1.0
  9
$DIMGAP
 40
0.09
  9
$LUNITS
 70
     2
  9
$LUPREC
 70
     4
  9
$SKETCHINC
 40
0.1
  9
$FILLETRAD
 40
0.0
  9
$AUNITS
 70
     0
  9
$AUPREC
 70
     0
  9
$MENU
  1
.
  9
$ELEVATION
 40
0.0
  9
$PELEVATION
 40
0.0
  9
$THICKNESS
 40
0.0
  9
$LIMCHECK
 70
     0
  9
$BLIPMODE
 70
     0
  9
$CHAMFERA
 40
0.0
  9
$CHAMFERB
 40
0.0
  9
$SKPOLY
 70
     0
  9
$TDCREATE
 40
2458060.468368056230247
  9
$TDUPDATE
 40
2460523.3904398148879409
  9
$TDINDWG
 40
0.5619283564999999
  9
$TDUSRTIMER
 40
0.5619283564999999
  9
$USRTIMER
 70
     1
  9
$ANGBASE
 50
0.0
  9
$ANGDIR
 70
     0
  9
$PDMODE
 70
     0
  9
$PDSIZE
 40
0.3125
  9
$PLINEWID
 40
0.0
  9
$COORDS
 70
     1
  9
$SPLFRAME
 70
     0
  9
$SPLINETYPE
 70
     6
  9
$SPLINESEGS
 70
     8
  9
$ATTDIA
 70
     1
  9
$ATTREQ
 70
     1
  9
$HANDLING
 70
     1
  9
$HANDSEED
  5
239DA
  9
$SURFTAB1
 70
     6
  9
$SURFTAB2
 70
     6
  9
$SURFTYPE
 70
     6
  9
$SURFU
 70
     6
  9
$SURFV
 70
     6
  9
$UCSNAME
  2

  9
$UCSORG
 10
0.0
 20
0.0
 30
0.0
  9
$UCSXDIR
 10
1.0
 20
0.0
 30
0.0
  9
$UCSYDIR
 10
0.0
 20
1.0
 30
0.0
  9
$PUCSNAME
  2

  9
$PUCSORG
 10
0.0
 20
0.0
 30
0.0
  9
$PUCSXDIR
 10
1.0
 20
0.0
 30
0.0
  9
$PUCSYDIR
 10
0.0
 20
1.0
 30
0.0
  9
$USERI1
 70
     0
  9
$USERI2
 70
     0
  9
$USERI3
 70
     0
  9
$USERI4
 70
     0
  9
$USERI5
 70
     0
  9
$USERR1
 40
0.0
  9
$USERR2
 40
0.0
  9
$USERR3
 40
0.0
  9
$USERR4
 40
0.0
  9
$USERR5
 40
0.0
  9
$WORLDVIEW
 70
     1
  9
$SHADEDGE
 70
     3
  9
$SHADEDIF
 70
    70
  9
$TILEMODE
 70
     1
  9
$MAXACTVP
 70
    64
  9
$PLIMCHECK
 70
     0
  9
$PEXTMIN
 10
1.0000000000000000E+20
 20
1.0000000000000000E+20
 30
1.0000000000000000E+20
  9
$PEXTMAX
 10
-1.0000000000000000E+20
 20
-1.0000000000000000E+20
 30
-1.0000000000000000E+20
  9
$PLIMMIN
 10
0.0
 20
0.0
  9
$PLIMMAX
 10
12.0
 20
9.0
  9
$UNITMODE
 70
     0
  9
$VISRETAIN
 70
     1
  9
$PLINEGEN
 70
     0
  9
$PSLTSCALE
 70
     1
  0
ENDSEC
  0
SECTION
  2
TABLES
  0
TABLE
  2
VPORT
 70
     1
  0
VPORT
  2
*ACTIVE
 70
     0
 10
0.0
 20
0.0
 11
1.0
 21
1.0
 12
1150.2674969495410551
 22
-117.9818349924320984
 13
0.0
 23
0.0
 14
1.0
 24
1.0
 15
0.0
 25
0.0
 16
0.0
 26
0.0
 36
5.1040778033513332
 17
3792.35791015625
 27
120.1806564331053977
 37
0.0
 40
5.64634915025536
 41
2.2831541218637992
 42
50.0
 43
0.0
 44
0.0
 50
0.0
 51
0.0
 71
     0
 72
   100
 73
     1
 74
     1
 75
     0
 76
     0
 77
     0
 78
     0
  0
ENDTAB
  0
TABLE
  2
LTYPE
 70
     2
  0
LTYPE
  2
CONTINUOUS
 70
     0
  3
Solid line
 72
    65
 73
     0
 40
0.0
  0
LTYPE
  2
PHANTOM2
 70
     0
  3
___ _ _ ___ _ _ ___ _ _ ___ _ _
 72
    65
 73
     6
 40
1.25
 49
0.625
 49
-0.125
 49
0.125
 49
-0.125
 49
0.125
 49
-0.125
  0
ENDTAB
  0
TABLE
  2
LAYER
 70
     2
  0
LAYER
  2
0
 70
     0
 62
   255
  6
CONTINUOUS
  0
LAYER
  2
DEFPOINTS
 70
     0
 62
     7
  6
CONTINUOUS
  0
ENDTAB
  0
TABLE
  2
STYLE
 70
     1
  0
STYLE
  2
STANDARD
 70
     0
 40
0.0
 41
0.8
 50
0.0
 71
     0
 42
0.2
  3
txt
  4

  0
ENDTAB
  0
TABLE
  2
VIEW
 70
     0
  0
ENDTAB
  0
TABLE
  2
UCS
 70
     0
  0
ENDTAB
  0
TABLE
  2
APPID
 70
     9
  0
APPID
  2
ACAD
 70
     0
  0
APPID
  2
ACAD_MLEADERVER
 70
     0
  0
APPID
  2
ACAD_EXEMPT_FROM_CAD_STANDARDS
 70
     0
  0
APPID
  2
ACAD_NAV_VCDISPLAY
 70
     0
  0
APPID
  2
ACAECLAYERSTANDARD
 70
     0
  0
APPID
  2
ACCMTRANSPARENCY
 70
     0
  0
APPID
  2
ACAD_DSTYLE_DIMJAG
 70
     0
  0
APPID
  2
ACAD_DSTYLE_DIMTALN
 70
     0
  0
APPID
  2
ACDBATTR
 70
     0
  0
ENDTAB
  0
TABLE
  2
DIMSTYLE
 70
     1
  0
DIMSTYLE
  2
STANDARD
 70
     0
  3

  4

  5

  6

  7

 40
1.0
 41
0.1875
 42
0.0625
 43
0.38
 44
0.125
 45
0.0
 46
0.0
 47
0.01
 48
0.01
140
0.15625
141
0.09
142
0.0
143
25.3999999999999986
144
1.0
145
0.0
146
1.0
147
0.09
 71
     1
 72
     0
 73
     1
 74
     1
 75
     0
 76
     0
 77
     0
 78
     4
170
     0
171
     2
172
     0
173
     0
174
     0
175
     0
176
     0
177
     0
178
     0
  0
ENDTAB
  0
ENDSEC
  0
SECTION
  2
BLOCKS
  0
BLOCK
  8
0
  2
$MODEL_SPACE
 70
     0
 10
0.0
 20
0.0
 30
0.0
  3
$MODEL_SPACE
  1

  0
ENDBLK
  5
21
  8
0
  0
BLOCK
 67
     1
  8
0
  2
$PAPER_SPACE
 70
     0
 10
0.0
 20
0.0
 30
0.0
  3
$PAPER_SPACE
  1

  0
ENDBLK
  5
1D
 67
     1
  8
0
  0
BLOCK
  8
0
  2
_FILLED
 70
     0
 10
0.0
 20
0.0
 30
0.0
  3
_FILLED
  1

  0
SOLID
  5
2338C
  8
0
  6
BYBLOCK
 62
     0
 10
0.0
 20
0.0
 30
0.0
 11
-1.0
 21
0.1666666667
 31
0.0
 12
-1.0
 22
-0.1666666667
 32
0.0
 13
-1.0
 23
-0.1666666667
 33
0.0
  0
ENDBLK
  5
2338D
  8
0
  6
BYBLOCK
 62
     0
  0
ENDSEC
  0
SECTION
  2
ENTITIES
  0
ATTDEF
  5
21E70
  8
DEFPOINTS
 10
4942.6262571282049976
 20
2.3779130978384719
 30
0.0
 40
0.001
  1
K-99694
  3

  2
MODELNUMBER
 70
     0
1001
ACDBATTR
1070
     0
1070
     1
  0
ATTDEF
  5
21E71
  8
DEFPOINTS
 10
4942.6262571282049976
 20
2.3762464311718068
 30
0.0
 40
0.001
  1
DTV+
  3

  2
TRADENAME
 70
     0
1001
ACDBATTR
1070
     0
1070
     1
  0
ATTDEF
  5
21E72
  8
DEFPOINTS
 10
4942.6262571282049976
 20
2.3745797645051421
 30
0.0
 40
0.001
  1
INTERFACE MOUNTING BRACKET
  3

  2
PRODUCT
 70
     0
1001
ACDBATTR
1070
     0
1070
     1
  0
LINE
  5
237D8
  8
0
 10
4941.0202624199810089
 20
5.0019260537801591
 30
0.0
 11
4944.2305517916011013
 21
5.0019260537801591
 31
0.0
  0
LINE
  5
237D9
  8
0
 10
4944.2316481411617133
 20
-0.6042831730198412
 30
0.0
 11
4941.0191660704213064
 21
-0.6042831730198412
 31
0.0
  0
LINE
  5
237DA
  8
0
 10
4944.2818867927499014
 20
-0.266748226011535
 30
0.0
 11
4941.0189248800688802
 21
-0.266748226011535
 31
0.0
  0
ARC
  5
237DB
  8
0
 10
4941.019388747481571
 20
-0.5542394684484165
 30
0.0
 40
0.0500441999866746
 50
196.389008822431407
 51
269.7450554112469945
  0
ARC
  5
237DC
  8
0
 10
4941.0201532376922842
 20
-0.5540146260920249
 30
0.0
 40
0.0508410684615928
 50
182.8177556297769115
 51
196.3890088224312933
  0
ARC
  5
237DD
  8
0
 10
4941.5870008923084242
 20
-0.5359385242900286
 30
0.0
 40
0.6179698796625742
 50
180.1293418898426069
 51
181.9080254073672052
  0
LINE
  5
237DE
  8
0
 10
4940.9690325872452377
 20
-0.5373335541664597
 30
0.0
 11
4940.9689272795412762
 21
-0.2658678490233148
 31
0.0
  0
LINE
  5
237DF
  8
0
 10
4940.9689272795403667
 20
-0.2658678448231004
 30
0.0
 11
4941.0189248805409079
 21
-0.2667482260198413
 31
0.0
  0
LINE
  5
237E0
  8
0
 10
4940.968927302839802
 20
-0.2658678024198413
 30
0.0
 11
4940.9701126072277475
 21
-0.2634970132198413
 31
0.0
  0
LINE
  5
237E1
  8
0
 10
4940.9701126072277475
 20
-0.2634970132198413
 30
0.0
 11
4940.9702412256592652
 21
-0.2484992978198415
 31
0.0
  0
LINE
  5
237E2
  8
0
 10
4940.9702412256592652
 20
-0.2484992978198415
 30
0.0
 11
4940.9702412256419848
 21
4.9518977542801581
 31
0.0
  0
ARC
  5
237E3
  8
0
 10
4941.0202700789077426
 20
4.9518972010961084
 30
0.0
 40
0.050028853270304
 50
89.9912285712112947
 51
179.999366463364197
  0
ARC
  5
237E4
  8
0
 10
4941.0743609430510332
 20
4.897806337119567
 30
0.0
 40
0.0099540128805777
 50
89.7346850027887939
 51
180.2643804954242057
  0
ARC
  5
237E5
  8
0
 10
4941.0744070361579361
 20
-39496.6425560298375785
 30
0.0
 40
39501.5503162731110933
 50
89.9992215780791156
 51
90.0
  0
ARC
  5
237E6
  8
0
 10
4941.6171664659123053
 20
453.188059983827884
 30
0.0
 40
448.2803034275195273
 50
269.999221578079073
 51
270.000778421920927
  0
ARC
  5
237E7
  8
0
 10
4941.6224530567005786
 20
4.8648707263761768
 30
0.0
 40
0.042893402555496
 50
80.2517261132627198
 51
88.9263015862438948
  0
ARC
  5
237E8
  8
0
 10
4941.6482223477478328
 20
5.0039508763604319
 30
0.0
 40
0.0985591731789175
 50
259.1772492775627938
 51
264.5409630238901855
  0
ARC
  5
237E9
  8
0
 10
4941.6411049994030691
 20
4.9382999218882482
 30
0.0
 40
0.0325397074141958
 50
266.0191816637913007
 51
269.9223197207566045
  0
LINE
  5
237EA
  8
0
 10
4941.641060882840975
 20
4.9057602443801578
 30
0.0
 11
4942.0316934349148141
 21
4.9057602443801418
 31
0.0
  0
ARC
  5
237EB
  8
0
 10
4942.0316802113693484
 20
4.9395635828401154
 30
0.0
 40
0.0338033410464359
 50
270.0224135665920926
 51
275.2885952355749737
  0
ARC
  5
237EC
  8
0
 10
4942.029596338185911
 20
4.9620757728903131
 30
0.0
 40
0.056411773727549
 50
275.2885952355749737
 51
280.2114685037955155
  0
ARC
  5
237ED
  8
0
 10
4942.0578920231746451
 20
4.8049953768901572
 30
0.0
 40
0.1031967993395474
 50
95.6319952687656354
 51
100.2114685037955013
  0
ARC
  5
237EE
  8
0
 10
4942.0497913552289901
 20
4.8767193083917162
 30
0.0
 40
0.0310409595528105
 50
90.0722279166657245
 51
93.7439881281461851
  0
LINE
  5
237EF
  8
0
 10
4942.0497522245414075
 20
4.9077602432801584
 30
0.0
 11
4943.1930761181411071
 21
4.9077565976801587
 31
0.0
  0
ARC
  5
237F0
  8
0
 10
4941.6109241753420065
 20
4.8976349379575508
 30
0.0
 40
0.0101405816708966
 50
0.6874830337349568
 51
86.8546389250105051
  0
LINE
  5
237F1
  8
0
 10
4941.6210640270410295
 20
4.8977566102801591
 30
0.0
 11
4941.6210640266417613
 21
4.8324547487671348
 31
0.0
  0
ARC
  5
237F2
  8
0
 10
4941.6311708509347227
 20
4.8324417694915613
 30
0.0
 40
0.0101068326276803
 50
179.9264202798892995
 51
200.5257474788616037
  0
ARC
  5
237F3
  8
0
 10
4941.6310298333946776
 20
4.832388972952641
 30
0.0
 40
0.0099562556661641
 50
200.5257474788614047
 51
238.3917501553542024
  0
ARC
  5
237F4
  8
0
 10
4941.6310847645554531
 20
4.8324782334779961
 30
0.0
 40
0.0100610644143915
 50
238.3917501553546003
 51
269.8735131233353854
  0
ARC
  5
237F5
  8
0
 10
4941.4939551943098195
 20
13.1051023312626302
 30
0.0
 40
8.2838198627184436
 50
270.9483585920480095
 51
271.0175236914550965
  0
LINE
  5
237F6
  8
0
 10
4941.6410609668409961
 20
4.8225887387801576
 30
0.0
 11
4942.0317531112168581
 21
4.8225856751177343
 31
0.0
  0
ARC
  5
237F7
  8
0
 10
4941.9210564149616403
 20
-2.1267133359280219
 30
0.0
 40
6.9501806094146472
 50
89.0049653792660536
 51
89.0874018904305132
  0
ARC
  5
237F8
  8
0
 10
4942.0417492664646488
 20
4.832419992847047
 30
0.0
 40
0.0100007799909628
 50
270.0131685741948786
 51
359.9754783620848002
  0
LINE
  5
237F9
  8
0
 10
4942.0517500455407571
 20
4.8324157126801586
 30
0.0
 11
4942.0517500447422208
 21
4.897727359210152
 31
0.0
  0
ARC
  5
237FA
  8
0
 10
4942.0619984601216856
 20
4.8976334300234541
 30
0.0
 40
0.0102488458134589
 50
151.5046281702358044
 51
179.4748851323153076
  0
ARC
  5
237FB
  8
0
 10
4942.0618071923890966
 20
4.8977372599252584
 30
0.0
 40
0.0100312131089801
 50
92.3210474927444551
 51
151.5046281702389024
  0
LINE
  5
237FC
  8
0
 10
4941.7344070361414197
 20
4.8225887389370126
 30
0.0
 11
4941.7344070361414197
 21
4.8168779237801571
 31
0.0
  0
ARC
  5
237FD
  8
0
 10
4941.7573710626247703
 20
5.2259967889853867
 30
0.0
 40
0.4097628489494829
 50
266.7873331881895069
 51
270.180555145799417
  0
LINE
  5
237FE
  8
0
 10
4941.7586623386869178
 20
4.8162359746249468
 30
0.0
 11
4941.8944092159399588
 21
4.8161796837801569
 31
0.0
  0
ARC
  5
237FF
  8
0
 10
4941.8945394730790213
 20
6.951227099560616
 30
0.0
 40
2.135047421443065
 50
269.9964654324433013
 51
270.483333071639322
  0
ARC
  5
23800
  8
0
 10
4941.9079442991005635
 20
5.3622157474113807
 30
0.0
 40
0.5459795290546289
 50
270.483333071639322
 51
272.7781214023273719
  0
LINE
  5
23801
  8
0
 10
4941.9344070361412378
 20
4.8168779416799472
 30
0.0
 11
4941.9344070361412378
 21
4.822588738629725
 31
0.0
  0
ARC
  5
23802
  8
0
 10
4941.7782421774445538
 20
4.8531079764641394
 30
0.0
 40
0.1758731407900401
 50
161.8956720525115998
 51
172.4523320722987023
  0
ARC
  5
23803
  8
0
 10
4942.6295119493270249
 20
4.7631193393441391
 30
0.0
 40
1.0318352100087951
 50
173.7077081038879953
 51
175.5334814733490134
  0
ARC
  5
23804
  8
0
 10
4942.4200165381016632
 20
4.8134431649805167
 30
0.0
 40
0.8197564243797142
 50
177.9004898659310072
 51
178.9846184093019872
  0
ARC
  5
23805
  8
0
 10
4941.6215317853220768
 20
4.8276401767351684
 30
0.0
 40
0.0211455196532127
 50
179.1064809523867893
 51
265.952596952617796
  0
LINE
  5
23806
  8
0
 10
4941.6200392970422399
 20
4.806547394080158
 30
0.0
 11
4942.0521472211421496
 21
4.806547394080158
 31
0.0
  0
ARC
  5
23807
  8
0
 10
4942.0531018414130813
 20
4.8227127490143662
 30
0.0
 40
0.0161935172217695
 50
266.6204104281450213
 51
302.0134283379259728
  0
ARC
  5
23808
  8
0
 10
4942.0511910105324205
 20
4.826772577457219
 30
0.0
 40
0.0206557593422605
 50
300.5377234856729274
 51
332.7890275843287782
  0
ARC
  5
23809
  8
0
 10
4942.0463158374632258
 20
4.8292792564128559
 30
0.0
 40
0.0261376159475912
 50
332.7890275843291192
 51
1.076528196061596
  0
LINE
  5
2380A
  8
0
 10
4942.0724488399300753
 20
4.8297703261783926
 30
0.0
 11
4942.0719940969411255
 21
4.8434750522801577
 31
0.0
  0
LINE
  5
2380B
  8
0
 10
4942.0719944656411826
 20
4.8434750522801577
 30
0.0
 11
4942.068922762400689
 21
4.8762076388960596
 31
0.0
  0
ARC
  5
2380C
  8
0
 10
4941.9448015924717765
 20
4.8645598151423144
 30
0.0
 40
0.1246665016056358
 50
5.3610708415353612
 51
20.2733098387199604
  0
LINE
  5
2380D
  8
0
 10
4941.6078897371517087
 20
4.8114838305184371
 30
0.0
 11
4941.6239941939156779
 21
4.8253473664644213
 31
0.0
  0
LINE
  5
2380E
  8
0
 10
4942.0488201851640042
 20
4.8253476729181646
 30
0.0
 11
4942.0658777833996282
 21
4.812259832606089
 31
0.0
  0
LINE
  5
2380F
  8
0
 10
4941.0644070361413469
 20
4.8977603063801576
 30
0.0
 11
4941.0644070361413469
 21
-0.2544494443363368
 31
0.0
  0
ARC
  5
23810
  8
0
 10
4941.0798800953825776
 20
-0.2511545039362972
 30
0.0
 40
0.0158199935059674
 50
192.0213976934454081
 51
260.2978420102271002
  0
LINE
  5
23811
  8
0
 10
4943.2164070361423001
 20
0.5967602432801589
 30
0.0
 11
4942.0344070361406921
 21
0.5967602432801589
 31
0.0
  0
ARC
  5
23812
  8
0
 10
4942.0344070361406921
 20
0.5217602432801587
 30
0.0
 40
0.0750000000000002
 50
90.0
 51
180.0
  0
LINE
  5
23813
  8
0
 10
4941.959407036140874
 20
0.5217602432801587
 30
0.0
 11
4941.959407036140874
 21
0.026760243280159
 31
0.0
  0
ARC
  5
23814
  8
0
 10
4942.0044070361409467
 20
0.026760243280159
 30
0.0
 40
0.0450000000000008
 50
179.9999999999988916
 51
270.0
  0
ARC
  5
23815
  8
0
 10
4942.0044070361409467
 20
-116.6290146101298006
 30
0.0
 40
116.6107748534098931
 50
89.973804887827356
 51
90.0
  0
ARC
  5
23816
  8
0
 10
4942.1113796911440659
 20
117.3490339231759947
 30
0.0
 40
117.3672981333615013
 50
269.9738048878273844
 51
270.0261951121726156
  0
ARC
  5
23817
  8
0
 10
4942.1650447241236179
 20
-0.0308674227849544
 30
0.0
 40
0.0126154801835795
 50
61.2053147747930595
 51
90.0261951121726298
  0
LINE
  5
23818
  8
0
 10
4942.1711212525588053
 20
-0.0198118295198411
 30
0.0
 11
4943.0694541775174002
 21
-0.0198118295198411
 31
0.0
  0
LINE
  5
23819
  8
0
 10
4942.0157490475630766
 20
-0.0182458522198901
 30
0.0
 11
4942.0157490475812665
 21
-0.172841806821062
 31
0.0
  0
ARC
  5
2381A
  8
0
 10
4944.0232944763602063
 20
-0.1728418065759127
 30
0.0
 40
2.0075454287790482
 50
180.0000000069966006
 51
181.9299554335003108
  0
ARC
  5
2381B
  8
0
 10
4942.1458465069463273
 20
-0.2361058366619821
 30
0.0
 40
0.1290318633877877
 50
181.9299554335001972
 51
186.6973922898849878
  0
ARC
  5
2381C
  8
0
 10
4942.0186868125383626
 20
-0.2510378003506126
 30
0.0
 40
0.0009984637545473
 50
186.6973922898675937
 51
226.3233100020879931
  0
ARC
  5
2381D
  8
0
 10
4942.019666254486765
 20
-0.2500120377258144
 30
0.0
 40
0.0024167357648264
 50
226.3233100020894994
 51
253.7307856580123939
  0
ARC
  5
2381E
  8
0
 10
4942.0220471277871184
 20
-0.2418538163249004
 30
0.0
 40
0.0109152729388584
 50
253.7307856580123939
 51
260.8466791507948983
  0
ARC
  5
2381F
  8
0
 10
4942.0234422545190682
 20
-0.2283204114810706
 30
0.0
 40
0.0245105494442005
 50
262.659766387827915
 51
269.4013013908863741
  0
LINE
  5
23820
  8
0
 10
4942.0231861420261339
 20
-0.2528296228198412
 30
0.0
 11
4943.2276279735397111
 21
-0.2528296223198416
 31
0.0
  0
ARC
  5
23821
  8
0
 10
4943.2278069539252101
 20
-0.2360638516127604
 30
0.0
 40
0.016766726630943
 50
269.3883030435844148
 51
283.4386805877006168
  0
ARC
  5
23822
  8
0
 10
4943.2307963043049313
 20
-0.2498851755046099
 30
0.0
 40
0.0026466936328056
 50
290.0481799959349019
 51
331.3478279486431006
  0
LINE
  5
23823
  8
0
 10
4943.2331189016413191
 20
-0.2511542416198411
 30
0.0
 11
4943.2344030640251731
 21
-0.2275531522842815
 31
0.0
  0
ARC
  5
23824
  8
0
 10
4941.0523375962993669
 20
-0.1725148609937155
 30
0.0
 40
2.182759473453701
 50
358.555133492009702
 51
0.3156157681523659
  0
LINE
  5
23825
  8
0
 10
4943.2350639530632179
 20
-0.1604911163181519
 30
0.0
 11
4943.235063952620294
 21
-0.0182397567551487
 31
0.0
  0
ARC
  5
23826
  8
0
 10
4943.09883345297294
 20
-0.2392649800090121
 30
0.0
 40
0.2214109913395302
 50
93.3827208571190965
 51
97.6251304520060046
  0
LINE
  5
23827
  8
0
 10
4943.0857690257407739
 20
-0.0182397601198412
 30
0.0
 11
4943.235063952620294
 21
-0.0182397567551487
 31
0.0
  0
LINE
  5
23828
  8
0
 10
4943.2350639593505548
 20
-0.0182397567551487
 30
0.0
 11
4943.2464070361411359
 21
-0.0182397567198414
 31
0.0
  0
ARC
  5
23829
  8
0
 10
4943.2464070360010737
 20
0.0267602434202279
 30
0.0
 40
0.0450000001400692
 50
270.0000001783211019
 51
359.9999998216584913
  0
LINE
  5
2382A
  8
0
 10
4943.2914070361421182
 20
0.026760243280159
 30
0.0
 11
4943.2914070376818927
 21
0.5217602432801587
 31
0.0
  0
ARC
  5
2382B
  8
0
 10
4943.2164070379149052
 20
0.5217602435136073
 30
0.0
 40
0.0749999997665523
 50
359.9999998216579797
 51
90.0000013553865017
  0
LINE
  5
2382C
  8
0
 10
4942.015749047573081
 20
-0.112505198216335
 30
0.0
 11
4943.2350639529140608
 21
-0.112505198216335
 31
0.0
  0
LINE
  5
2382D
  8
0
 10
4942.8504070361414051
 20
4.4519355555801576
 30
0.0
 11
4942.400407036139768
 21
4.4519355555801594
 31
0.0
  0
ARC
  5
2382E
  8
0
 10
4942.400407036139768
 20
3.5467602432801599
 30
0.0
 40
0.905175312299999
 50
90.0
 51
180.0000000000001137
  0
LINE
  5
2382F
  8
0
 10
4941.4952317238412434
 20
3.5467602432801582
 30
0.0
 11
4941.4952317238412434
 21
1.596760243280158
 31
0.0
  0
ARC
  5
23830
  8
0
 10
4942.400407036139768
 20
1.59676024328016
 30
0.0
 40
0.9051753123000016
 50
180.0
 51
269.9999999992182893
  0
ARC
  5
23831
  8
0
 10
4942.400407036139768
 20
1.596760243180158
 30
0.0
 40
0.7299134863000001
 50
179.9999999921502933
 51
270.0
  0
LINE
  5
23832
  8
0
 10
4941.6704935498410123
 20
1.596760243280158
 30
0.0
 11
4941.6704935501093132
 21
3.5467602432801582
 31
0.0
  0
ARC
  5
23833
  8
0
 10
4942.4004070365081134
 20
3.5467602431801568
 30
0.0
 40
0.7299134864000001
 50
90.0000000288169417
 51
179.9999999921502933
  0
LINE
  5
23834
  8
0
 10
4942.400407036139768
 20
4.2766737295801578
 30
0.0
 11
4942.8504070361332197
 21
4.2766737298065136
 31
0.0
  0
ARC
  5
23835
  8
0
 10
4942.6254070361410413
 20
3.8087602432801599
 30
0.0
 40
0.1332825522999999
 50
0.0000003204990756
 51
180.0000000000007105
  0
LINE
  5
23836
  8
0
 10
4942.4921244838405983
 20
3.8087602432801591
 30
0.0
 11
4942.4921244838405983
 21
3.433760243080159
 31
0.0
  0
ARC
  5
23837
  8
0
 10
4942.6254070361410413
 20
3.4337602430801608
 30
0.0
 40
0.1332825522999972
 50
180.0000000000007958
 51
359.9999999999992042
  0
ARC
  5
23838
  8
0
 10
4942.6254070361410413
 20
3.4337602432801582
 30
0.0
 40
0.1022355674000002
 50
179.9999999439565954
 51
359.9999999439576186
  0
LINE
  5
23839
  8
0
 10
4942.5231714687397471
 20
3.4337602433801591
 30
0.0
 11
4942.5231714691080924
 21
3.8087602432734422
 31
0.0
  0
ARC
  5
2383A
  8
0
 10
4942.6254070363247592
 20
3.8087602431734409
 30
0.0
 40
0.1022355672165984
 50
359.9999999477216761
 51
179.9999999439563965
  0
LINE
  5
2383B
  8
0
 10
4944.043979436140944
 20
4.7653326432801579
 30
0.0
 11
4941.2068347388412803
 21
4.7653327330801591
 31
0.0
  0
LINE
  5
2383C
  8
0
 10
4941.2068347388412803
 20
4.7653327330801591
 30
0.0
 11
4941.2068346361411386
 21
-0.1728418069198412
 31
0.0
  0
LINE
  5
2383D
  8
0
 10
4941.2068346361411386
 20
-0.1728418069198412
 30
0.0
 11
4942.0157499682409252
 21
-0.1728418069198412
 31
0.0
  0
LINE
  5
2383E
  8
0
 10
4941.1045665656447454
 20
-0.2667482260171758
 30
0.0
 11
4941.2068346361411386
 21
-0.1728418069198412
 31
0.0
  0
LINE
  5
2383F
  8
0
 10
4941.0673359683296439
 20
4.904831311092023
 30
0.0
 11
4941.2068347388412803
 21
4.7653327330801591
 31
0.0
  0
ARC
  5
23840
  8
0
 10
4942.8120016248631146
 20
1.736979841507535
 30
0.0
 40
0.0599668987469501
 50
106.3453704958489965
 51
179.9410389428396115
  0
ARC
  5
23841
  8
0
 10
4942.6254277484749764
 20
2.3731422927370849
 30
0.0
 40
0.6029904722089763
 50
286.3453704958491244
 51
253.6611678210796867
  0
ARC
  5
23842
  8
0
 10
4942.4390157778852881
 20
1.7372632004201971
 30
0.0
 40
0.0596494321322805
 50
359.6743221981228089
 51
73.6611678210796441
  0
LINE
  5
23843
  8
0
 10
4942.4986642463964017
 20
1.736924145929708
 30
0.0
 11
4942.4987662605408332
 21
1.6217434124477279
 31
0.0
  0
ARC
  5
23844
  8
0
 10
4942.625407035587159
 20
1.6217602783786891
 30
0.0
 40
0.1266407766740535
 50
180.00732738472351
 51
359.9691497254942192
  0
LINE
  5
23845
  8
0
 10
4942.7520477939024204
 20
1.6216920900658951
 30
0.0
 11
4942.7520347578683868
 21
1.7370415513079911
 31
0.0
  0
ARC
  5
23846
  8
0
 10
4942.4379070366885571
 20
1.1217602427326721
 30
0.0
 40
0.1332825528474864
 50
90.0000005792570619
 51
269.9999995973444129
  0
ARC
  5
23847
  8
0
 10
4942.4379070353597854
 20
1.121760241785799
 30
0.0
 40
0.1022355688943595
 50
89.9999995621179352
 51
270.0000004266262863
  0
ARC
  5
23848
  8
0
 10
4944.2305441326743676
 20
4.9518972010961084
 30
0.0
 40
0.050028853270304
 50
0.0006335366357775
 51
90.0087714287887053
  0
ARC
  5
23849
  8
0
 10
4944.1764532685301674
 20
4.897806337119567
 30
0.0
 40
0.0099540128805777
 50
359.7356195045758227
 51
90.2653149972112061
  0
ARC
  5
2384A
  8
0
 10
4944.1764071754232646
 20
-39496.6425560298375785
 30
0.0
 40
39501.5503162731110933
 50
90.0
 51
90.0007784219208844
  0
ARC
  5
2384B
  8
0
 10
4943.6336477456698049
 20
453.188059983827884
 30
0.0
 40
448.2803034275195273
 50
269.999221578079073
 51
270.000778421920927
  0
ARC
  5
2384C
  8
0
 10
4943.628361154882441
 20
4.8648707263761768
 30
0.0
 40
0.042893402555496
 50
91.0736984137561052
 51
99.7482738867372944
  0
ARC
  5
2384D
  8
0
 10
4943.6025918638333678
 20
5.0039508763604319
 30
0.0
 40
0.0985591731789175
 50
275.4590369761098145
 51
280.8227507224370925
  0
ARC
  5
2384E
  8
0
 10
4943.6097092121790411
 20
4.9382999218882482
 30
0.0
 40
0.0325397074141958
 50
270.0776802792433955
 51
273.9808183362085856
  0
LINE
  5
2384F
  8
0
 10
4943.6097533287411352
 20
4.9057602443801578
 30
0.0
 11
4943.219120776667296
 21
4.9057602443801418
 31
0.0
  0
ARC
  5
23850
  8
0
 10
4943.2191340002127617
 20
4.9395635828401154
 30
0.0
 40
0.0338033410464359
 50
264.7114047644250263
 51
269.9775864334079074
  0
ARC
  5
23851
  8
0
 10
4943.2212178733961991
 20
4.9620757728903131
 30
0.0
 40
0.056411773727549
 50
259.7885314962044276
 51
264.7114047644250263
  0
ARC
  5
23852
  8
0
 10
4943.1929221884083745
 20
4.8049953768901572
 30
0.0
 40
0.1031967993395474
 50
79.7885314962044561
 51
84.3680047312343504
  0
ARC
  5
23853
  8
0
 10
4943.20102285635312
 20
4.8767193083917162
 30
0.0
 40
0.0310409595528105
 50
86.2560118718538291
 51
89.9277720833342755
  0
ARC
  5
23854
  8
0
 10
4943.6398900362410131
 20
4.8976349379575508
 30
0.0
 40
0.0101405816708966
 50
93.1453610749894949
 51
179.312516966265008
  0
LINE
  5
23855
  8
0
 10
4943.6297501845410807
 20
4.8977566102801591
 30
0.0
 11
4943.6297501849403488
 21
4.8324547487671348
 31
0.0
  0
ARC
  5
23856
  8
0
 10
4943.6196433606482969
 20
4.8324417694915613
 30
0.0
 40
0.0101068326276803
 50
339.4742525211383963
 51
0.0735797201107048
  0
ARC
  5
23857
  8
0
 10
4943.6197843781883421
 20
4.832388972952641
 30
0.0
 40
0.0099562556661641
 50
301.6082498446457976
 51
339.4742525211383963
  0
ARC
  5
23858
  8
0
 10
4943.6197294470275665
 20
4.8324782334779961
 30
0.0
 40
0.0100610644143915
 50
270.1264868766646146
 51
301.6082498446455133
  0
ARC
  5
23859
  8
0
 10
4943.7568590172722907
 20
13.1051023312626302
 30
0.0
 40
8.2838198627184436
 50
268.9824763085449035
 51
269.0516414079519905
  0
LINE
  5
2385A
  8
0
 10
4943.609753244741114
 20
4.8225887387801576
 30
0.0
 11
4943.2190611003652521
 21
4.8225856751177343
 31
0.0
  0
ARC
  5
2385B
  8
0
 10
4943.3297577966213794
 20
-2.1267133359280219
 30
0.0
 40
6.9501806094146472
 50
90.9125981095694868
 51
90.9950346207339749
  0
ARC
  5
2385C
  8
0
 10
4943.2090649451165518
 20
4.832419992847047
 30
0.0
 40
0.0100007799909628
 50
180.0245216379151998
 51
269.9868314258051214
  0
LINE
  5
2385D
  8
0
 10
4943.199064166041353
 20
4.8324157126801586
 30
0.0
 11
4943.1990641668398894
 21
4.897727359210152
 31
0.0
  0
ARC
  5
2385E
  8
0
 10
4943.188815751461334
 20
4.8976334300234541
 30
0.0
 40
0.0102488458134589
 50
0.5251148676847223
 51
28.4953718297642418
  0
ARC
  5
2385F
  8
0
 10
4943.1890070191930135
 20
4.8977372599252584
 30
0.0
 40
0.0100312131089801
 50
28.4953718297610692
 51
87.6789525072555449
  0
LINE
  5
23860
  8
0
 10
4943.516407175439781
 20
4.8225887389370126
 30
0.0
 11
4943.516407175439781
 21
4.8168779237801571
 31
0.0
  0
ARC
  5
23861
  8
0
 10
4943.4934431489564304
 20
5.2259967889853867
 30
0.0
 40
0.4097628489494829
 50
269.8194448542005262
 51
273.2126668118104931
  0
LINE
  5
23862
  8
0
 10
4943.4921518728951924
 20
4.8162359746249468
 30
0.0
 11
4943.3564049956412418
 21
4.8161796837801569
 31
0.0
  0
ARC
  5
23863
  8
0
 10
4943.3562747385030889
 20
6.951227099560616
 30
0.0
 40
2.135047421443065
 50
269.516666928360678
 51
270.0035345675566987
  0
ARC
  5
23864
  8
0
 10
4943.3428699124806371
 20
5.3622157474113807
 30
0.0
 40
0.5459795290546289
 50
267.2218785976726281
 51
269.516666928360678
  0
LINE
  5
23865
  8
0
 10
4943.3164071754408724
 20
4.8168779416799472
 30
0.0
 11
4943.3164071754408724
 21
4.822588738629725
 31
0.0
  0
ARC
  5
23866
  8
0
 10
4943.4725720341375563
 20
4.8531079764641394
 30
0.0
 40
0.1758731407900401
 50
7.5476679277012479
 51
18.1043279474884109
  0
ARC
  5
23867
  8
0
 10
4942.6213022622559947
 20
4.7631193393441391
 30
0.0
 40
1.0318352100087951
 50
4.466518526650991
 51
6.292291896111939
  0
ARC
  5
23868
  8
0
 10
4942.830797673478628
 20
4.8134431649805167
 30
0.0
 40
0.8197564243797142
 50
1.01538159069793
 51
2.0995101340689342
  0
ARC
  5
23869
  8
0
 10
4943.6292824262591239
 20
4.8276401767351684
 30
0.0
 40
0.0211455196532127
 50
274.0474030473820903
 51
0.8935190476131623
  0
LINE
  5
2386A
  8
0
 10
4943.6307749145407797
 20
4.806547394080158
 30
0.0
 11
4943.1986669904399605
 21
4.806547394080158
 31
0.0
  0
ARC
  5
2386B
  8
0
 10
4943.1977123701690289
 20
4.8227127490143662
 30
0.0
 40
0.0161935172217695
 50
237.9865716620739136
 51
273.3795895718549787
  0
ARC
  5
2386C
  8
0
 10
4943.1996232010487802
 20
4.826772577457219
 30
0.0
 40
0.0206557593422605
 50
207.2109724156711934
 51
239.462276514327101
  0
ARC
  5
2386D
  8
0
 10
4943.2044983741188844
 20
4.8292792564128559
 30
0.0
 40
0.0261376159475912
 50
178.923471803938412
 51
207.2109724156707955
  0
LINE
  5
2386E
  8
0
 10
4943.1783653716529443
 20
4.8297703261783926
 30
0.0
 11
4943.1788201146409847
 21
4.8434750522801577
 31
0.0
  0
LINE
  5
2386F
  8
0
 10
4943.1788197459409275
 20
4.8434750522801577
 30
0.0
 11
4943.1818914491823307
 21
4.8762076388960596
 31
0.0
  0
ARC
  5
23870
  8
0
 10
4943.3060126191103336
 20
4.8645598151423144
 30
0.0
 40
0.1246665016056358
 50
159.7266901612800041
 51
174.638929158464606
  0
LINE
  5
23871
  8
0
 10
4943.6429244744304015
 20
4.8114838305184371
 30
0.0
 11
4943.6268200176664322
 21
4.8253473664644213
 31
0.0
  0
LINE
  5
23872
  8
0
 10
4943.2019940264171964
 20
4.8253476729181646
 30
0.0
 11
4943.1849364281815724
 21
4.812259832606089
 31
0.0
  0
ARC
  5
23873
  8
0
 10
4942.8504116819540286
 20
3.5467647497935859
 30
0.0
 40
0.9051708057984948
 50
359.9997147453295838
 51
90.0002940720771676
  0
LINE
  5
23874
  8
0
 10
4943.7555824877408668
 20
3.5467602432801582
 30
0.0
 11
4943.7555824877408668
 21
1.596760243280158
 31
0.0
  0
ARC
  5
23875
  8
0
 10
4942.8504071754414326
 20
1.59676024328016
 30
0.0
 40
0.9051753123000016
 50
270.0000000007817107
 51
0.0
  0
LINE
  5
23876
  8
0
 10
4942.8504071754532561
 20
0.6915849309801591
 30
0.0
 11
4942.4004070361534104
 21
0.6915849309738733
 31
0.0
  0
LINE
  5
23877
  8
0
 10
4942.400407036139768
 20
0.8668467568801592
 30
0.0
 11
4942.8504071754414326
 21
0.8668467568801588
 31
0.0
  0
ARC
  5
23878
  8
0
 10
4942.8504071754414326
 20
1.596760243180158
 30
0.0
 40
0.7299134863000001
 50
270.0
 51
0.0000000078496598
  0
LINE
  5
23879
  8
0
 10
4943.5803206617410979
 20
1.596760243280158
 30
0.0
 11
4943.5803206614737064
 21
3.5467602432801582
 31
0.0
  0
ARC
  5
2387A
  8
0
 10
4942.8504159015801633
 20
3.5467689699143259
 30
0.0
 40
0.7299047599460283
 50
359.9993149800704941
 51
90.0006959164019236
  0
LINE
  5
2387B
  8
0
 10
4944.1834782432515567
 20
4.904831311092023
 30
0.0
 11
4944.0439794727408298
 21
4.7653327330801591
 31
0.0
  0
ARC
  5
2387C
  8
0
 10
4942.8129071754410688
 20
1.1217602432801581
 30
0.0
 40
0.1332825522999999
 50
270.0000001672738108
 51
89.9999996560726458
  0
LINE
  5
2387D
  8
0
 10
4942.8129071758312421
 20
0.9884776909801589
 30
0.0
 11
4942.4379070370778209
 21
0.9884776898851868
 31
0.0
  0
LINE
  5
2387E
  8
0
 10
4942.4379070361410413
 20
1.255042795580158
 30
0.0
 11
4942.8129071762414242
 21
1.255042795580158
 31
0.0
  0
LINE
  5
2387F
  8
0
 10
4942.8129071754410688
 20
1.2239958106801581
 30
0.0
 11
4942.437880744798349
 21
1.223995807299761
 31
0.0
  0
LINE
  5
23880
  8
0
 10
4942.4378823139686574
 20
1.019524675880356
 30
0.0
 11
4942.8129071754610777
 21
1.01952467289144
 31
0.0
  0
ARC
  5
23881
  8
0
 10
4942.8129071762223248
 20
1.121760241785799
 30
0.0
 40
0.1022355688943595
 50
269.9999995733737137
 51
90.0000004378820648
  0
LINE
  5
23882
  8
0
 10
4942.7276426035414261
 20
3.808760243080159
 30
0.0
 11
4942.7276426035414261
 21
3.433760243180159
 31
0.0
  0
LINE
  5
23883
  8
0
 10
4942.7586895884405749
 20
3.8087602432801599
 30
0.0
 11
4942.7586895884405749
 21
3.433760243080159
 31
0.0
  0
ARC
  5
23884
  8
0
 10
4944.2314254640987201
 20
-0.5542394684484165
 30
0.0
 40
0.0500441999866746
 50
270.2549445887528918
 51
343.6109911775686214
  0
ARC
  5
23885
  8
0
 10
4944.2306609738889165
 20
-0.5540146260920249
 30
0.0
 40
0.0508410684615928
 50
343.6109911775686214
 51
357.1822443702230885
  0
ARC
  5
23886
  8
0
 10
4943.6638133192736859
 20
-0.5359385242900286
 30
0.0
 40
0.6179698796625742
 50
358.0919745926327096
 51
359.8706581101574216
  0
LINE
  5
23887
  8
0
 10
4944.281781624335963
 20
-0.5373335541664597
 30
0.0
 11
4944.2818869320408339
 21
-0.2658678490233148
 31
0.0
  0
LINE
  5
23888
  8
0
 10
4944.2818869320417434
 20
-0.2658678448231004
 30
0.0
 11
4944.2318893310412022
 21
-0.2667482260198413
 31
0.0
  0
LINE
  5
23889
  8
0
 10
4944.2818869087423082
 20
-0.2658678024198413
 30
0.0
 11
4944.2807016043552721
 21
-0.2634970132198413
 31
0.0
  0
LINE
  5
2388A
  8
0
 10
4944.2807016043552721
 20
-0.2634970132198413
 30
0.0
 11
4944.2805729859237545
 21
-0.2484992978198415
 31
0.0
  0
LINE
  5
2388B
  8
0
 10
4944.2805729859237545
 20
-0.2484992978198415
 30
0.0
 11
4944.2805729859410349
 21
4.9518977542801581
 31
0.0
  0
ARC
  5
2388C
  8
0
 10
4944.2305441326743676
 20
4.9518972010961084
 30
0.0
 40
0.050028853270304
 50
0.0006335366357775
 51
90.0087714287887053
  0
ARC
  5
2388D
  8
0
 10
4944.1764532685301674
 20
4.897806337119567
 30
0.0
 40
0.0099540128805777
 50
359.7356195045758227
 51
90.2653149972112061
  0
LINE
  5
2388E
  8
0
 10
4944.1864071754407632
 20
4.8977603063801576
 30
0.0
 11
4944.1864071754407632
 21
-0.2544494443363368
 31
0.0
  0
ARC
  5
2388F
  8
0
 10
4944.1709341162004421
 20
-0.2511545039362972
 30
0.0
 40
0.0158199935059674
 50
279.7021579897727861
 51
347.9786023065545919
  0
LINE
  5
23890
  8
0
 10
4944.0439794727408298
 20
4.7653327330801591
 30
0.0
 11
4944.043979575440062
 21
-0.1728418069198412
 31
0.0
  0
LINE
  5
23891
  8
0
 10
4944.1462476459382742
 20
-0.2667482260171758
 30
0.0
 11
4944.043979575440062
 21
-0.1728418069198412
 31
0.0
  0
LINE
  5
23892
  8
0
 10
4944.1834782432515567
 20
4.904831311092023
 30
0.0
 11
4944.0439794727408298
 21
4.7653327330801591
 31
0.0
  0
LINE
  5
23893
  8
0
 10
4944.043979575440062
 20
-0.1728418069198412
 30
0.0
 11
4943.2350642433411849
 21
-0.1728418069198412
 31
0.0
  0
ENDSEC
  0
EOF
