  0
SECTION
  2
HEADER
  9
$ACADVER
  1
AC1009
  9
$INSBASE
 10
4049.8334143494830641
 20
95.6465041975640844
 30
0.0
  9
$EXTMIN
 10
4037.6448514542798875
 20
91.8143714893774643
 30
0.0
  9
$EXTMAX
 10
4054.3851892024258632
 20
99.7474424517665739
 30
0.0
  9
$LIMMIN
 10
0.0
 20
0.0
  9
$LIMMAX
 10
11.6929133858000007
 20
8.2677165353999982
  9
$ORTHOMODE
 70
     0
  9
$REGENMODE
 70
     1
  9
$FILLMODE
 70
     1
  9
$QTEXTMODE
 70
     0
  9
$MIRRTEXT
 70
     0
  9
$DRAGMODE
 70
     2
  9
$LTSCALE
 40
0.6431102362
  9
$OSMODE
 70
  4095
  9
$ATTMODE
 70
     1
  9
$TEXTSIZE
 40
0.2
  9
$TRACEWID
 40
0.05
  9
$TEXTSTYLE
  7
STANDARD
  9
$CLAYER
  8
0
  9
$CELTYPE
  6
BYLAYER
  9
$CECOLOR
 62
   256
  9
$DIMSCALE
 40
1.0
  9
$DIMASZ
 40
0.1875
  9
$DIMEXO
 40
0.0625
  9
$DIMDLI
 40
0.4443307087
  9
$DIMRND
 40
0.0
  9
$DIMDLE
 40
0.0
  9
$DIMEXE
 40
0.125
  9
$DIMTP
 40
0.01
  9
$DIMTM
 40
0.01
  9
$DIMTXT
 40
2.0
  9
$DIMCEN
 40
0.1052362205
  9
$DIMTSZ
 40
0.0
  9
$DIMTOL
 70
     1
  9
$DIMLIM
 70
     0
  9
$DIMTIH
 70
     1
  9
$DIMTOH
 70
     1
  9
$DIMSE1
 70
     0
  9
$DIMSE2
 70
     0
  9
$DIMTAD
 70
     0
  9
$DIMZIN
 70
     0
  9
$DIMBLK
  1

  9
$DIMASO
 70
     1
  9
$DIMSHO
 70
     1
  9
$DIMPOST
  1
\X
  9
$DIMAPOST
  1

  9
$DIMALT
 70
     1
  9
$DIMALTD
 70
     2
  9
$DIMALTF
 40
25.3999999999999986
  9
$DIMLFAC
 40
1.0
  9
$DIMTOFL
 70
     0
  9
$DIMTVP
 40
0.0
  9
$DIMTIX
 70
     0
  9
$DIMSOXD
 70
     0
  9
$DIMSAH
 70
     0
  9
$DIMBLK1
  1

  9
$DIMBLK2
  1

  9
$DIMSTYLE
  2
STANDARD
  9
$DIMCLRD
 70
     0
  9
$DIMCLRE
 70
     0
  9
$DIMCLRT
 70
     0
  9
$DIMTFAC
 40
1.0
  9
$DIMGAP
 40
0.09
  9
$LUNITS
 70
     2
  9
$LUPREC
 70
     4
  9
$SKETCHINC
 40
0.1
  9
$FILLETRAD
 40
0.0
  9
$AUNITS
 70
     0
  9
$AUPREC
 70
     0
  9
$MENU
  1
.
  9
$ELEVATION
 40
0.0
  9
$PELEVATION
 40
0.0
  9
$THICKNESS
 40
0.0
  9
$LIMCHECK
 70
     0
  9
$BLIPMODE
 70
     0
  9
$CHAMFERA
 40
0.0
  9
$CHAMFERB
 40
0.0
  9
$SKPOLY
 70
     0
  9
$TDCREATE
 40
2458060.468368056230247
  9
$TDUPDATE
 40
2459132.6463078712113202
  9
$TDINDWG
 40
0.4204931713
  9
$TDUSRTIMER
 40
0.4204931713
  9
$USRTIMER
 70
     1
  9
$ANGBASE
 50
0.0
  9
$ANGDIR
 70
     0
  9
$PDMODE
 70
     0
  9
$PDSIZE
 40
0.3125
  9
$PLINEWID
 40
0.0
  9
$COORDS
 70
     1
  9
$SPLFRAME
 70
     0
  9
$SPLINETYPE
 70
     6
  9
$SPLINESEGS
 70
     8
  9
$ATTDIA
 70
     1
  9
$ATTREQ
 70
     1
  9
$HANDLING
 70
     1
  9
$HANDSEED
  5
A1FA
  9
$SURFTAB1
 70
     6
  9
$SURFTAB2
 70
     6
  9
$SURFTYPE
 70
     6
  9
$SURFU
 70
     6
  9
$SURFV
 70
     6
  9
$UCSNAME
  2

  9
$UCSORG
 10
0.0
 20
0.0
 30
0.0
  9
$UCSXDIR
 10
1.0
 20
0.0
 30
0.0
  9
$UCSYDIR
 10
0.0
 20
1.0
 30
0.0
  9
$PUCSNAME
  2

  9
$PUCSORG
 10
0.0
 20
0.0
 30
0.0
  9
$PUCSXDIR
 10
1.0
 20
0.0
 30
0.0
  9
$PUCSYDIR
 10
0.0
 20
1.0
 30
0.0
  9
$USERI1
 70
     0
  9
$USERI2
 70
     0
  9
$USERI3
 70
     0
  9
$USERI4
 70
     0
  9
$USERI5
 70
     0
  9
$USERR1
 40
0.0
  9
$USERR2
 40
0.0
  9
$USERR3
 40
0.0
  9
$USERR4
 40
0.0
  9
$USERR5
 40
0.0
  9
$WORLDVIEW
 70
     1
  9
$SHADEDGE
 70
     3
  9
$SHADEDIF
 70
    70
  9
$TILEMODE
 70
     1
  9
$MAXACTVP
 70
    64
  9
$PLIMCHECK
 70
     0
  9
$PEXTMIN
 10
1.0000000000000000E+20
 20
1.0000000000000000E+20
 30
1.0000000000000000E+20
  9
$PEXTMAX
 10
-1.0000000000000000E+20
 20
-1.0000000000000000E+20
 30
-1.0000000000000000E+20
  9
$PLIMMIN
 10
0.0
 20
0.0
  9
$PLIMMAX
 10
12.0
 20
9.0
  9
$UNITMODE
 70
     0
  9
$VISRETAIN
 70
     1
  9
$PLINEGEN
 70
     0
  9
$PSLTSCALE
 70
     1
  0
ENDSEC
  0
SECTION
  2
TABLES
  0
TABLE
  2
VPORT
 70
     1
  0
VPORT
  2
*ACTIVE
 70
     0
 10
0.0
 20
0.0
 11
1.0
 21
1.0
 12
261.9773171404597747
 22
-28.5003330623389814
 13
0.0
 23
0.0
 14
1.0
 24
1.0
 15
0.0
 25
0.0
 16
0.0
 26
0.0
 36
5.1040778033513332
 17
3792.35791015625
 27
120.1806564331053977
 37
0.0
 40
24.0434098753703189
 41
2.005224660397074
 42
50.0
 43
0.0
 44
0.0
 50
0.0
 51
0.0
 71
     0
 72
   100
 73
     1
 74
     1
 75
     0
 76
     0
 77
     0
 78
     0
  0
ENDTAB
  0
TABLE
  2
LTYPE
 70
     2
  0
LTYPE
  2
CONTINUOUS
 70
     0
  3
Solid line
 72
    65
 73
     0
 40
0.0
  0
LTYPE
  2
PHANTOM2
 70
     0
  3
___ _ _ ___ _ _ ___ _ _ ___ _ _
 72
    65
 73
     6
 40
1.25
 49
0.625
 49
-0.125
 49
0.125
 49
-0.125
 49
0.125
 49
-0.125
  0
ENDTAB
  0
TABLE
  2
LAYER
 70
     2
  0
LAYER
  2
0
 70
     0
 62
   255
  6
CONTINUOUS
  0
LAYER
  2
DEFPOINTS
 70
     0
 62
     7
  6
CONTINUOUS
  0
ENDTAB
  0
TABLE
  2
STYLE
 70
     1
  0
STYLE
  2
STANDARD
 70
     0
 40
0.0
 41
0.8
 50
0.0
 71
     0
 42
0.2
  3
txt
  4

  0
ENDTAB
  0
TABLE
  2
VIEW
 70
     0
  0
ENDTAB
  0
TABLE
  2
UCS
 70
     0
  0
ENDTAB
  0
TABLE
  2
APPID
 70
     9
  0
APPID
  2
ACAD
 70
     0
  0
APPID
  2
ACAD_MLEADERVER
 70
     0
  0
APPID
  2
ACAD_EXEMPT_FROM_CAD_STANDARDS
 70
     0
  0
APPID
  2
ACAD_NAV_VCDISPLAY
 70
     0
  0
APPID
  2
ACAECLAYERSTANDARD
 70
     0
  0
APPID
  2
ACCMTRANSPARENCY
 70
     0
  0
APPID
  2
ACAD_DSTYLE_DIMJAG
 70
     0
  0
APPID
  2
ACAD_DSTYLE_DIMTALN
 70
     0
  0
APPID
  2
ACDBATTR
 70
     0
  0
ENDTAB
  0
TABLE
  2
DIMSTYLE
 70
     1
  0
DIMSTYLE
  2
STANDARD
 70
     0
  3

  4

  5

  6

  7

 40
1.0
 41
0.1875
 42
0.0625
 43
0.38
 44
0.125
 45
0.0
 46
0.0
 47
0.01
 48
0.01
140
0.15625
141
0.09
142
0.0
143
25.3999999999999986
144
1.0
145
0.0
146
1.0
147
0.09
 71
     1
 72
     0
 73
     1
 74
     1
 75
     0
 76
     0
 77
     0
 78
     4
170
     0
171
     2
172
     0
173
     0
174
     0
175
     0
176
     0
177
     0
178
     0
  0
ENDTAB
  0
ENDSEC
  0
SECTION
  2
BLOCKS
  0
BLOCK
  8
0
  2
$MODEL_SPACE
 70
     0
 10
0.0
 20
0.0
 30
0.0
  3
$MODEL_SPACE
  1

  0
ENDBLK
  5
21
  8
0
  0
BLOCK
 67
     1
  8
0
  2
$PAPER_SPACE
 70
     0
 10
0.0
 20
0.0
 30
0.0
  3
$PAPER_SPACE
  1

  0
ENDBLK
  5
1D
 67
     1
  8
0
  0
BLOCK
  8
0
  2
_FILLED
 70
     0
 10
0.0
 20
0.0
 30
0.0
  3
_FILLED
  1

  0
SOLID
  5
69B4
  8
0
  6
BYBLOCK
 62
     0
 10
0.0
 20
0.0
 30
0.0
 11
-1.0
 21
0.1666666667
 31
0.0
 12
-1.0
 22
-0.1666666667
 32
0.0
 13
-1.0
 23
-0.1666666667
 33
0.0
  0
ENDBLK
  5
69B5
  8
0
  6
BYBLOCK
 62
     0
  0
BLOCK
  8
0
  2
A$CDFAF6206
 70
     0
 10
0.0
 20
0.0
 30
0.0
  3
A$CDFAF6206
  1

  0
LINE
  5
6A0E
  8
0
 10
7.4646650085734834
 20
10.9287685970688493
 30
0.0
 11
7.4646650085734896
 21
10.8905784766688498
 31
0.0
  0
ARC
  5
6A0F
  8
0
 10
7.7269027075262349
 20
10.8926811525838598
 30
0.0
 40
0.2622461286616791
 50
180.4593995232625048
 51
217.0214027758331099
  0
LINE
  5
6A10
  8
0
 10
9.767814609867095
 20
10.9287685970688493
 30
0.0
 11
9.767814609867095
 21
10.8905433757650094
 31
0.0
  0
ARC
  5
6A11
  8
0
 10
9.5068669568548287
 20
10.8922438613003703
 30
0.0
 40
0.2609531936261092
 50
322.8847083717149076
 51
359.6266329125650145
  0
LINE
  5
6A12
  8
0
 10
7.517522606271406
 20
10.7347792678688396
 30
0.0
 11
9.7149570120691777
 21
10.7347792678688396
 31
0.0
  0
LINE
  5
6A13
  8
0
 10
7.4646650085734834
 20
10.9287685970688493
 30
0.0
 11
9.7678146123202936
 21
10.9287685970688493
 31
0.0
  0
ARC
  5
6A14
  8
0
 10
4.0826771419203629
 20
8.527951346868889
 30
0.0
 40
4.0826771653999172
 50
13.3117747050523896
 51
32.7200330051415591
  0
ARC
  5
6A15
  8
0
 10
4.0826771460567306
 20
8.5279513475907933
 30
0.0
 40
4.0826771612084691
 50
359.6656501984817851
 51
13.3117747085593798
  0
ARC
  5
6A16
  8
0
 10
13.1498041284835097
 20
8.5279508235212234
 30
0.0
 40
4.0826788382043553
 50
147.2799733478981068
 51
166.6882233021349862
  0
ARC
  5
6A17
  8
0
 10
13.1498064934207992
 20
8.5279506557033251
 30
0.0
 40
4.0826811782395342
 50
166.688228652086309
 51
180.3343397625230011
  0
LINE
  5
6A18
  8
0
 10
8.1652847935202928
 20
8.504127000268852
 30
0.0
 11
9.0671948248202892
 21
8.5041270002687881
 31
0.0
  0
LINE
  5
6A19
  8
0
 10
8.1652847935202786
 20
8.5041270002667204
 30
0.0
 11
8.1652847935202928
 21
8.3607006934688481
 31
0.0
  0
ARC
  5
6A1A
  8
0
 10
5.6196779630382627
 20
8.3631022096452732
 30
0.0
 40
2.545607963272567
 50
342.0511668832173768
 51
359.945947387132378
  0
LINE
  5
6A1B
  8
0
 10
9.0671948248202892
 20
8.5041270002687881
 30
0.0
 11
9.0671948248202892
 21
8.2885990108688503
 31
0.0
  0
ARC
  5
6A1C
  8
0
 10
9.4521885297801163
 20
7.9614488056228501
 30
0.0
 40
0.5052201595850959
 50
139.6436242991769916
 51
174.6757930071850069
  0
ARC
  5
6A1D
  8
0
 10
9.9238413395551746
 20
8.1492417579399508
 30
0.0
 40
0.9848265662939324
 50
188.2263441834095943
 51
209.5593615864376034
  0
ARC
  5
6A1E
  8
0
 10
8.0788764238271256
 20
7.5665710856463297
 30
0.0
 40
0.0393715937169877
 50
162.1669117288323037
 51
227.2023190037006088
  0
ARC
  5
6A1F
  8
0
 10
8.7223682141740682
 20
8.2079667397440517
 30
0.0
 40
0.947895137885075
 50
225.0018610752970858
 51
261.4598823366255829
  0
ARC
  5
6A20
  8
0
 10
8.6645157662702701
 20
8.1695128573935332
 30
0.0
 40
0.9027466462812931
 50
264.7303071214498118
 51
281.8608311947915013
  0
ARC
  5
6A21
  8
0
 10
8.6645157662698935
 20
8.1695128573999671
 30
0.0
 40
0.9027466462876658
 50
299.1741886792128753
 51
299.1743179154552195
  0
ARC
  5
6A22
  8
0
 10
9.0843330931590316
 20
7.4150554710086141
 30
0.0
 40
0.0393703053609601
 50
251.9700352025496954
 51
252.4698971938937859
  0
ARC
  5
6A23
  8
0
 10
9.0843330931590316
 20
7.4150554710086141
 30
0.0
 40
0.0393703053609601
 50
297.2453716727138726
 51
6.8376113572703074
  0
LINE
  5
6A24
  8
0
 10
9.0671948248202892
 20
7.663402160468852
 30
0.0
 11
9.1234233799329516
 21
7.419742732911689
 31
0.0
  0
ARC
  5
6A25
  8
0
 10
8.8843741880892395
 20
9.8961379890094676
 30
0.0
 40
2.5255097382132701
 50
263.792800240752797
 51
274.9514951129821156
  0
ARC
  5
6A26
  8
0
 10
8.8258167405968848
 20
9.2763025889666508
 30
0.0
 40
1.9029970832759311
 50
246.0108363320686067
 51
263.5276935074397215
  0
ARC
  5
6A27
  8
0
 10
8.607491361665744
 20
8.3225444804829642
 30
0.0
 40
1.064510137163637
 50
283.1717405874071005
 51
297.7022170607311864
  0
LINE
  5
6A28
  8
0
 10
9.0671948248202892
 20
8.2885990108688503
 30
0.0
 11
26.2014378595979593
 21
8.2885990108689942
 31
0.0
  0
LINE
  5
6A29
  8
0
 10
26.2014378595979913
 20
7.6634021604689053
 30
0.0
 11
9.0671948248202892
 21
7.6634021604688618
 31
0.0
  0
LINE
  5
6A2A
  8
0
 10
27.8039676758446994
 20
10.9287685970690802
 30
0.0
 11
27.8039676758446888
 21
10.8905784766690807
 31
0.0
  0
ARC
  5
6A2B
  8
0
 10
27.5417299768919399
 20
10.8926811525840801
 30
0.0
 40
0.2622461286616791
 50
322.9785972241680838
 51
359.5406004767386889
  0
LINE
  5
6A2C
  8
0
 10
25.5008180745510913
 20
10.9287685970690305
 30
0.0
 11
25.5008180745510913
 21
10.8905433757651799
 31
0.0
  0
ARC
  5
6A2D
  8
0
 10
25.7617657275633505
 20
10.8922438613005497
 30
0.0
 40
0.2609531936261092
 50
180.3733670874362929
 51
217.1152916282862861
  0
LINE
  5
6A2E
  8
0
 10
27.7511100781467803
 20
10.7347792678690706
 30
0.0
 11
25.5536756723490015
 21
10.7347792678690208
 31
0.0
  0
LINE
  5
6A2F
  8
0
 10
27.8039676758446888
 20
10.9287685970686006
 30
0.0
 11
25.5008180745510806
 21
10.9287685970686006
 31
0.0
  0
ARC
  5
6A30
  8
0
 10
31.1859555424978616
 20
8.5279513468691981
 30
0.0
 40
4.0826771653999172
 50
147.2799669948597057
 51
166.6882252949490066
  0
ARC
  5
6A31
  8
0
 10
31.185955538361501
 20
8.5279513475911024
 30
0.0
 40
4.0826771612084691
 50
166.6882252914419098
 51
180.3343498015194086
  0
ARC
  5
6A32
  8
0
 10
22.1188285559344706
 20
8.5279508235212251
 30
0.0
 40
4.0826788382046102
 50
13.3117766978667795
 51
32.7200266521023977
  0
ARC
  5
6A33
  8
0
 10
22.1188261909974315
 20
8.5279506557034264
 30
0.0
 40
4.0826811782395342
 50
359.665660237478221
 51
13.31177134791497
  0
LINE
  5
6A34
  8
0
 10
27.1033478908979397
 20
8.5041270002690652
 30
0.0
 11
26.2014378595979416
 21
8.5041270002689835
 31
0.0
  0
LINE
  5
6A35
  8
0
 10
27.1033478908979504
 20
8.5041270002669354
 30
0.0
 11
27.1033478908979397
 21
8.3607006934690649
 31
0.0
  0
ARC
  5
6A36
  8
0
 10
29.6489547213799689
 20
8.3631022096455467
 30
0.0
 40
2.545607963272567
 50
180.0540526128687873
 51
197.9488331167837032
  0
LINE
  5
6A37
  8
0
 10
26.2014378595979416
 20
8.5041270002689835
 30
0.0
 11
26.2014378595979487
 21
8.2885990108690457
 31
0.0
  0
ARC
  5
6A38
  8
0
 10
25.8164441546381305
 20
7.9614488056230366
 30
0.0
 40
0.5052201595850959
 50
5.324206992816312
 51
40.3563757008241879
  0
ARC
  5
6A39
  8
0
 10
25.3447913448601803
 20
8.149241757940846
 30
0.0
 40
0.9848265662968968
 50
330.4406384136033807
 51
351.7736558165743759
  0
ARC
  5
6A3A
  8
0
 10
27.1897562605911212
 20
7.5665710856465473
 30
0.0
 40
0.0393715937169877
 50
312.7976809963004143
 51
17.8330882711689185
  0
ARC
  5
6A3B
  8
0
 10
26.5462644702441715
 20
8.2079667397442542
 30
0.0
 40
0.947895137885075
 50
278.5401176633754972
 51
314.9981389247041079
  0
ARC
  5
6A3C
  8
0
 10
26.6041169181479695
 20
8.1695128573937392
 30
0.0
 40
0.9027466462812931
 50
258.139168805210204
 51
275.2696928785518935
  0
ARC
  5
6A3D
  8
0
 10
26.6041169181483497
 20
8.1695128574001732
 30
0.0
 40
0.9027466462876658
 50
240.8256820845460027
 51
240.8258113207880058
  0
ARC
  5
6A3E
  8
0
 10
26.1842995912592293
 20
7.4150554710088086
 30
0.0
 40
0.0393703053609601
 50
287.5301028061073794
 51
288.0299647974517825
  0
ARC
  5
6A3F
  8
0
 10
26.1842995912592293
 20
7.4150554710088086
 30
0.0
 40
0.0393703053609601
 50
173.1623886427310026
 51
242.7546283272870085
  0
LINE
  5
6A40
  8
0
 10
26.2014378595981192
 20
7.6634021604690448
 30
0.0
 11
26.1452093044853093
 21
7.4197427329118826
 31
0.0
  0
ARC
  5
6A41
  8
0
 10
26.384258496328961
 20
9.8961379890096666
 30
0.0
 40
2.5255097382132701
 50
265.0485048870193054
 51
276.2071997592482262
  0
ARC
  5
6A42
  8
0
 10
26.4428159438213299
 20
9.2763025889668516
 30
0.0
 40
1.9029970832759311
 50
276.4723064925619838
 51
293.9891636679327007
  0
ARC
  5
6A43
  8
0
 10
26.6611413227524885
 20
8.3225444804831703
 30
0.0
 40
1.064510137163637
 50
242.2977829392704052
 51
256.8282594125943774
  0
LINE
  5
6A44
  8
0
 62
     4
 10
17.9031473532159602
 20
10.9287685970686006
 30
0.0
 11
24.6329820359843588
 21
20.0952817181593808
 31
0.0
  0
LINE
  5
6A45
  8
0
 62
     4
 10
17.9031473532159602
 20
-0.0000000300842942
 30
0.0
 11
22.3963351323106608
 21
4.993614497796286
 31
0.0
  0
ENDBLK
  5
6A49
  8
0
  0
ENDSEC
  0
SECTION
  2
ENTITIES
  0
ATTDEF
  5
3930
  8
DEFPOINTS
 10
4049.8355710962568992
 20
95.651127545257026
 30
0.0
 40
0.001
  1
K-99723T-4
  3

  2
MODELNUMBER
 70
     0
1001
ACDBATTR
1070
     0
1070
     1
  0
ATTDEF
  5
3931
  8
DEFPOINTS
 10
4049.8355710962568992
 20
95.6494608785903608
 30
0.0
 40
0.001
  1
MODULO
  3

  2
TRADENAME
 70
     0
1001
ACDBATTR
1070
     0
1070
     1
  0
ATTDEF
  5
3932
  8
DEFPOINTS
 10
4049.8355710962568992
 20
95.6477942119236957
 30
0.0
 40
0.001
  1
VALVE TRIM
  3

  2
PRODUCT
 70
     0
1001
ACDBATTR
1070
     0
1070
     1
  0
ARC
  5
A108
  8
0
 10
4048.9082175195089803
 20
93.9490106342640843
 30
0.0
 40
0.0196850393999965
 50
180.0000002910518049
 51
255.0000000720264097
  0
ARC
  5
A109
  8
0
 10
4048.8806584644098621
 20
93.9850868746640771
 30
0.0
 40
0.0118110236
 50
180.0
 51
270.0
  0
LINE
  5
A10A
  8
0
 10
4048.9680374668691911
 20
93.912602475364082
 30
0.0
 11
4048.90312265643297
 21
93.9299963463097072
 31
0.0
  0
LINE
  5
A10B
  8
0
 10
4048.8885324801099159
 20
93.9490106342640843
 30
0.0
 11
4048.8885324801099159
 21
93.9732758510640735
 31
0.0
  0
LINE
  5
A10C
  8
0
 10
4048.8688474408099864
 20
93.9850868746640771
 30
0.0
 11
4048.8688474408099864
 21
95.0559530164640734
 31
0.0
  0
ARC
  5
A10D
  8
0
 10
4050.7586112172562025
 20
93.9490106342640843
 30
0.0
 40
0.0196850393999965
 50
284.9999999279735903
 51
359.9999997089474277
  0
ARC
  5
A10E
  8
0
 10
4050.786170272354866
 20
93.9850868746640771
 30
0.0
 40
0.0118110236
 50
270.0
 51
0.0
  0
LINE
  5
A10F
  8
0
 10
4050.6987912698969012
 20
93.912602475364082
 30
0.0
 11
4050.7637060803322129
 21
93.9299963463097072
 31
0.0
  0
LINE
  5
A110
  8
0
 10
4050.7782962566548122
 20
93.9490106342640843
 30
0.0
 11
4050.7782962566548122
 21
93.9732758510640735
 31
0.0
  0
LINE
  5
A111
  8
0
 10
4050.7979812959551964
 20
93.9850868746640771
 30
0.0
 11
4050.7979812959551964
 21
95.0559530164640734
 31
0.0
  0
LINE
  5
A112
  8
0
 10
4050.7637060803322129
 20
93.9299963463097072
 30
0.0
 11
4050.2349891454809949
 21
93.9299963457284122
 31
0.0
  0
LINE
  5
A113
  8
0
 10
4049.4318395463619709
 20
93.9299963448453639
 30
0.0
 11
4048.903131856508935
 21
93.9299963442640689
 31
0.0
  0
LINE
  5
A114
  8
0
 10
4048.8806584652088532
 20
93.9732758510640735
 30
0.0
 11
4049.4316536223809635
 21
93.9732758510640735
 31
0.0
  0
LINE
  5
A115
  8
0
 10
4050.2351750694610928
 20
93.9732758510640735
 30
0.0
 11
4050.786170272354866
 21
93.9732758510640735
 31
0.0
  0
LINE
  5
A116
  8
0
 10
4049.3511308848828776
 20
95.0559530164640734
 30
0.0
 11
4049.3511308848828776
 21
94.2488664023640865
 31
0.0
  0
LINE
  5
A117
  8
0
 10
4049.3511308848828776
 20
94.2488664023640865
 30
0.0
 11
4049.3708159242828515
 21
94.2291813629640842
 31
0.0
  0
LINE
  5
A118
  8
0
 10
4049.3708159242828515
 20
94.2291813629640842
 30
0.0
 11
4050.2960127746819126
 21
94.2291813629640842
 31
0.0
  0
LINE
  5
A119
  8
0
 10
4050.2960127746819126
 20
94.2291813629640842
 30
0.0
 11
4050.315697813981842
 21
94.2488664023640865
 31
0.0
  0
LINE
  5
A11A
  8
0
 10
4050.315697813981842
 20
94.2488664023640865
 30
0.0
 11
4050.315515566700924
 21
95.0559530164640734
 31
0.0
  0
LINE
  5
A11B
  8
0
 10
4049.4318395463819797
 20
93.9672289816640642
 30
0.0
 11
4049.4318395462819353
 21
93.790346342664094
 31
0.0
  0
LINE
  5
A11C
  8
0
 10
4049.4005401722829447
 20
93.7183627106640813
 30
0.0
 11
4049.3563120647218057
 21
93.6771193332012331
 31
0.0
  0
LINE
  5
A11D
  8
0
 10
4049.3563120647190772
 20
94.0804559912640741
 30
0.0
 11
4049.4005401722829447
 21
94.0392126136640911
 31
0.0
  0
ARC
  5
A11E
  8
0
 10
4049.3334143499860147
 20
93.9672289820194635
 30
0.0
 40
0.0984251962971558
 50
359.9999997931266194
 51
47.0000000000947935
  0
ARC
  5
A11F
  8
0
 10
4049.3334143499860147
 20
93.7903463423087089
 30
0.0
 40
0.098425196297157
 50
312.9999999999056968
 51
0.00000020687264
  0
ARC
  5
A120
  8
0
 10
4049.3919538411660142
 20
93.6411655491062049
 30
0.0
 40
0.0506261870871015
 50
134.7503112778846059
 51
180.0969150046973937
  0
ARC
  5
A121
  8
0
 10
4049.3609388716399735
 20
93.6410085748135543
 30
0.0
 40
0.0196112748979607
 50
179.7915720074722969
 51
265.6728142186191235
  0
ARC
  5
A122
  8
0
 10
4049.8334143494330419
 20
99.7646144613371746
 30
0.0
 40
6.16141735027308
 50
265.5882741745728026
 51
274.4117257693208103
  0
LINE
  5
A123
  8
0
 10
4049.3594591643909553
 20
93.6214532029280946
 30
0.0
 11
4050.3073695274520105
 21
93.6214532024640818
 31
0.0
  0
ARC
  5
A124
  8
0
 10
4049.3908506794809909
 20
94.1159479178257072
 30
0.0
 40
0.0495236585956753
 50
180.3058556624625055
 51
225.7799078538355104
  0
ARC
  5
A125
  8
0
 10
4049.3609426678040109
 20
94.1157525190648556
 30
0.0
 40
0.0196150625447587
 50
91.9173033163594653
 51
180.201452495295797
  0
ARC
  5
A126
  8
0
 10
4049.8334143464257977
 20
88.2608780684868748
 30
0.0
 40
5.8935004935861048
 50
85.3953619137341775
 51
94.6046380862658367
  0
LINE
  5
A127
  8
0
 10
4049.3602864064469031
 20
94.1353566002640889
 30
0.0
 11
4050.3065422853960627
 21
94.1353566002640889
 31
0.0
  0
LINE
  5
A128
  8
0
 10
4050.234989145460986
 20
93.9672289816640642
 30
0.0
 11
4050.234989145560121
 21
93.790346342664094
 31
0.0
  0
LINE
  5
A129
  8
0
 10
4050.2662885195600211
 20
93.7183627106640813
 30
0.0
 11
4050.3105166271197959
 21
93.6771193332012331
 31
0.0
  0
LINE
  5
A12A
  8
0
 10
4050.3105166271229791
 20
94.0804559912640741
 30
0.0
 11
4050.2662885195600211
 21
94.0392126136640911
 31
0.0
  0
ARC
  5
A12B
  8
0
 10
4050.3334143418569511
 20
93.9672289820194635
 30
0.0
 40
0.0984251962971558
 50
132.9999999999058105
 51
180.0000002068734943
  0
ARC
  5
A12C
  8
0
 10
4050.3334143418569511
 20
93.7903463423087089
 30
0.0
 40
0.098425196297157
 50
179.9999997931273015
 51
227.0000000000941895
  0
ARC
  5
A12D
  8
0
 10
4050.2744395863142017
 20
93.6408729445473682
 30
0.0
 40
0.0511405276072142
 50
0.2318827043032835
 51
45.1341597720390126
  0
ARC
  5
A12E
  8
0
 10
4050.303842710779918
 20
93.6429867606818362
 30
0.0
 40
0.0218204616213847
 50
279.3014546263166835
 51
354.9866455755794163
  0
ARC
  5
A12F
  8
0
 10
4050.2706132123971656
 20
94.1183526365519754
 30
0.0
 40
0.0550312477677272
 50
316.4775557985486785
 51
357.2199926387448272
  0
ARC
  5
A130
  8
0
 10
4050.3044981272391851
 20
94.1143308105850025
 30
0.0
 40
0.0211249240046021
 50
3.671467310554855
 51
84.4470717256768637
  0
LINE
  5
A131
  8
0
 10
4049.6056432076829878
 20
93.9672289816577546
 30
0.0
 11
4049.6056432076829878
 21
93.790346342664094
 31
0.0
  0
LINE
  5
A132
  8
0
 10
4049.3563120647190772
 20
94.0804559912640741
 30
0.0
 11
4049.3891782087830506
 21
94.0615937579640899
 31
0.0
  0
ARC
  5
A133
  8
0
 10
4049.5279513896189201
 20
94.3052189751137462
 30
0.0
 40
0.2803769643729776
 50
240.333405010966203
 51
251.5762301046227094
  0
ARC
  5
A134
  8
0
 10
4048.3328459779681907
 20
91.2548015780891149
 30
0.0
 40
2.9962101407608599
 50
64.8618439928801678
 51
68.3276720724082338
  0
LINE
  5
A135
  8
0
 10
4049.3563120644521405
 20
93.6771193333378278
 30
0.0
 11
4049.3891782085761406
 21
93.6959815666024838
 31
0.0
  0
ARC
  5
A136
  8
0
 10
4049.5279513891377974
 20
93.4523563492959255
 30
0.0
 40
0.2803769643729776
 50
108.4237698305928035
 51
119.6665949242612044
  0
ARC
  5
A137
  8
0
 10
4048.3328459809358719
 20
96.5027737476718528
 30
0.0
 40
2.9962101407608599
 50
291.672327862799591
 51
295.138155942333924
  0
LINE
  5
A138
  8
0
 10
4050.0611854912499439
 20
93.9672289816136441
 30
0.0
 11
4050.0611854912149283
 21
93.7903463426199977
 31
0.0
  0
LINE
  5
A139
  8
0
 10
4050.3105166271229791
 20
94.0804559912640741
 30
0.0
 11
4050.277650490168071
 21
94.0615937578781001
 31
0.0
  0
ARC
  5
A13A
  8
0
 10
4050.138877309378131
 20
94.3052189750546148
 30
0.0
 40
0.2803769643729776
 50
288.4237698842828763
 51
299.6665949779404059
  0
ARC
  5
A13B
  8
0
 10
4051.3339827204381436
 20
91.2548015777986734
 30
0.0
 40
2.9962101407608599
 50
111.6723279165150018
 51
115.1381559960377956
  0
LINE
  5
A13C
  8
0
 10
4050.3105166344230383
 20
93.6771193332454857
 30
0.0
 11
4050.2776504903031309
 21
93.6959815665165081
 31
0.0
  0
ARC
  5
A13D
  8
0
 10
4050.1388773096941804
 20
93.4523563492367941
 30
0.0
 40
0.2803769643729776
 50
60.3334050646680993
 51
71.576230158337637
  0
ARC
  5
A13E
  8
0
 10
4051.3339827184881869
 20
96.5027737473814113
 30
0.0
 40
2.9962101407608599
 50
244.8618440465837125
 51
248.3276721260997135
  0
LINE
  5
A13F
  8
0
 10
4049.4397135620820336
 20
94.1412137528086248
 30
0.0
 11
4049.4397135620820336
 21
94.2291813629640842
 31
0.0
  0
LINE
  5
A140
  8
0
 10
4050.2271151368831852
 20
94.1412137523992527
 30
0.0
 11
4050.2271151368831852
 21
94.2291813629640842
 31
0.0
  0
LINE
  5
A141
  8
0
 10
4050.315697813981842
 20
94.2488664023640865
 30
0.0
 11
4049.3511308848828776
 21
94.2488664023640865
 31
0.0
  0
ARC
  5
A142
  8
0
 10
4048.9136165268241712
 20
93.8355757633342762
 30
0.0
 40
0.0392749808661529
 50
1.865901900016719
 51
89.8773839481617358
  0
ARC
  5
A143
  8
0
 10
4048.9400920330840563
 20
93.8504928449295477
 30
0.0
 40
0.0715274781984238
 50
165.4864560616780125
 51
174.9027685858526127
  0
ARC
  5
A144
  8
0
 10
4048.8812336764181055
 20
93.8632699326618223
 30
0.0
 40
0.0115925017221713
 50
92.5832157805982945
 51
153.633668216562711
  0
ARC
  5
A145
  8
0
 10
4049.0339133547067831
 20
93.8628856494662358
 30
0.0
 40
0.1651763253966743
 50
182.0948590037012025
 51
191.1911805834012057
  0
ARC
  5
A146
  8
0
 10
4049.1039554124458846
 20
93.8721008709159008
 30
0.0
 40
0.2357190523235951
 50
190.0841789093070986
 51
207.1345678849154979
  0
ARC
  5
A147
  8
0
 10
4049.2462721739661902
 20
93.9603137237383947
 30
0.0
 40
0.4028339035392497
 50
209.0686972810746056
 51
232.635211920141586
  0
ARC
  5
A148
  8
0
 10
4049.4668103611961669
 20
94.2473888330702465
 30
0.0
 40
0.764840284740099
 50
232.5558986861261985
 51
246.2920508986412074
  0
ARC
  5
A149
  8
0
 10
4049.6482845800292125
 20
94.6396220545487381
 30
0.0
 40
1.196967749493564
 50
245.8874750977726933
 51
253.4283671984773889
  0
ARC
  5
A14A
  8
0
 10
4049.815957551658812
 20
95.2457160967501011
 30
0.0
 40
1.8257501475427751
 50
253.8099109015331862
 51
270.5478384203751716
  0
ARC
  5
A14B
  8
0
 10
4049.1728661579841173
 20
93.8559442622513131
 30
0.0
 40
0.2261163466096294
 50
191.6498443180819038
 51
223.7483740632179945
  0
ARC
  5
A14C
  8
0
 10
4049.8334143494321324
 20
93.8477131910640878
 30
0.0
 40
0.807086614199979
 50
180.7223628865997114
 51
193.1299426035552074
  0
ARC
  5
A14D
  8
0
 10
4049.1967365027630876
 20
93.8631077840650647
 30
0.0
 40
0.2485718228535958
 50
221.1355924121558871
 51
233.082166151333098
  0
ARC
  5
A14E
  8
0
 10
4049.3529041228648566
 20
94.0727756195921359
 30
0.0
 40
0.5100070016326183
 50
233.2040959364881019
 51
249.2982907951731022
  0
ARC
  5
A14F
  8
0
 10
4049.8013539563207814
 20
95.289972834879336
 30
0.0
 40
1.8071744820329481
 50
249.6403086570124117
 51
271.0150999302342143
  0
ARC
  5
A150
  8
0
 10
4049.0583561640892185
 20
93.8321045729416738
 30
0.0
 40
0.1091515481933192
 50
181.9192185453896968
 51
191.5314303932948974
  0
ARC
  5
A151
  8
0
 10
4048.9698085175741653
 20
93.8287577485012463
 30
0.0
 40
0.0205449912961731
 50
165.6602546510887066
 51
180.8609520996278945
  0
ARC
  5
A152
  8
0
 10
4048.9545812176929758
 20
93.8328056142905069
 30
0.0
 40
0.00479193164618
 50
133.073507572822507
 51
167.458700525418692
  0
ARC
  5
A153
  8
0
 10
4048.952830769234879
 20
93.8344699337357184
 30
0.0
 40
0.0023849717396036
 50
89.0410816479032547
 51
129.6591525291433129
  0
LINE
  5
A154
  8
0
 10
4048.8807111983319373
 20
93.8748506542640939
 30
0.0
 11
4049.0163874992322235
 21
93.8748506542640939
 31
0.0
  0
ARC
  5
A155
  8
0
 10
4048.9474220105371387
 20
93.8363618938523274
 30
0.0
 40
0.0789786256465142
 50
0.8532680988929389
 51
74.8690637756423598
  0
ARC
  5
A156
  8
0
 10
4049.8334143484908054
 20
102.1702902513756044
 30
0.0
 40
9.8702427468114902
 50
264.4956304478798188
 51
270.000000005471577
  0
ARC
  5
A157
  8
0
 10
4048.8885324596521968
 20
92.3651545886325209
 30
0.0
 40
0.0196850393182837
 50
179.9999999081109081
 51
264.4956307789512948
  0
LINE
  5
A158
  8
0
 10
4048.8688474203318037
 20
92.3651545886640832
 30
0.0
 11
4048.8688474203318037
 21
93.8568477872107536
 31
0.0
  0
ARC
  5
A159
  8
0
 10
4050.7532121721419571
 20
93.8355757633342762
 30
0.0
 40
0.0392749808661529
 50
90.1226160518382358
 51
178.134098099983305
  0
ARC
  5
A15A
  8
0
 10
4050.6329153599472193
 20
93.8628856470046884
 30
0.0
 40
0.1651763095288614
 50
348.8088191980220927
 51
357.9051416493829265
  0
ARC
  5
A15B
  8
0
 10
4050.5628732865188795
 20
93.8721008709159008
 30
0.0
 40
0.2357190523235951
 50
332.8654321150846158
 51
349.9158210906927025
  0
ARC
  5
A15C
  8
0
 10
4050.4205565249999381
 20
93.9603137237383947
 30
0.0
 40
0.4028339035392497
 50
307.3647880798582719
 51
330.9313027189252807
  0
ARC
  5
A15D
  8
0
 10
4050.2000183377681424
 20
94.2473888330702465
 30
0.0
 40
0.764840284740099
 50
293.7079491013589063
 51
307.4441013138737731
  0
ARC
  5
A15E
  8
0
 10
4050.0185441189369158
 20
94.6396220545487381
 30
0.0
 40
1.196967749493564
 50
286.5716328015225258
 51
294.1125249022272783
  0
ARC
  5
A15F
  8
0
 10
4050.493962540980192
 20
93.8559442622513131
 30
0.0
 40
0.2261163466096294
 50
316.2516259367819771
 51
348.3501556819181246
  0
ARC
  5
A160
  8
0
 10
4049.8334143495321769
 20
93.8477131910640878
 30
0.0
 40
0.807086614199979
 50
346.8700573964447926
 51
359.277637113400317
  0
ARC
  5
A161
  8
0
 10
4050.4700921962021312
 20
93.8631077840650647
 30
0.0
 40
0.2485718228535958
 50
306.9178338486668167
 51
318.8644075878440844
  0
ARC
  5
A162
  8
0
 10
4050.3139245761008169
 20
94.0727756195921359
 30
0.0
 40
0.5100070016326183
 50
290.7017092048270115
 51
306.7959040635117844
  0
ARC
  5
A163
  8
0
 10
4049.8654628630761181
 20
95.290017120583741
 30
0.0
 40
1.8072201341322851
 50
268.9824705421622184
 51
290.3595559633465086
  0
ARC
  5
A164
  8
0
 10
4050.6084725348760003
 20
93.8321045729416738
 30
0.0
 40
0.1091515481933192
 50
348.4685696067049889
 51
358.0807814546103032
  0
ARC
  5
A165
  8
0
 10
4050.6970201813910535
 20
93.8287577485012463
 30
0.0
 40
0.0205449912961731
 50
359.139047900372077
 51
14.3397453489112294
  0
ARC
  5
A166
  8
0
 10
4050.7122474812717883
 20
93.8328056142905069
 30
0.0
 40
0.00479193164618
 50
12.5412994745812991
 51
46.9264924271774788
  0
ARC
  5
A167
  8
0
 10
4050.7139979297298851
 20
93.8344699337357184
 30
0.0
 40
0.0023849717396036
 50
50.34084747085668
 51
90.9589183520967453
  0
LINE
  5
A168
  8
0
 10
4050.7861175006319172
 20
93.8748506542640939
 30
0.0
 11
4050.6504411997329953
 21
93.8748506542640939
 31
0.0
  0
ARC
  5
A169
  8
0
 10
4050.7194066884280801
 20
93.8363618938523274
 30
0.0
 40
0.0789786256465142
 50
105.1309362243575976
 51
179.146731901106989
  0
ARC
  5
A16A
  8
0
 10
4049.8334143504739586
 20
102.1702902513756044
 30
0.0
 40
9.8702427468114902
 50
269.999999994528423
 51
275.5043695521201812
  0
ARC
  5
A16B
  8
0
 10
4050.7782962394071546
 20
92.3651545884480356
 30
0.0
 40
0.0196850391257884
 50
275.5043690046007896
 51
0.0000006288236494
  0
LINE
  5
A16C
  8
0
 10
4050.7979812785329159
 20
92.3651545886700092
 30
0.0
 11
4050.7979812785329159
 21
93.8568477872107536
 31
0.0
  0
ARC
  5
A16D
  8
0
 10
4050.7267366803230288
 20
93.8504928480410427
 30
0.0
 40
0.0715274634387605
 50
5.0972299664324927
 51
14.5135444243571108
  0
ARC
  5
A16E
  8
0
 10
4050.7855950225471133
 20
93.8632699326618223
 30
0.0
 40
0.0115925017221713
 50
26.3663317834372712
 51
87.4167842194017055
  0
ARC
  5
A16F
  8
0
 10
4049.8508711473068615
 20
95.2457160967501011
 30
0.0
 40
1.8257501475427751
 50
269.4521615796248284
 51
286.190089098466899
  0
LINE
  5
A170
  8
0
 10
4048.8866442379239743
 20
92.3455603192745542
 30
0.0
 11
4050.780184461045792
 21
92.345560319275009
 31
0.0
  0
ARC
  5
A171
  8
0
 10
4047.1652514017550857
 20
95.0953230952231081
 30
0.0
 40
0.0393700787590264
 50
185.0000000040134864
 51
269.9999999665972723
  0
LINE
  5
A172
  8
0
 10
4047.1260311380328858
 20
95.0918917667640926
 30
0.0
 11
4047.0775087895399338
 21
95.6465041975640844
 31
0.0
  0
ARC
  5
A173
  8
0
 10
4052.5015772972092236
 20
95.0953230952231081
 30
0.0
 40
0.0393700787590264
 50
270.000000033402614
 51
354.9999999959865136
  0
LINE
  5
A174
  8
0
 10
4052.5407975609318783
 20
95.0918917667640926
 30
0.0
 11
4052.5893199094261945
 21
95.6465041975640844
 31
0.0
  0
LINE
  5
A175
  8
0
 10
4047.0775087895399338
 20
95.6465041975640844
 30
0.0
 11
4052.5893199094261945
 21
95.6465041975640844
 31
0.0
  0
LINE
  5
A176
  8
0
 10
4047.1652514017550857
 20
95.0559530164640734
 30
0.0
 11
4052.5015772972092236
 21
95.0559530164640734
 31
0.0
  0
ENDSEC
  0
EOF
