  0
SECTION
  2
HEADER
  9
$ACADVER
  1
AC1009
  9
$INSBASE
 10
4051.1025883931188218
 20
96.2751606998237008
 30
0.0
  9
$EXTMIN
 10
4037.6448514542798875
 20
89.2945279601301252
 30
0.0
  9
$EXTMAX
 10
4057.526554108451819
 20
99.8184677864508529
 30
0.0
  9
$LIMMIN
 10
0.0
 20
0.0
  9
$LIMMAX
 10
11.6929133858000007
 20
8.2677165353999982
  9
$ORTHOMODE
 70
     0
  9
$REGENMODE
 70
     1
  9
$FILLMODE
 70
     1
  9
$QTEXTMODE
 70
     0
  9
$MIRRTEXT
 70
     0
  9
$DRAGMODE
 70
     2
  9
$LTSCALE
 40
0.6431102362
  9
$OSMODE
 70
  4095
  9
$ATTMODE
 70
     1
  9
$TEXTSIZE
 40
0.2
  9
$TRACEWID
 40
0.05
  9
$TEXTSTYLE
  7
STANDARD
  9
$CLAYER
  8
0
  9
$CELTYPE
  6
BYLAYER
  9
$CECOLOR
 62
   256
  9
$DIMSCALE
 40
1.0
  9
$DIMASZ
 40
0.1875
  9
$DIMEXO
 40
0.0625
  9
$DIMDLI
 40
0.4443307087
  9
$DIMRND
 40
0.0
  9
$DIMDLE
 40
0.0
  9
$DIMEXE
 40
0.125
  9
$DIMTP
 40
0.01
  9
$DIMTM
 40
0.01
  9
$DIMTXT
 40
2.0
  9
$DIMCEN
 40
0.1052362205
  9
$DIMTSZ
 40
0.0
  9
$DIMTOL
 70
     1
  9
$DIMLIM
 70
     0
  9
$DIMTIH
 70
     1
  9
$DIMTOH
 70
     1
  9
$DIMSE1
 70
     0
  9
$DIMSE2
 70
     0
  9
$DIMTAD
 70
     0
  9
$DIMZIN
 70
     0
  9
$DIMBLK
  1

  9
$DIMASO
 70
     1
  9
$DIMSHO
 70
     1
  9
$DIMPOST
  1
\X
  9
$DIMAPOST
  1

  9
$DIMALT
 70
     1
  9
$DIMALTD
 70
     2
  9
$DIMALTF
 40
25.3999999999999986
  9
$DIMLFAC
 40
1.0
  9
$DIMTOFL
 70
     0
  9
$DIMTVP
 40
0.0
  9
$DIMTIX
 70
     0
  9
$DIMSOXD
 70
     0
  9
$DIMSAH
 70
     0
  9
$DIMBLK1
  1

  9
$DIMBLK2
  1

  9
$DIMSTYLE
  2
STANDARD
  9
$DIMCLRD
 70
     0
  9
$DIMCLRE
 70
     0
  9
$DIMCLRT
 70
     0
  9
$DIMTFAC
 40
1.0
  9
$DIMGAP
 40
0.09
  9
$LUNITS
 70
     2
  9
$LUPREC
 70
     4
  9
$SKETCHINC
 40
0.1
  9
$FILLETRAD
 40
0.0
  9
$AUNITS
 70
     0
  9
$AUPREC
 70
     0
  9
$MENU
  1
.
  9
$ELEVATION
 40
0.0
  9
$PELEVATION
 40
0.0
  9
$THICKNESS
 40
0.0
  9
$LIMCHECK
 70
     0
  9
$BLIPMODE
 70
     0
  9
$CHAMFERA
 40
0.0
  9
$CHAMFERB
 40
0.0
  9
$SKPOLY
 70
     0
  9
$TDCREATE
 40
2458060.468368056230247
  9
$TDUPDATE
 40
2459132.6462268522009254
  9
$TDINDWG
 40
0.4204005787
  9
$TDUSRTIMER
 40
0.4204005787
  9
$USRTIMER
 70
     1
  9
$ANGBASE
 50
0.0
  9
$ANGDIR
 70
     0
  9
$PDMODE
 70
     0
  9
$PDSIZE
 40
0.3125
  9
$PLINEWID
 40
0.0
  9
$COORDS
 70
     1
  9
$SPLFRAME
 70
     0
  9
$SPLINETYPE
 70
     6
  9
$SPLINESEGS
 70
     8
  9
$ATTDIA
 70
     1
  9
$ATTREQ
 70
     1
  9
$HANDLING
 70
     1
  9
$HANDSEED
  5
A1C2
  9
$SURFTAB1
 70
     6
  9
$SURFTAB2
 70
     6
  9
$SURFTYPE
 70
     6
  9
$SURFU
 70
     6
  9
$SURFV
 70
     6
  9
$UCSNAME
  2

  9
$UCSORG
 10
0.0
 20
0.0
 30
0.0
  9
$UCSXDIR
 10
1.0
 20
0.0
 30
0.0
  9
$UCSYDIR
 10
0.0
 20
1.0
 30
0.0
  9
$PUCSNAME
  2

  9
$PUCSORG
 10
0.0
 20
0.0
 30
0.0
  9
$PUCSXDIR
 10
1.0
 20
0.0
 30
0.0
  9
$PUCSYDIR
 10
0.0
 20
1.0
 30
0.0
  9
$USERI1
 70
     0
  9
$USERI2
 70
     0
  9
$USERI3
 70
     0
  9
$USERI4
 70
     0
  9
$USERI5
 70
     0
  9
$USERR1
 40
0.0
  9
$USERR2
 40
0.0
  9
$USERR3
 40
0.0
  9
$USERR4
 40
0.0
  9
$USERR5
 40
0.0
  9
$WORLDVIEW
 70
     1
  9
$SHADEDGE
 70
     3
  9
$SHADEDIF
 70
    70
  9
$TILEMODE
 70
     1
  9
$MAXACTVP
 70
    64
  9
$PLIMCHECK
 70
     0
  9
$PEXTMIN
 10
1.0000000000000000E+20
 20
1.0000000000000000E+20
 30
1.0000000000000000E+20
  9
$PEXTMAX
 10
-1.0000000000000000E+20
 20
-1.0000000000000000E+20
 30
-1.0000000000000000E+20
  9
$PLIMMIN
 10
0.0
 20
0.0
  9
$PLIMMAX
 10
12.0
 20
9.0
  9
$UNITMODE
 70
     0
  9
$VISRETAIN
 70
     1
  9
$PLINEGEN
 70
     0
  9
$PSLTSCALE
 70
     1
  0
ENDSEC
  0
SECTION
  2
TABLES
  0
TABLE
  2
VPORT
 70
     1
  0
VPORT
  2
*ACTIVE
 70
     0
 10
0.0
 20
0.0
 11
1.0
 21
1.0
 12
261.8869895178549996
 22
-28.5004410375264889
 13
0.0
 23
0.0
 14
1.0
 24
1.0
 15
0.0
 25
0.0
 16
0.0
 26
0.0
 36
5.1040778033513332
 17
3792.35791015625
 27
120.1806564331053977
 37
0.0
 40
37.9513986099492016
 41
2.005224660397074
 42
50.0
 43
0.0
 44
0.0
 50
0.0
 51
0.0
 71
     0
 72
   100
 73
     1
 74
     1
 75
     0
 76
     0
 77
     0
 78
     0
  0
ENDTAB
  0
TABLE
  2
LTYPE
 70
     2
  0
LTYPE
  2
CONTINUOUS
 70
     0
  3
Solid line
 72
    65
 73
     0
 40
0.0
  0
LTYPE
  2
PHANTOM2
 70
     0
  3
___ _ _ ___ _ _ ___ _ _ ___ _ _
 72
    65
 73
     6
 40
1.25
 49
0.625
 49
-0.125
 49
0.125
 49
-0.125
 49
0.125
 49
-0.125
  0
ENDTAB
  0
TABLE
  2
LAYER
 70
     2
  0
LAYER
  2
0
 70
     0
 62
   255
  6
CONTINUOUS
  0
LAYER
  2
DEFPOINTS
 70
     0
 62
     7
  6
CONTINUOUS
  0
ENDTAB
  0
TABLE
  2
STYLE
 70
     1
  0
STYLE
  2
STANDARD
 70
     0
 40
0.0
 41
0.8
 50
0.0
 71
     0
 42
0.2
  3
txt
  4

  0
ENDTAB
  0
TABLE
  2
VIEW
 70
     0
  0
ENDTAB
  0
TABLE
  2
UCS
 70
     0
  0
ENDTAB
  0
TABLE
  2
APPID
 70
     9
  0
APPID
  2
ACAD
 70
     0
  0
APPID
  2
ACAD_MLEADERVER
 70
     0
  0
APPID
  2
ACAD_EXEMPT_FROM_CAD_STANDARDS
 70
     0
  0
APPID
  2
ACAD_NAV_VCDISPLAY
 70
     0
  0
APPID
  2
ACAECLAYERSTANDARD
 70
     0
  0
APPID
  2
ACCMTRANSPARENCY
 70
     0
  0
APPID
  2
ACAD_DSTYLE_DIMJAG
 70
     0
  0
APPID
  2
ACAD_DSTYLE_DIMTALN
 70
     0
  0
APPID
  2
ACDBATTR
 70
     0
  0
ENDTAB
  0
TABLE
  2
DIMSTYLE
 70
     1
  0
DIMSTYLE
  2
STANDARD
 70
     0
  3

  4

  5

  6

  7

 40
1.0
 41
0.1875
 42
0.0625
 43
0.38
 44
0.125
 45
0.0
 46
0.0
 47
0.01
 48
0.01
140
0.15625
141
0.09
142
0.0
143
25.3999999999999986
144
1.0
145
0.0
146
1.0
147
0.09
 71
     1
 72
     0
 73
     1
 74
     1
 75
     0
 76
     0
 77
     0
 78
     4
170
     0
171
     2
172
     0
173
     0
174
     0
175
     0
176
     0
177
     0
178
     0
  0
ENDTAB
  0
ENDSEC
  0
SECTION
  2
BLOCKS
  0
BLOCK
  8
0
  2
$MODEL_SPACE
 70
     0
 10
0.0
 20
0.0
 30
0.0
  3
$MODEL_SPACE
  1

  0
ENDBLK
  5
21
  8
0
  0
BLOCK
 67
     1
  8
0
  2
$PAPER_SPACE
 70
     0
 10
0.0
 20
0.0
 30
0.0
  3
$PAPER_SPACE
  1

  0
ENDBLK
  5
1D
 67
     1
  8
0
  0
BLOCK
  8
0
  2
_FILLED
 70
     0
 10
0.0
 20
0.0
 30
0.0
  3
_FILLED
  1

  0
SOLID
  5
69B4
  8
0
  6
BYBLOCK
 62
     0
 10
0.0
 20
0.0
 30
0.0
 11
-1.0
 21
0.1666666667
 31
0.0
 12
-1.0
 22
-0.1666666667
 32
0.0
 13
-1.0
 23
-0.1666666667
 33
0.0
  0
ENDBLK
  5
69B5
  8
0
  6
BYBLOCK
 62
     0
  0
BLOCK
  8
0
  2
A$CDFAF6206
 70
     0
 10
0.0
 20
0.0
 30
0.0
  3
A$CDFAF6206
  1

  0
LINE
  5
6A0E
  8
0
 10
7.4646650085734834
 20
10.9287685970688493
 30
0.0
 11
7.4646650085734896
 21
10.8905784766688498
 31
0.0
  0
ARC
  5
6A0F
  8
0
 10
7.7269027075262349
 20
10.8926811525838598
 30
0.0
 40
0.2622461286616791
 50
180.4593995232625048
 51
217.0214027758331099
  0
LINE
  5
6A10
  8
0
 10
9.767814609867095
 20
10.9287685970688493
 30
0.0
 11
9.767814609867095
 21
10.8905433757650094
 31
0.0
  0
ARC
  5
6A11
  8
0
 10
9.5068669568548287
 20
10.8922438613003703
 30
0.0
 40
0.2609531936261092
 50
322.8847083717149076
 51
359.6266329125650145
  0
LINE
  5
6A12
  8
0
 10
7.517522606271406
 20
10.7347792678688396
 30
0.0
 11
9.7149570120691777
 21
10.7347792678688396
 31
0.0
  0
LINE
  5
6A13
  8
0
 10
7.4646650085734834
 20
10.9287685970688493
 30
0.0
 11
9.7678146123202936
 21
10.9287685970688493
 31
0.0
  0
ARC
  5
6A14
  8
0
 10
4.0826771419203629
 20
8.527951346868889
 30
0.0
 40
4.0826771653999172
 50
13.3117747050523896
 51
32.7200330051415591
  0
ARC
  5
6A15
  8
0
 10
4.0826771460567306
 20
8.5279513475907933
 30
0.0
 40
4.0826771612084691
 50
359.6656501984817851
 51
13.3117747085593798
  0
ARC
  5
6A16
  8
0
 10
13.1498041284835097
 20
8.5279508235212234
 30
0.0
 40
4.0826788382043553
 50
147.2799733478981068
 51
166.6882233021349862
  0
ARC
  5
6A17
  8
0
 10
13.1498064934207992
 20
8.5279506557033251
 30
0.0
 40
4.0826811782395342
 50
166.688228652086309
 51
180.3343397625230011
  0
LINE
  5
6A18
  8
0
 10
8.1652847935202928
 20
8.504127000268852
 30
0.0
 11
9.0671948248202892
 21
8.5041270002687881
 31
0.0
  0
LINE
  5
6A19
  8
0
 10
8.1652847935202786
 20
8.5041270002667204
 30
0.0
 11
8.1652847935202928
 21
8.3607006934688481
 31
0.0
  0
ARC
  5
6A1A
  8
0
 10
5.6196779630382627
 20
8.3631022096452732
 30
0.0
 40
2.545607963272567
 50
342.0511668832173768
 51
359.945947387132378
  0
LINE
  5
6A1B
  8
0
 10
9.0671948248202892
 20
8.5041270002687881
 30
0.0
 11
9.0671948248202892
 21
8.2885990108688503
 31
0.0
  0
ARC
  5
6A1C
  8
0
 10
9.4521885297801163
 20
7.9614488056228501
 30
0.0
 40
0.5052201595850959
 50
139.6436242991769916
 51
174.6757930071850069
  0
ARC
  5
6A1D
  8
0
 10
9.9238413395551746
 20
8.1492417579399508
 30
0.0
 40
0.9848265662939324
 50
188.2263441834095943
 51
209.5593615864376034
  0
ARC
  5
6A1E
  8
0
 10
8.0788764238271256
 20
7.5665710856463297
 30
0.0
 40
0.0393715937169877
 50
162.1669117288323037
 51
227.2023190037006088
  0
ARC
  5
6A1F
  8
0
 10
8.7223682141740682
 20
8.2079667397440517
 30
0.0
 40
0.947895137885075
 50
225.0018610752970858
 51
261.4598823366255829
  0
ARC
  5
6A20
  8
0
 10
8.6645157662702701
 20
8.1695128573935332
 30
0.0
 40
0.9027466462812931
 50
264.7303071214498118
 51
281.8608311947915013
  0
ARC
  5
6A21
  8
0
 10
8.6645157662698935
 20
8.1695128573999671
 30
0.0
 40
0.9027466462876658
 50
299.1741886792128753
 51
299.1743179154552195
  0
ARC
  5
6A22
  8
0
 10
9.0843330931590316
 20
7.4150554710086141
 30
0.0
 40
0.0393703053609601
 50
251.9700352025496954
 51
252.4698971938937859
  0
ARC
  5
6A23
  8
0
 10
9.0843330931590316
 20
7.4150554710086141
 30
0.0
 40
0.0393703053609601
 50
297.2453716727138726
 51
6.8376113572703074
  0
LINE
  5
6A24
  8
0
 10
9.0671948248202892
 20
7.663402160468852
 30
0.0
 11
9.1234233799329516
 21
7.419742732911689
 31
0.0
  0
ARC
  5
6A25
  8
0
 10
8.8843741880892395
 20
9.8961379890094676
 30
0.0
 40
2.5255097382132701
 50
263.792800240752797
 51
274.9514951129821156
  0
ARC
  5
6A26
  8
0
 10
8.8258167405968848
 20
9.2763025889666508
 30
0.0
 40
1.9029970832759311
 50
246.0108363320686067
 51
263.5276935074397215
  0
ARC
  5
6A27
  8
0
 10
8.607491361665744
 20
8.3225444804829642
 30
0.0
 40
1.064510137163637
 50
283.1717405874071005
 51
297.7022170607311864
  0
LINE
  5
6A28
  8
0
 10
9.0671948248202892
 20
8.2885990108688503
 30
0.0
 11
26.2014378595979593
 21
8.2885990108689942
 31
0.0
  0
LINE
  5
6A29
  8
0
 10
26.2014378595979913
 20
7.6634021604689053
 30
0.0
 11
9.0671948248202892
 21
7.6634021604688618
 31
0.0
  0
LINE
  5
6A2A
  8
0
 10
27.8039676758446994
 20
10.9287685970690802
 30
0.0
 11
27.8039676758446888
 21
10.8905784766690807
 31
0.0
  0
ARC
  5
6A2B
  8
0
 10
27.5417299768919399
 20
10.8926811525840801
 30
0.0
 40
0.2622461286616791
 50
322.9785972241680838
 51
359.5406004767386889
  0
LINE
  5
6A2C
  8
0
 10
25.5008180745510913
 20
10.9287685970690305
 30
0.0
 11
25.5008180745510913
 21
10.8905433757651799
 31
0.0
  0
ARC
  5
6A2D
  8
0
 10
25.7617657275633505
 20
10.8922438613005497
 30
0.0
 40
0.2609531936261092
 50
180.3733670874362929
 51
217.1152916282862861
  0
LINE
  5
6A2E
  8
0
 10
27.7511100781467803
 20
10.7347792678690706
 30
0.0
 11
25.5536756723490015
 21
10.7347792678690208
 31
0.0
  0
LINE
  5
6A2F
  8
0
 10
27.8039676758446888
 20
10.9287685970686006
 30
0.0
 11
25.5008180745510806
 21
10.9287685970686006
 31
0.0
  0
ARC
  5
6A30
  8
0
 10
31.1859555424978616
 20
8.5279513468691981
 30
0.0
 40
4.0826771653999172
 50
147.2799669948597057
 51
166.6882252949490066
  0
ARC
  5
6A31
  8
0
 10
31.185955538361501
 20
8.5279513475911024
 30
0.0
 40
4.0826771612084691
 50
166.6882252914419098
 51
180.3343498015194086
  0
ARC
  5
6A32
  8
0
 10
22.1188285559344706
 20
8.5279508235212251
 30
0.0
 40
4.0826788382046102
 50
13.3117766978667795
 51
32.7200266521023977
  0
ARC
  5
6A33
  8
0
 10
22.1188261909974315
 20
8.5279506557034264
 30
0.0
 40
4.0826811782395342
 50
359.665660237478221
 51
13.31177134791497
  0
LINE
  5
6A34
  8
0
 10
27.1033478908979397
 20
8.5041270002690652
 30
0.0
 11
26.2014378595979416
 21
8.5041270002689835
 31
0.0
  0
LINE
  5
6A35
  8
0
 10
27.1033478908979504
 20
8.5041270002669354
 30
0.0
 11
27.1033478908979397
 21
8.3607006934690649
 31
0.0
  0
ARC
  5
6A36
  8
0
 10
29.6489547213799689
 20
8.3631022096455467
 30
0.0
 40
2.545607963272567
 50
180.0540526128687873
 51
197.9488331167837032
  0
LINE
  5
6A37
  8
0
 10
26.2014378595979416
 20
8.5041270002689835
 30
0.0
 11
26.2014378595979487
 21
8.2885990108690457
 31
0.0
  0
ARC
  5
6A38
  8
0
 10
25.8164441546381305
 20
7.9614488056230366
 30
0.0
 40
0.5052201595850959
 50
5.324206992816312
 51
40.3563757008241879
  0
ARC
  5
6A39
  8
0
 10
25.3447913448601803
 20
8.149241757940846
 30
0.0
 40
0.9848265662968968
 50
330.4406384136033807
 51
351.7736558165743759
  0
ARC
  5
6A3A
  8
0
 10
27.1897562605911212
 20
7.5665710856465473
 30
0.0
 40
0.0393715937169877
 50
312.7976809963004143
 51
17.8330882711689185
  0
ARC
  5
6A3B
  8
0
 10
26.5462644702441715
 20
8.2079667397442542
 30
0.0
 40
0.947895137885075
 50
278.5401176633754972
 51
314.9981389247041079
  0
ARC
  5
6A3C
  8
0
 10
26.6041169181479695
 20
8.1695128573937392
 30
0.0
 40
0.9027466462812931
 50
258.139168805210204
 51
275.2696928785518935
  0
ARC
  5
6A3D
  8
0
 10
26.6041169181483497
 20
8.1695128574001732
 30
0.0
 40
0.9027466462876658
 50
240.8256820845460027
 51
240.8258113207880058
  0
ARC
  5
6A3E
  8
0
 10
26.1842995912592293
 20
7.4150554710088086
 30
0.0
 40
0.0393703053609601
 50
287.5301028061073794
 51
288.0299647974517825
  0
ARC
  5
6A3F
  8
0
 10
26.1842995912592293
 20
7.4150554710088086
 30
0.0
 40
0.0393703053609601
 50
173.1623886427310026
 51
242.7546283272870085
  0
LINE
  5
6A40
  8
0
 10
26.2014378595981192
 20
7.6634021604690448
 30
0.0
 11
26.1452093044853093
 21
7.4197427329118826
 31
0.0
  0
ARC
  5
6A41
  8
0
 10
26.384258496328961
 20
9.8961379890096666
 30
0.0
 40
2.5255097382132701
 50
265.0485048870193054
 51
276.2071997592482262
  0
ARC
  5
6A42
  8
0
 10
26.4428159438213299
 20
9.2763025889668516
 30
0.0
 40
1.9029970832759311
 50
276.4723064925619838
 51
293.9891636679327007
  0
ARC
  5
6A43
  8
0
 10
26.6611413227524885
 20
8.3225444804831703
 30
0.0
 40
1.064510137163637
 50
242.2977829392704052
 51
256.8282594125943774
  0
LINE
  5
6A44
  8
0
 62
     4
 10
17.9031473532159602
 20
10.9287685970686006
 30
0.0
 11
24.6329820359843588
 21
20.0952817181593808
 31
0.0
  0
LINE
  5
6A45
  8
0
 62
     4
 10
17.9031473532159602
 20
-0.0000000300842942
 30
0.0
 11
22.3963351323106608
 21
4.993614497796286
 31
0.0
  0
ENDBLK
  5
6A49
  8
0
  0
ENDSEC
  0
SECTION
  2
ENTITIES
  0
ATTDEF
  5
3930
  8
DEFPOINTS
 10
4051.1051597445230072
 20
96.2791936667784967
 30
0.0
 40
0.001
  1
K-99723T-4
  3

  2
MODELNUMBER
 70
     0
1001
ACDBATTR
1070
     0
1070
     1
  0
ATTDEF
  5
3931
  8
DEFPOINTS
 10
4051.1051597445230072
 20
96.2775270001118173
 30
0.0
 40
0.001
  1
MODULO
  3

  2
TRADENAME
 70
     0
1001
ACDBATTR
1070
     0
1070
     1
  0
ATTDEF
  5
3932
  8
DEFPOINTS
 10
4051.1051597445230072
 20
96.2758603334451522
 30
0.0
 40
0.001
  1
VALVE TRIM
  3

  2
PRODUCT
 70
     0
1001
ACDBATTR
1070
     0
1070
     1
  0
ARC
  5
A0EC
  8
0
 10
4049.2926295233191922
 20
96.1176099828223158
 30
0.0
 40
0.0787401574999996
 50
270.722362757096505
 51
344.9999884862301087
  0
ARC
  5
A0ED
  8
0
 10
4049.4050948298181538
 20
96.1570504625223208
 30
0.0
 40
0.0196850393999965
 50
90.0000002910615962
 51
165.0000000720199012
  0
ARC
  5
A0EE
  8
0
 10
4049.4411710720569317
 20
96.1846095168607036
 30
0.0
 40
0.0118110254386964
 50
90.0000089195740287
 51
179.9999963053813872
  0
ARC
  5
A0EF
  8
0
 10
4049.3037973891018737
 20
95.2318535883270556
 30
0.0
 40
0.8070866380321872
 50
90.7223630542786168
 51
113.2533619057519019
  0
LINE
  5
A0F0
  8
0
 10
4049.3686866709190326
 20
96.0972305151630053
 30
0.0
 11
4049.3860805418630662
 21
96.1621453255987149
 31
0.0
  0
LINE
  5
A0F1
  8
0
 10
4049.4050948298181538
 20
96.1767355019223231
 30
0.0
 11
4049.4293600466189673
 21
96.1767355019223231
 31
0.0
  0
LINE
  5
A0F2
  8
0
 10
4049.4411710702188429
 20
96.1964205422994212
 30
0.0
 11
4050.5120372120181855
 21
96.1964205411368312
 31
0.0
  0
ARC
  5
A0F3
  8
0
 10
4049.2926295391471285
 20
94.3460972549803785
 30
0.0
 40
0.0787401394927444
 50
15.0000071118821197
 51
60.8906766690275632
  0
ARC
  5
A0F4
  8
0
 10
4049.4050948298181538
 20
94.3066567647764771
 30
0.0
 40
0.0196850393999965
 50
194.9999999279800136
 51
269.9999997089383896
  0
ARC
  5
A0F5
  8
0
 10
4049.4411710702188429
 20
94.2790977096764777
 30
0.0
 40
0.0118110236
 50
180.0
 51
270.0
  0
LINE
  5
A0F6
  8
0
 10
4049.3686866709190326
 20
94.3664767121357926
 30
0.0
 11
4049.3860805418630662
 21
94.3015619017000688
 31
0.0
  0
LINE
  5
A0F7
  8
0
 10
4049.4050948298181538
 20
94.2869717253764748
 30
0.0
 11
4049.4293600466189673
 21
94.2869717253764748
 31
0.0
  0
LINE
  5
A0F8
  8
0
 10
4049.4411710702188429
 20
94.2672866860764742
 30
0.0
 11
4050.5120372120181855
 21
94.2672866860764742
 31
0.0
  0
LINE
  5
A0F9
  8
0
 10
4049.3860805418630662
 20
94.3015619017000688
 30
0.0
 11
4049.3860805398189768
 21
96.1621361255223235
 31
0.0
  0
LINE
  5
A0FA
  8
0
 10
4049.4293600466189673
 20
96.1846095168223201
 30
0.0
 11
4049.4293600466189673
 21
94.2790977096764777
 31
0.0
  0
ARC
  5
A0FB
  8
0
 10
4049.0970918875491407
 20
98.2633865267681017
 30
0.0
 40
0.0196089601446394
 50
89.7889684455042385
 51
175.7283931786381004
  0
ARC
  5
A0FC
  8
0
 10
4049.5718367134250002
 20
98.2633804115673826
 30
0.0
 40
0.0196150635788493
 50
1.91730664937636
 51
90.2014495771753957
  0
ARC
  5
A0FD
  8
0
 10
4049.0972357424498114
 20
97.3185023977454051
 30
0.0
 40
0.0197591422800302
 50
184.4958146825437098
 51
269.7922891800441221
  0
ARC
  5
A0FE
  8
0
 10
4049.5716985282811038
 20
97.3184985756888352
 30
0.0
 40
0.0197553116504605
 50
270.2007559054990793
 51
357.9177633174850826
  0
ARC
  5
A0FF
  8
0
 10
4055.2204803221147813
 20
97.7909003224147284
 30
0.0
 40
6.1611990157025902
 50
175.5881960228030039
 51
184.4118039771969109
  0
LINE
  5
A100
  8
0
 10
4049.591440795618837
 20
97.317780788263633
 30
0.0
 11
4049.5942144530181395
 21
97.3972079438994029
 31
0.0
  0
LINE
  5
A101
  8
0
 10
4049.5942144530181395
 20
97.3972079438994029
 30
0.0
 11
4049.5942144530181395
 21
98.1846095186994035
 31
0.0
  0
LINE
  5
A102
  8
0
 10
4049.5942144530181395
 20
98.1846095186994035
 30
0.0
 11
4049.591440795618837
 21
98.2640366740953368
 31
0.0
  0
LINE
  5
A103
  8
0
 10
4049.0971641110190831
 20
97.2987433853059969
 30
0.0
 11
4049.5717677478191945
 21
97.2987433853059969
 31
0.0
  0
LINE
  5
A104
  8
0
 10
4049.0971641110190831
 20
98.2829953539060028
 30
0.0
 11
4049.5717677478191945
 21
98.2829953539059744
 31
0.0
  0
LINE
  5
A105
  8
0
 10
4049.5942144530181395
 20
98.1846095186994035
 30
0.0
 11
4049.6852655584189051
 21
98.1846095186994035
 31
0.0
  0
LINE
  5
A106
  8
0
 10
4049.5942144530181395
 20
97.3972079438994029
 30
0.0
 11
4049.6852655584189051
 21
97.3972079438994029
 31
0.0
  0
LINE
  5
A107
  8
0
 10
4050.5120372120181855
 20
98.272663400235956
 30
0.0
 11
4049.7049505977179251
 21
98.2731921957994103
 31
0.0
  0
LINE
  5
A108
  8
0
 10
4049.7049505977179251
 20
98.2731921957994103
 30
0.0
 11
4049.6852655584189051
 21
98.2535071564993956
 31
0.0
  0
LINE
  5
A109
  8
0
 10
4049.6852655584189051
 20
98.2535071564993956
 30
0.0
 11
4049.6852655584189051
 21
97.3283103060993966
 31
0.0
  0
LINE
  5
A10A
  8
0
 10
4049.6852655584189051
 20
97.3283103060993966
 30
0.0
 11
4049.7049505977179251
 21
97.3086252666994085
 31
0.0
  0
LINE
  5
A10B
  8
0
 10
4049.7049505977179251
 20
97.3086252666994085
 30
0.0
 11
4050.5120372120181855
 21
97.3086252666993943
 31
0.0
  0
LINE
  5
A10C
  8
0
 10
4049.7049505977179251
 20
98.2731921957994103
 30
0.0
 11
4049.7049505977179251
 21
97.3086252666994085
 31
0.0
  0
ARC
  5
A10D
  8
0
 10
4049.8521888641798796
 20
97.7970812920801364
 30
0.0
 40
0.7210379058108272
 50
166.1662031884781925
 51
175.6754379786329139
  0
LINE
  5
A10E
  8
0
 10
4049.1744469060190568
 20
98.0631283399878129
 30
0.0
 11
4049.1520658105191615
 21
97.9694859652993983
 31
0.0
  0
LINE
  5
A10F
  8
0
 10
4049.1332038258178727
 20
97.8514520215993997
 30
0.0
 11
4049.1332034315191777
 21
97.7303641513994137
 31
0.0
  0
LINE
  5
A110
  8
0
 10
4049.1520638936190153
 20
97.6123302649994002
 30
0.0
 11
4049.1744469060190568
 21
97.5186888042994013
 31
0.0
  0
ARC
  5
A111
  8
0
 10
4049.3681529386899456
 20
97.5545764915869853
 30
0.0
 40
0.1970024192546032
 50
190.4961097491961937
 51
205.1698550316017133
  0
ARC
  5
A112
  8
0
 10
4044.2215499881958749
 20
95.3268639065889687
 30
0.0
 40
5.4111444292350379
 50
22.5043903684494495
 51
23.34119822308433
  0
ARC
  5
A113
  8
0
 10
4049.2913990366891994
 20
97.4220203950311969
 30
0.0
 40
0.0747271781434292
 50
198.7482453946155943
 51
233.00330229608781
  0
LINE
  5
A114
  8
0
 10
4049.1332034315191777
 20
97.7303641513994137
 30
0.0
 11
4049.1401836615718821
 21
97.6709536321693292
 31
0.0
  0
LINE
  5
A115
  8
0
 10
4049.1401836615718821
 20
97.6709536321693292
 30
0.0
 11
4049.1520638936190153
 21
97.6123302649994002
 31
0.0
  0
ARC
  5
A116
  8
0
 10
4049.7004870757141362
 20
97.9156869968889367
 30
0.0
 40
0.5463123738195684
 50
146.2149795324492061
 51
164.3425949259440983
  0
ARC
  5
A117
  8
0
 10
4048.8175548509570945
 20
97.7970812920801364
 30
0.0
 40
0.7210379058108272
 50
4.3245620213678873
 51
13.8337968115218199
  0
LINE
  5
A118
  8
0
 10
4049.4952968091179173
 20
98.0631283399878129
 30
0.0
 11
4049.5176779046191768
 21
97.9694859652993983
 31
0.0
  0
LINE
  5
A119
  8
0
 10
4049.5365398893191013
 20
97.8514520215993997
 30
0.0
 11
4049.5365402836177964
 21
97.7303641513994137
 31
0.0
  0
LINE
  5
A11A
  8
0
 10
4049.5176798215179588
 20
97.6123302649994002
 30
0.0
 11
4049.4952968091179173
 21
97.5186888042994013
 31
0.0
  0
ARC
  5
A11B
  8
0
 10
4049.3015907764470285
 20
97.5545764915869853
 30
0.0
 40
0.1970024192546032
 50
334.8301449683983151
 51
349.5038902508028968
  0
ARC
  5
A11C
  8
0
 10
4054.4481937269420087
 20
95.3268639065889687
 30
0.0
 40
5.4111444292350379
 50
156.6588017769157091
 51
157.4956096315497973
  0
ARC
  5
A11D
  8
0
 10
4049.3783443839388383
 20
97.4220205471171852
 30
0.0
 40
0.0747275059084697
 50
306.9967910847171879
 51
341.2517167612966773
  0
LINE
  5
A11E
  8
0
 10
4049.5365402836177964
 20
97.7303641513994137
 30
0.0
 11
4049.5295600535660014
 21
97.6709536321693292
 31
0.0
  0
LINE
  5
A11F
  8
0
 10
4049.5295600535660014
 20
97.6709536321693292
 30
0.0
 11
4049.5176798215179588
 21
97.6123302649994002
 31
0.0
  0
ARC
  5
A120
  8
0
 10
4048.9692566394228379
 20
97.9156869968889367
 30
0.0
 40
0.5463123738195684
 50
15.6574050740559105
 51
33.7850204675507513
  0
LINE
  5
A121
  8
0
 10
4049.2464305380181031
 20
98.2194794759993925
 30
0.0
 11
4049.4233131771179615
 21
98.2194794759994068
 31
0.0
  0
LINE
  5
A122
  8
0
 10
4049.2464305380181031
 20
97.3623380250994046
 30
0.0
 11
4049.4233131771179615
 21
97.3623379886994087
 31
0.0
  0
ARC
  5
A123
  8
0
 10
4049.3230608247781674
 20
94.2751607221084953
 30
0.0
 40
0.0078740380090961
 50
270.0000672405631121
 51
0.1039876177337632
  0
LINE
  5
A124
  8
0
 10
4049.3309348498191866
 20
94.2751750128993962
 30
0.0
 11
4049.3309348498191866
 21
95.1445721321241962
 31
0.0
  0
ARC
  5
A125
  8
0
 10
4048.9372340632658052
 20
95.1445722500921107
 30
0.0
 40
0.3937007865526727
 50
359.999982831977718
 51
25.0000001045220408
  0
ARC
  5
A126
  8
0
 10
-11957.0495199590804987
 20
-7368.0333962727090693
 30
0.0
 40
17660.8194419678402483
 50
24.9984233344551399
 51
25.0015766757728883
  0
ARC
  5
A127
  8
0
 10
4048.876133142818162
 20
96.1885458047904507
 30
0.0
 40
0.0078747375223871
 50
25.00334555297718
 51
89.9966545366101371
  0
ARC
  5
A128
  8
0
 10
4047.8212387840299016
 20
96.1767355031014688
 30
0.0
 40
0.0196850391979351
 50
89.9999994523217168
 51
170.8003572778229113
  0
LINE
  5
A129
  8
0
 10
4047.821238784218167
 20
96.196420542299407
 30
0.0
 11
4048.8761336026109348
 21
96.196420542299407
 31
0.0
  0
LINE
  5
A12A
  8
0
 10
4049.3230608340181789
 20
94.2672866840994033
 30
0.0
 11
4048.8073128025189362
 21
94.2672866840994033
 31
0.0
  0
LINE
  5
A12B
  8
0
 10
4048.4037694954181461
 20
93.8952394396993952
 30
0.0
 11
4048.4037694954181461
 21
92.0133496761993968
 31
0.0
  0
LINE
  5
A12C
  8
0
 10
4047.8208039752189507
 20
91.8853969202993852
 30
0.0
 11
4048.2758167395181772
 21
91.8853969202993852
 31
0.0
  0
LINE
  5
A12D
  8
0
 10
4047.795023426418993
 20
92.0133496761993968
 30
0.0
 11
4047.7950234264649225
 21
94.1157118808993971
 31
0.0
  0
ARC
  5
A12E
  8
0
 10
4041.927567890264072
 20
94.1052725302938455
 30
0.0
 40
5.867464822970093
 50
0.1019402866771884
 51
2.4054097177946949
  0
ARC
  5
A12F
  8
0
 10
4037.0069351941251625
 20
93.8907504071385546
 30
0.0
 40
10.7927681309409707
 50
2.4468931494292119
 51
3.757445316048599
  0
ARC
  5
A130
  8
0
 10
4057.6210800417197788
 20
95.2316834462100132
 30
0.0
 40
9.8649483430673257
 50
174.4843284429767039
 51
183.6828009459545115
  0
LINE
  5
A131
  8
0
 10
4047.795023426418993
 20
92.0133496761993968
 30
0.0
 11
4047.8012433339708878
 21
91.9028724144606173
 31
0.0
  0
ARC
  5
A132
  8
0
 10
4047.8208039752189507
 20
91.9050819596994018
 30
0.0
 40
0.0196850393999991
 50
186.4447403397969083
 51
270.0
  0
ARC
  5
A133
  8
0
 10
4049.0976482866490187
 20
93.9026922361171046
 30
0.0
 40
0.6939188144796072
 50
165.3302650992891927
 51
180.615377424618913
  0
ARC
  5
A134
  8
0
 10
4048.6780803315750745
 20
94.0261308796675053
 30
0.0
 40
0.2571046585892787
 50
118.514275669017195
 51
168.264350312360591
  0
ARC
  5
A135
  8
0
 10
4048.6813290900299762
 20
93.3098175385718491
 30
0.0
 40
0.9657220409877448
 50
82.504087644685157
 51
92.8288868330715076
  0
ARC
  5
A136
  8
0
 10
4048.6332250253581151
 20
94.1273022929248526
 30
0.0
 40
0.1470611057991329
 50
89.8276133783836741
 51
121.9771303496267052
  0
ARC
  5
A137
  8
0
 10
4048.2758167395181772
 20
92.0133496761993968
 30
0.0
 40
0.1279527558999986
 50
270.0
 51
0.0000000000008142
  0
LINE
  5
A138
  8
0
 10
4049.3860805418630662
 20
94.3015619000650389
 30
0.0
 11
4049.3860805418630662
 21
96.1621453255987149
 31
0.0
  0
ARC
  5
A139
  8
0
 10
4050.5514072907949412
 20
99.7307252223698839
 30
0.0
 40
0.0393700787758586
 50
94.9998526063562139
 51
179.9999999570661089
  0
ARC
  5
A13A
  8
0
 10
4050.5514072586688599
 20
92.8195961478905218
 30
0.0
 40
0.0393700466493797
 50
179.9999572008545954
 51
265.0000427313552223
  0
LINE
  5
A13B
  8
0
 10
4050.5479759622621714
 20
92.7803759135957051
 30
0.0
 11
4051.1025883931188218
 21
92.7318536131965345
 31
0.0
  0
LINE
  5
A13C
  8
0
 10
4051.1025883931188218
 20
92.7318536131965345
 30
0.0
 11
4051.1025883931188218
 21
99.8184677864508529
 31
0.0
  0
LINE
  5
A13D
  8
0
 10
4051.1025883931188218
 20
99.8184677864508529
 30
0.0
 11
4050.5479760632310899
 21
99.7699454949368487
 31
0.0
  0
LINE
  5
A13E
  8
0
 10
4050.5120372120181855
 20
92.8195961772994025
 30
0.0
 11
4050.5120372120181855
 21
99.7307252223698839
 31
0.0
  0
ENDSEC
  0
EOF
