  0
SECTION
  2
HEADER
  9
$ACADVER
  1
AC1009
  9
$INSBASE
 10
340.9412251814928823
 20
70.3767240633920608
 30
0.0
  9
$EXTMIN
 10
331.5135229486616026
 20
66.0697025200466328
 30
0.0
  9
$EXTMAX
 10
351.2230227529577178
 20
78.8675148640097916
 30
0.0
  9
$LIMMIN
 10
0.0
 20
0.0
  9
$LIMMAX
 10
11.6929133858000007
 20
8.2677165353999982
  9
$ORTHOMODE
 70
     0
  9
$REGENMODE
 70
     1
  9
$FILLMODE
 70
     1
  9
$QTEXTMODE
 70
     0
  9
$MIRRTEXT
 70
     0
  9
$DRAGMODE
 70
     2
  9
$LTSCALE
 40
0.6431102362
  9
$OSMODE
 70
  4095
  9
$ATTMODE
 70
     1
  9
$TEXTSIZE
 40
0.2
  9
$TRACEWID
 40
0.05
  9
$TEXTSTYLE
  7
STANDARD
  9
$CLAYER
  8
0
  9
$CELTYPE
  6
BYLAYER
  9
$CECOLOR
 62
   256
  9
$DIMSCALE
 40
1.0
  9
$DIMASZ
 40
0.1875
  9
$DIMEXO
 40
0.0625
  9
$DIMDLI
 40
0.4443307087
  9
$DIMRND
 40
0.0
  9
$DIMDLE
 40
0.0
  9
$DIMEXE
 40
0.125
  9
$DIMTP
 40
0.01
  9
$DIMTM
 40
0.01
  9
$DIMTXT
 40
1.0
  9
$DIMCEN
 40
0.1052362205
  9
$DIMTSZ
 40
0.0
  9
$DIMTOL
 70
     1
  9
$DIMLIM
 70
     0
  9
$DIMTIH
 70
     0
  9
$DIMTOH
 70
     1
  9
$DIMSE1
 70
     0
  9
$DIMSE2
 70
     0
  9
$DIMTAD
 70
     0
  9
$DIMZIN
 70
     0
  9
$DIMBLK
  1

  9
$DIMASO
 70
     1
  9
$DIMSHO
 70
     1
  9
$DIMPOST
  1
\X
  9
$DIMAPOST
  1

  9
$DIMALT
 70
     1
  9
$DIMALTD
 70
     2
  9
$DIMALTF
 40
25.3999999999999986
  9
$DIMLFAC
 40
1.0
  9
$DIMTOFL
 70
     0
  9
$DIMTVP
 40
0.0
  9
$DIMTIX
 70
     0
  9
$DIMSOXD
 70
     0
  9
$DIMSAH
 70
     0
  9
$DIMBLK1
  1

  9
$DIMBLK2
  1

  9
$DIMSTYLE
  2
STANDARD
  9
$DIMCLRD
 70
     0
  9
$DIMCLRE
 70
     0
  9
$DIMCLRT
 70
     0
  9
$DIMTFAC
 40
1.0
  9
$DIMGAP
 40
0.09
  9
$LUNITS
 70
     2
  9
$LUPREC
 70
     4
  9
$SKETCHINC
 40
0.1
  9
$FILLETRAD
 40
0.0
  9
$AUNITS
 70
     0
  9
$AUPREC
 70
     0
  9
$MENU
  1
.
  9
$ELEVATION
 40
0.0
  9
$PELEVATION
 40
0.0
  9
$THICKNESS
 40
0.0
  9
$LIMCHECK
 70
     0
  9
$BLIPMODE
 70
     0
  9
$CHAMFERA
 40
0.0
  9
$CHAMFERB
 40
0.0
  9
$SKPOLY
 70
     0
  9
$TDCREATE
 40
2458172.5207638889551163
  9
$TDUPDATE
 40
2459934.8002662039361894
  9
$TDINDWG
 40
0.2794300694
  9
$TDUSRTIMER
 40
0.2794300694
  9
$USRTIMER
 70
     1
  9
$ANGBASE
 50
0.0
  9
$ANGDIR
 70
     0
  9
$PDMODE
 70
     0
  9
$PDSIZE
 40
0.3125
  9
$PLINEWID
 40
0.0
  9
$COORDS
 70
     1
  9
$SPLFRAME
 70
     0
  9
$SPLINETYPE
 70
     6
  9
$SPLINESEGS
 70
     8
  9
$ATTDIA
 70
     1
  9
$ATTREQ
 70
     1
  9
$HANDLING
 70
     1
  9
$HANDSEED
  5
11892
  9
$SURFTAB1
 70
     6
  9
$SURFTAB2
 70
     6
  9
$SURFTYPE
 70
     6
  9
$SURFU
 70
     6
  9
$SURFV
 70
     6
  9
$UCSNAME
  2

  9
$UCSORG
 10
0.0
 20
0.0
 30
0.0
  9
$UCSXDIR
 10
1.0
 20
0.0
 30
0.0
  9
$UCSYDIR
 10
0.0
 20
1.0
 30
0.0
  9
$PUCSNAME
  2

  9
$PUCSORG
 10
0.0
 20
0.0
 30
0.0
  9
$PUCSXDIR
 10
1.0
 20
0.0
 30
0.0
  9
$PUCSYDIR
 10
0.0
 20
1.0
 30
0.0
  9
$USERI1
 70
     0
  9
$USERI2
 70
     0
  9
$USERI3
 70
     0
  9
$USERI4
 70
     0
  9
$USERI5
 70
     0
  9
$USERR1
 40
0.0
  9
$USERR2
 40
0.0
  9
$USERR3
 40
0.0
  9
$USERR4
 40
0.0
  9
$USERR5
 40
0.0
  9
$WORLDVIEW
 70
     1
  9
$SHADEDGE
 70
     3
  9
$SHADEDIF
 70
    70
  9
$TILEMODE
 70
     1
  9
$MAXACTVP
 70
    64
  9
$PLIMCHECK
 70
     0
  9
$PEXTMIN
 10
1.0000000000000000E+20
 20
1.0000000000000000E+20
 30
1.0000000000000000E+20
  9
$PEXTMAX
 10
-1.0000000000000000E+20
 20
-1.0000000000000000E+20
 30
-1.0000000000000000E+20
  9
$PLIMMIN
 10
0.0
 20
0.0
  9
$PLIMMAX
 10
12.0
 20
9.0
  9
$UNITMODE
 70
     0
  9
$VISRETAIN
 70
     1
  9
$PLINEGEN
 70
     0
  9
$PSLTSCALE
 70
     1
  0
ENDSEC
  0
SECTION
  2
TABLES
  0
TABLE
  2
VPORT
 70
     1
  0
VPORT
  2
*ACTIVE
 70
     0
 10
0.0
 20
0.0
 11
1.0
 21
1.0
 12
-88.6821940462299665
 22
0.674341052531867
 13
0.0
 23
0.0
 14
1.0
 24
1.0
 15
0.0
 25
0.0
 16
0.0
 26
0.0
 36
14.6338572656650907
 17
429.6292891080536833
 27
69.7025415122186871
 37
0.0
 40
0.0102314930735014
 41
2.5251322751322749
 42
50.0
 43
0.0
 44
0.0
 50
0.0
 51
0.0
 71
     0
 72
   100
 73
     1
 74
     1
 75
     0
 76
     0
 77
     0
 78
     0
  0
ENDTAB
  0
TABLE
  2
LTYPE
 70
     2
  0
LTYPE
  2
CONTINUOUS
 70
     0
  3
Solid line
 72
    65
 73
     0
 40
0.0
  0
LTYPE
  2
PHANTOM2
 70
     0
  3
___ _ _ ___ _ _ ___ _ _ ___ _ _
 72
    65
 73
     6
 40
1.25
 49
0.625
 49
-0.125
 49
0.125
 49
-0.125
 49
0.125
 49
-0.125
  0
ENDTAB
  0
TABLE
  2
LAYER
 70
     2
  0
LAYER
  2
0
 70
     0
 62
   255
  6
CONTINUOUS
  0
LAYER
  2
DEFPOINTS
 70
     0
 62
     7
  6
CONTINUOUS
  0
ENDTAB
  0
TABLE
  2
STYLE
 70
     1
  0
STYLE
  2
STANDARD
 70
     0
 40
0.0
 41
0.8
 50
0.0
 71
     0
 42
0.2
  3
txt
  4

  0
ENDTAB
  0
TABLE
  2
VIEW
 70
     0
  0
ENDTAB
  0
TABLE
  2
UCS
 70
     0
  0
ENDTAB
  0
TABLE
  2
APPID
 70
    10
  0
APPID
  2
ACAD
 70
     0
  0
APPID
  2
ACAD_MLEADERVER
 70
     0
  0
APPID
  2
ACAD_EXEMPT_FROM_CAD_STANDARDS
 70
     0
  0
APPID
  2
ACAD_DSTYLE_DIMJAG
 70
     0
  0
APPID
  2
ACAD_DSTYLE_DIMTALN
 70
     0
  0
APPID
  2
ACAD_NAV_VCDISPLAY
 70
     0
  0
APPID
  2
ACAECLAYERSTANDARD
 70
     0
  0
APPID
  2
ACCMTRANSPARENCY
 70
     0
  0
APPID
  2
DCO15
 70
     0
  0
APPID
  2
ACDBATTR
 70
     0
  0
ENDTAB
  0
TABLE
  2
DIMSTYLE
 70
     1
  0
DIMSTYLE
  2
STANDARD
 70
     0
  3

  4

  5

  6

  7

 40
1.0
 41
0.1875
 42
0.0625
 43
0.38
 44
0.125
 45
0.0
 46
0.0
 47
0.01
 48
0.01
140
0.15625
141
0.09
142
0.0
143
25.3999999999999986
144
1.0
145
0.0
146
1.0
147
0.09
 71
     1
 72
     0
 73
     1
 74
     1
 75
     0
 76
     0
 77
     0
 78
     4
170
     0
171
     2
172
     0
173
     0
174
     0
175
     0
176
     0
177
     0
178
     0
  0
ENDTAB
  0
ENDSEC
  0
SECTION
  2
BLOCKS
  0
BLOCK
  8
0
  2
$MODEL_SPACE
 70
     0
 10
0.0
 20
0.0
 30
0.0
  3
$MODEL_SPACE
  1

  0
ENDBLK
  5
21
  8
0
  0
BLOCK
 67
     1
  8
0
  2
$PAPER_SPACE
 70
     0
 10
0.0
 20
0.0
 30
0.0
  3
$PAPER_SPACE
  1

  0
ENDBLK
  5
1D
 67
     1
  8
0
  0
BLOCK
  8
0
  2
_FILLED
 70
     0
 10
0.0
 20
0.0
 30
0.0
  3
_FILLED
  1

  0
SOLID
  5
87E2
  8
0
  6
BYBLOCK
 62
     0
 10
0.0
 20
0.0
 30
0.0
 11
-1.0
 21
0.1666666667
 31
0.0
 12
-1.0
 22
-0.1666666667
 32
0.0
 13
-1.0
 23
-0.1666666667
 33
0.0
  0
ENDBLK
  5
87E3
  8
0
  6
BYBLOCK
 62
     0
  0
ENDSEC
  0
SECTION
  2
ENTITIES
  0
ATTDEF
  5
10E83
  8
DEFPOINTS
 10
340.9421542851439995
 20
70.3747853744326903
 30
0.0
 40
0.001
  1
K-99725T-B4
  3

  2
MODELNUMBER
 70
     0
1001
ACDBATTR
1070
     0
1070
     1
  0
ATTDEF
  5
10E84
  8
DEFPOINTS
 10
340.9421542851439995
 20
70.3731187077660252
 30
0.0
 40
0.001
  1
MODULO
  3

  2
TRADENAME
 70
     0
1001
ACDBATTR
1070
     0
1070
     1
  0
ATTDEF
  5
10E85
  8
DEFPOINTS
 10
340.9421542851439995
 20
70.37145204109936
 30
0.0
 40
0.001
  1
VALVE TRIM
  3

  2
PRODUCT
 70
     0
1001
ACDBATTR
1070
     0
1070
     1
  0
LINE
  5
1173D
  8
0
 10
340.9412251814928823
 20
66.8334169767915114
 30
0.0
 11
340.3866127507416195
 21
66.8819392770872696
 31
0.0
  0
ARC
  5
1173E
  8
0
 10
340.3900440791891242
 20
66.9211595407481639
 30
0.0
 40
0.0393700786962052
 50
179.9999999369009913
 51
265.0000000046720174
  0
LINE
  5
1173F
  8
0
 10
340.3506740004929156
 20
66.921159540791507
 30
0.0
 11
340.3506740081040221
 21
73.8322885858915186
 31
0.0
  0
ARC
  5
11740
  8
0
 10
340.3900440876536209
 20
73.832288585818759
 30
0.0
 40
0.0393700795496065
 50
95.0000001114675143
 51
179.999999894116911
  0
LINE
  5
11741
  8
0
 10
340.3866127590521273
 20
73.8715088503228401
 30
0.0
 11
340.9412251814928823
 21
73.9200311499915017
 31
0.0
  0
LINE
  5
11742
  8
0
 10
340.9412251814928823
 20
73.9200311499915017
 30
0.0
 11
340.9412251814928823
 21
66.8334169767915114
 31
0.0
  0
ARC
  5
11743
  8
0
 10
338.6483259619089949
 20
70.2715237117610627
 30
0.0
 40
0.0224950530356954
 50
29.4949319221110109
 51
86.0050680882290379
  0
LINE
  5
11744
  8
0
 10
338.6498931525304101
 20
70.2939641066915044
 30
0.0
 11
337.8701872636748931
 21
70.2871590229794236
 31
0.0
  0
ARC
  5
11745
  8
0
 10
337.8703593621929144
 20
70.2674748158915037
 30
0.0
 40
0.0196849593999999
 50
90.5009167921799644
 51
179.9982226661003892
  0
LINE
  5
11746
  8
0
 10
337.8506744028023832
 20
70.2674754265253938
 30
0.0
 11
337.8505486725637184
 21
66.2143191588415903
 31
0.0
  0
ARC
  5
11747
  8
0
 10
337.8702324055882968
 20
66.2143185482457284
 30
0.0
 40
0.0196837330341626
 50
179.9982226661012135
 51
269.8685834167474127
  0
LINE
  5
11748
  8
0
 10
337.8701872579929955
 20
66.1946348669880251
 30
0.0
 11
338.0276675725929181
 21
66.1932605571911239
 31
0.0
  0
ARC
  5
11749
  8
0
 10
338.0270503919729208
 20
66.2137407249801129
 30
0.0
 40
0.0204894652097708
 50
271.7261160307862724
 51
357.7738840875070991
  0
LINE
  5
1174A
  8
0
 10
338.0475243940928749
 20
66.2129448469915189
 30
0.0
 11
338.0479637943639091
 21
68.2192659696754333
 31
0.0
  0
ARC
  5
1174B
  8
0
 10
338.2047028454281872
 20
68.2200084887993654
 30
0.0
 40
0.156740809820569
 50
89.387291000149915
 51
180.2714249797637933
  0
LINE
  5
1174C
  8
0
 10
338.2063789666930234
 20
68.3767403364906556
 30
0.0
 11
339.0906557480370793
 21
68.3690233699666123
 31
0.0
  0
ARC
  5
1174D
  8
0
 10
339.0908314801146162
 20
68.3887076255325326
 30
0.0
 40
0.0196850399782988
 50
269.4885029380952233
 51
359.9999992984875234
  0
LINE
  5
1174E
  8
0
 10
339.110516520092915
 20
68.3887076252915165
 30
0.0
 11
339.110516520092915
 21
69.2461356134915036
 31
0.0
  0
ARC
  5
1174F
  8
0
 10
338.7168157332417877
 20
69.2461356135325445
 30
0.0
 40
0.3937007868511468
 50
359.999999994029281
 51
25.0000000118817312
  0
LINE
  5
11750
  8
0
 10
339.0736298220929257
 20
69.4125207557915189
 30
0.0
 11
338.6679056390080973
 21
70.2825990737640609
 31
0.0
  0
ARC
  5
11751
  8
0
 10
339.1424341744960884
 20
69.3334169779548688
 30
0.0
 40
0.8070866129380007
 50
90.7223628651979794
 51
117.0544322193564994
  0
ARC
  5
11752
  8
0
 10
339.1312663115606938
 20
70.2191733476876152
 30
0.0
 40
0.0787401577596808
 50
270.7223628651980221
 51
344.9999999716998218
  0
ARC
  5
11753
  8
0
 10
1255.8665525456299292
 20
-175.4193067571700055
 30
0.0
 40
948.9954655474028868
 50
164.9959430093919934
 51
164.9999999716997934
  0
ARC
  5
11754
  8
0
 10
339.2437450065428948
 20
70.2585995950751112
 30
0.0
 40
0.0196992759659969
 50
90.038940314503833
 51
164.995943009389606
  0
LINE
  5
11755
  8
0
 10
339.24373161819301
 20
70.2782988664915251
 30
0.0
 11
339.2679968294888226
 21
70.2782988664915251
 31
0.0
  0
LINE
  5
11756
  8
0
 10
339.2679968350929016
 20
70.2821641138661448
 30
0.0
 11
339.2679968350929016
 21
68.3806610720592118
 31
0.0
  0
ARC
  5
11757
  8
0
 10
339.2798078595607194
 20
68.3806610720592118
 30
0.0
 40
0.0118110244677112
 50
180.0
 51
269.999995790697028
  0
LINE
  5
11758
  8
0
 10
339.2798078586928909
 20
68.3688500475914935
 30
0.0
 11
340.3506740003929281
 21
68.3688499689190223
 31
0.0
  0
LINE
  5
11759
  8
0
 10
339.110516520092915
 20
68.5269617293496651
 30
0.0
 11
339.1322646681928745
 21
68.5264035731915158
 31
0.0
  0
ARC
  5
1175A
  8
0
 10
339.1312465031801935
 20
68.4476474605960448
 30
0.0
 40
0.0787626937778406
 50
15.0055072682196897
 51
89.2593170681940933
  0
ARC
  5
1175B
  8
0
 10
336.6858949230343114
 20
67.7576375894205682
 30
0.0
 40
2.6195941579608699
 50
14.26502864248428
 51
15.7349712837873508
  0
ARC
  5
1175C
  8
0
 10
339.2437316182928839
 20
68.4082201263915124
 30
0.0
 40
0.019685039400002
 50
194.9999757987721125
 51
269.9999997089253725
  0
LINE
  5
1175D
  8
0
 10
339.24373161819301
 20
68.3885350869915101
 30
0.0
 11
339.2679968350929016
 21
68.3885350869915101
 31
0.0
  0
LINE
  5
1175E
  8
0
 10
339.2247173281928099
 20
70.2636994901916268
 30
0.0
 11
339.2247173281929236
 21
68.4031252712915148
 31
0.0
  0
ARC
  5
1175F
  8
0
 10
338.8649337863457731
 20
72.3511359530108535
 30
0.0
 40
0.0196825986046096
 50
89.997172114294159
 51
175.643954191346495
  0
ARC
  5
11760
  8
0
 10
339.3395384212872159
 20
72.3511335398368232
 30
0.0
 40
0.0196850117546771
 50
1.999922098575486
 51
90.0000776805305662
  0
ARC
  5
11761
  8
0
 10
338.8667656067364078
 20
71.435788220500342
 30
0.0
 40
0.0217398132494352
 50
189.2426935590858932
 51
265.1690333289186015
  0
ARC
  5
11762
  8
0
 10
339.3395384200115927
 20
71.4338106512752375
 30
0.0
 40
0.0196850130837567
 50
269.9999260312533806
 51
358.0000739688470048
  0
ARC
  5
11763
  8
0
 10
344.6357206954619983
 20
71.8924636860068347
 30
0.0
 40
5.8086687422690018
 50
175.4562227053962999
 51
184.5437772946037001
  0
LINE
  5
11764
  8
0
 10
339.3592114423987027
 20
71.4331236794557327
 30
0.0
 11
339.3619850997984031
 21
71.4987797163761911
 31
0.0
  0
LINE
  5
11765
  8
0
 10
339.3619850997984031
 20
71.4987797163761911
 30
0.0
 11
339.3619850997984031
 21
72.2861812911761632
 31
0.0
  0
LINE
  5
11766
  8
0
 10
339.3619850997984031
 20
72.2861812911761632
 30
0.0
 11
339.3592114423987027
 21
72.3518205100874354
 31
0.0
  0
LINE
  5
11767
  8
0
 10
338.864934757798494
 20
71.4141256381915071
 30
0.0
 11
339.3395383945986055
 21
71.4141256381915071
 31
0.0
  0
LINE
  5
11768
  8
0
 10
338.864934757798494
 20
72.3708185515915119
 30
0.0
 11
339.3395383945986055
 21
72.3708185515914977
 31
0.0
  0
LINE
  5
11769
  8
0
 10
340.3506740065096778
 20
72.3845980791915053
 30
0.0
 11
339.4726993634246242
 21
72.3807814579935354
 31
0.0
  0
ARC
  5
1176A
  8
0
 10
339.4726993634246242
 20
72.3610814579935351
 30
0.0
 40
0.0197
 50
90.0
 51
180.0
  0
LINE
  5
1176B
  8
0
 10
339.4529993634246239
 20
72.3610814579935351
 30
0.0
 11
339.4529992604631161
 21
71.4238627325198507
 31
0.0
  0
LINE
  5
1176C
  8
0
 10
339.4726992604631164
 20
71.4041627325198505
 30
0.0
 11
340.3506740054257875
 21
71.4003461105914852
 31
0.0
  0
ARC
  5
1176D
  8
0
 10
339.4726992604631164
 20
71.4238627325198507
 30
0.0
 40
0.0197
 50
180.0
 51
270.0
  0
ARC
  5
1176E
  8
0
 10
339.6199595109596885
 20
71.8986530645569246
 30
0.0
 40
0.7210379058108272
 50
166.1662031884798125
 51
175.675437978633795
  0
LINE
  5
1176F
  8
0
 10
338.9422175527984109
 20
72.1647001124645726
 30
0.0
 11
338.9198364572985156
 21
72.0710577377761865
 31
0.0
  0
LINE
  5
11770
  8
0
 10
338.9009744725985911
 20
71.9530237940761737
 30
0.0
 11
338.900974078298475
 21
71.8319359238761876
 31
0.0
  0
LINE
  5
11771
  8
0
 10
338.9198345403984263
 20
71.7139020374761742
 30
0.0
 11
338.9422175527984109
 21
71.6202605767761895
 31
0.0
  0
ARC
  5
11772
  8
0
 10
339.1359235854698113
 20
71.6561482640637735
 30
0.0
 40
0.1970024192546032
 50
190.4961097491959947
 51
205.1698550316048113
  0
ARC
  5
11773
  8
0
 10
339.0659352691022832
 20
71.5971468818459584
 30
0.0
 40
0.1111084373044078
 50
192.8891028430878976
 51
242.249777082929711
  0
LINE
  5
11774
  8
0
 10
338.900974078298475
 20
71.8319359238761876
 30
0.0
 11
338.9079543083512931
 21
71.7725254046461032
 31
0.0
  0
LINE
  5
11775
  8
0
 10
338.9079543083512931
 20
71.7725254046461032
 30
0.0
 11
338.9198345403984263
 21
71.7139020374761742
 31
0.0
  0
ARC
  5
11776
  8
0
 10
339.2893648486391953
 20
72.0409555023789352
 30
0.0
 40
0.3685430416310733
 50
138.2989177374315091
 51
160.3808113656506009
  0
ARC
  5
11777
  8
0
 10
338.5853254977369033
 20
71.8986530645569246
 30
0.0
 40
0.7210379058108272
 50
4.3245620213661891
 51
13.8337968115202194
  0
LINE
  5
11778
  8
0
 10
339.2630674558985788
 20
72.1647001124645726
 30
0.0
 11
339.2854485513984741
 21
72.0710577377761865
 31
0.0
  0
LINE
  5
11779
  8
0
 10
339.3043105360983986
 20
71.9530237940761737
 30
0.0
 11
339.3043109303985148
 21
71.8319359238761876
 31
0.0
  0
LINE
  5
1177A
  8
0
 10
339.2854504682986772
 20
71.7139020374761742
 30
0.0
 11
339.2630674558985788
 21
71.6202605767761895
 31
0.0
  0
ARC
  5
1177B
  8
0
 10
339.0693614232267805
 20
71.6561482640637735
 30
0.0
 40
0.1970024192546032
 50
334.8301449683951887
 51
349.5038902508031242
  0
ARC
  5
1177C
  8
0
 10
339.1396014730495949
 20
71.5969531862261306
 30
0.0
 40
0.1108199193627376
 50
297.6816616271115095
 51
347.1794858559861154
  0
LINE
  5
1177D
  8
0
 10
339.3043109303985148
 20
71.8319359238761876
 30
0.0
 11
339.2973307003458103
 21
71.7725254046461032
 31
0.0
  0
LINE
  5
1177E
  8
0
 10
339.2973307003458103
 20
71.7725254046461032
 30
0.0
 11
339.2854504682986772
 21
71.7139020374761742
 31
0.0
  0
ARC
  5
1177F
  8
0
 10
338.9159201210467245
 20
72.040955425520707
 30
0.0
 40
0.3685431041838862
 50
19.6191978530864191
 51
41.7010896015037176
  0
LINE
  5
11780
  8
0
 10
339.0142011729428191
 20
72.2861267182914986
 30
0.0
 11
339.1910838120430753
 21
72.2861267182915128
 31
0.0
  0
LINE
  5
11781
  8
0
 10
339.0142011847984236
 20
71.4988174896915041
 30
0.0
 11
339.1910838238986798
 21
71.498817453291494
 31
0.0
  0
LINE
  5
11782
  8
0
 10
339.4529993555033229
 20
72.288976621937266
 30
0.0
 11
339.3807805468929928
 21
72.288976621937266
 31
0.0
  0
ARC
  5
11783
  8
0
 10
339.3807805468929928
 20
72.3087065468120898
 30
0.0
 40
0.0197299248748113
 50
182.1284097154951951
 51
270.0
  0
LINE
  5
11784
  8
0
 10
339.4529992683844739
 20
71.4959675674895863
 30
0.0
 11
339.3807805468929928
 21
71.4955894276915132
 31
0.0
  0
ARC
  5
11785
  8
0
 10
339.3808845670934033
 20
71.4757232143729624
 30
0.0
 40
0.0198664856434183
 50
90.3000000007550625
 51
179.461537296111004
  0
ARC
  5
11787
  8
0
 10
338.2699644939809218
 20
68.379871078984749
 30
0.0
 40
0.0118084329234836
 50
197.6863054920573006
 51
270.0041000888992926
  0
LINE
  5
11788
  8
0
 10
338.269965338992904
 20
68.3680626460915022
 30
0.0
 11
338.5337448658174822
 21
68.3680815221679126
 31
0.0
  0
ARC
  5
11789
  8
0
 10
338.5337440195219756
 20
68.3799078911968365
 30
0.0
 40
0.0118263690592161
 50
270.0041000888959957
 51
328.8770035049187186
  0
LINE
  5
1178A
  8
0
 10
339.2797968350928954
 20
70.2939641138661244
 30
0.0
 11
340.350674004207292
 21
70.2939641138661244
 31
0.0
  0
ARC
  5
1178B
  8
0
 10
339.2797968350928954
 20
70.2821641138661306
 30
0.0
 40
0.0118
 50
90.0000000000162856
 51
179.9999999999893987
  0
ENDSEC
  0
EOF
