  0
SECTION
  2
HEADER
  9
$ACADVER
  1
AC1009
  9
$INSBASE
 10
3274.6576088574170171
 20
89.8014630740552349
 30
0.0
  9
$EXTMIN
 10
3271.8749293070131898
 20
86.6965519108200482
 30
-0.0000000349181948
  9
$EXTMAX
 10
3277.6261997527049061
 20
89.8073934097761963
 30
0.0000000814935746
  9
$LIMMIN
 10
0.0
 20
0.0
  9
$LIMMAX
 10
11.6929133858000007
 20
8.2677165353999982
  9
$ORTHOMODE
 70
     0
  9
$REGENMODE
 70
     1
  9
$FILLMODE
 70
     1
  9
$QTEXTMODE
 70
     0
  9
$MIRRTEXT
 70
     0
  9
$DRAGMODE
 70
     2
  9
$LTSCALE
 40
0.6431102362
  9
$OSMODE
 70
  4095
  9
$ATTMODE
 70
     1
  9
$TEXTSIZE
 40
0.2
  9
$TRACEWID
 40
0.05
  9
$TEXTSTYLE
  7
STANDARD
  9
$CLAYER
  8
0
  9
$CELTYPE
  6
BYLAYER
  9
$CECOLOR
 62
   256
  9
$DIMSCALE
 40
1.0
  9
$DIMASZ
 40
0.1875
  9
$DIMEXO
 40
0.0625
  9
$DIMDLI
 40
0.4443307087
  9
$DIMRND
 40
0.0
  9
$DIMDLE
 40
0.0
  9
$DIMEXE
 40
0.125
  9
$DIMTP
 40
0.01
  9
$DIMTM
 40
0.01
  9
$DIMTXT
 40
2.0
  9
$DIMCEN
 40
0.1052362205
  9
$DIMTSZ
 40
0.0
  9
$DIMTOL
 70
     1
  9
$DIMLIM
 70
     0
  9
$DIMTIH
 70
     1
  9
$DIMTOH
 70
     1
  9
$DIMSE1
 70
     0
  9
$DIMSE2
 70
     0
  9
$DIMTAD
 70
     0
  9
$DIMZIN
 70
     0
  9
$DIMBLK
  1

  9
$DIMASO
 70
     1
  9
$DIMSHO
 70
     1
  9
$DIMPOST
  1
\X
  9
$DIMAPOST
  1

  9
$DIMALT
 70
     1
  9
$DIMALTD
 70
     2
  9
$DIMALTF
 40
25.3999999999999986
  9
$DIMLFAC
 40
1.0
  9
$DIMTOFL
 70
     0
  9
$DIMTVP
 40
0.0
  9
$DIMTIX
 70
     0
  9
$DIMSOXD
 70
     0
  9
$DIMSAH
 70
     0
  9
$DIMBLK1
  1

  9
$DIMBLK2
  1

  9
$DIMSTYLE
  2
STANDARD
  9
$DIMCLRD
 70
     0
  9
$DIMCLRE
 70
     0
  9
$DIMCLRT
 70
     0
  9
$DIMTFAC
 40
1.0
  9
$DIMGAP
 40
0.09
  9
$LUNITS
 70
     2
  9
$LUPREC
 70
     4
  9
$SKETCHINC
 40
0.1
  9
$FILLETRAD
 40
0.0
  9
$AUNITS
 70
     0
  9
$AUPREC
 70
     0
  9
$MENU
  1
.
  9
$ELEVATION
 40
0.0
  9
$PELEVATION
 40
0.0
  9
$THICKNESS
 40
0.0
  9
$LIMCHECK
 70
     0
  9
$BLIPMODE
 70
     0
  9
$CHAMFERA
 40
0.0
  9
$CHAMFERB
 40
0.0
  9
$SKPOLY
 70
     0
  9
$TDCREATE
 40
2458060.468368056230247
  9
$TDUPDATE
 40
2460445.9231018521822989
  9
$TDINDWG
 40
0.3108982639
  9
$TDUSRTIMER
 40
0.3108982639
  9
$USRTIMER
 70
     1
  9
$ANGBASE
 50
0.0
  9
$ANGDIR
 70
     0
  9
$PDMODE
 70
     0
  9
$PDSIZE
 40
0.3125
  9
$PLINEWID
 40
0.0
  9
$COORDS
 70
     1
  9
$SPLFRAME
 70
     0
  9
$SPLINETYPE
 70
     6
  9
$SPLINESEGS
 70
     8
  9
$ATTDIA
 70
     1
  9
$ATTREQ
 70
     1
  9
$HANDLING
 70
     1
  9
$HANDSEED
  5
7DF1
  9
$SURFTAB1
 70
     6
  9
$SURFTAB2
 70
     6
  9
$SURFTYPE
 70
     6
  9
$SURFU
 70
     6
  9
$SURFV
 70
     6
  9
$UCSNAME
  2

  9
$UCSORG
 10
0.0
 20
0.0
 30
0.0
  9
$UCSXDIR
 10
1.0
 20
0.0
 30
0.0
  9
$UCSYDIR
 10
0.0
 20
1.0
 30
0.0
  9
$PUCSNAME
  2

  9
$PUCSORG
 10
0.0
 20
0.0
 30
0.0
  9
$PUCSXDIR
 10
1.0
 20
0.0
 30
0.0
  9
$PUCSYDIR
 10
0.0
 20
1.0
 30
0.0
  9
$USERI1
 70
     0
  9
$USERI2
 70
     0
  9
$USERI3
 70
     0
  9
$USERI4
 70
     0
  9
$USERI5
 70
     0
  9
$USERR1
 40
0.0
  9
$USERR2
 40
0.0
  9
$USERR3
 40
0.0
  9
$USERR4
 40
0.0
  9
$USERR5
 40
0.0
  9
$WORLDVIEW
 70
     1
  9
$SHADEDGE
 70
     3
  9
$SHADEDIF
 70
    70
  9
$TILEMODE
 70
     1
  9
$MAXACTVP
 70
    64
  9
$PLIMCHECK
 70
     0
  9
$PEXTMIN
 10
1.0000000000000000E+20
 20
1.0000000000000000E+20
 30
1.0000000000000000E+20
  9
$PEXTMAX
 10
-1.0000000000000000E+20
 20
-1.0000000000000000E+20
 30
-1.0000000000000000E+20
  9
$PLIMMIN
 10
0.0
 20
0.0
  9
$PLIMMAX
 10
12.0
 20
9.0
  9
$UNITMODE
 70
     0
  9
$VISRETAIN
 70
     1
  9
$PLINEGEN
 70
     0
  9
$PSLTSCALE
 70
     1
  0
ENDSEC
  0
SECTION
  2
TABLES
  0
TABLE
  2
VPORT
 70
     1
  0
VPORT
  2
*ACTIVE
 70
     0
 10
0.0
 20
0.0
 11
1.0
 21
1.0
 12
100.6254424595463064
 22
-10.1302676351120304
 13
0.0
 23
0.0
 14
1.0
 24
1.0
 15
0.0
 25
0.0
 16
0.0
 26
0.0
 36
43.2192227472571133
 17
3174.1251220703129547
 27
98.3822402954101705
 37
0.0
 40
3.1320277066675111
 41
2.1579545454545448
 42
50.0
 43
0.0
 44
0.0
 50
0.0
 51
0.0
 71
     0
 72
   100
 73
     1
 74
     1
 75
     0
 76
     0
 77
     0
 78
     0
  0
ENDTAB
  0
TABLE
  2
LTYPE
 70
     2
  0
LTYPE
  2
CONTINUOUS
 70
     0
  3
Solid line
 72
    65
 73
     0
 40
0.0
  0
LTYPE
  2
PHANTOM2
 70
     0
  3
___ _ _ ___ _ _ ___ _ _ ___ _ _
 72
    65
 73
     6
 40
1.25
 49
0.625
 49
-0.125
 49
0.125
 49
-0.125
 49
0.125
 49
-0.125
  0
ENDTAB
  0
TABLE
  2
LAYER
 70
     2
  0
LAYER
  2
0
 70
     0
 62
   255
  6
CONTINUOUS
  0
LAYER
  2
DEFPOINTS
 70
     0
 62
     7
  6
CONTINUOUS
  0
ENDTAB
  0
TABLE
  2
STYLE
 70
     1
  0
STYLE
  2
STANDARD
 70
     0
 40
0.0
 41
0.8
 50
0.0
 71
     0
 42
0.2
  3
txt
  4

  0
ENDTAB
  0
TABLE
  2
VIEW
 70
     0
  0
ENDTAB
  0
TABLE
  2
UCS
 70
     0
  0
ENDTAB
  0
TABLE
  2
APPID
 70
     9
  0
APPID
  2
ACAD
 70
     0
  0
APPID
  2
ACAD_MLEADERVER
 70
     0
  0
APPID
  2
ACAD_EXEMPT_FROM_CAD_STANDARDS
 70
     0
  0
APPID
  2
ACAD_NAV_VCDISPLAY
 70
     0
  0
APPID
  2
ACAECLAYERSTANDARD
 70
     0
  0
APPID
  2
ACCMTRANSPARENCY
 70
     0
  0
APPID
  2
ACAD_DSTYLE_DIMJAG
 70
     0
  0
APPID
  2
ACAD_DSTYLE_DIMTALN
 70
     0
  0
APPID
  2
ACDBATTR
 70
     0
  0
ENDTAB
  0
TABLE
  2
DIMSTYLE
 70
     1
  0
DIMSTYLE
  2
STANDARD
 70
     0
  3

  4

  5

  6

  7

 40
1.0
 41
0.1875
 42
0.0625
 43
0.38
 44
0.125
 45
0.0
 46
0.0
 47
0.01
 48
0.01
140
0.15625
141
0.09
142
0.0
143
25.3999999999999986
144
1.0
145
0.0
146
1.0
147
0.09
 71
     1
 72
     0
 73
     1
 74
     1
 75
     0
 76
     0
 77
     0
 78
     4
170
     0
171
     2
172
     0
173
     0
174
     0
175
     0
176
     0
177
     0
178
     0
  0
ENDTAB
  0
ENDSEC
  0
SECTION
  2
BLOCKS
  0
BLOCK
  8
0
  2
$MODEL_SPACE
 70
     0
 10
0.0
 20
0.0
 30
0.0
  3
$MODEL_SPACE
  1

  0
ENDBLK
  5
21
  8
0
  0
BLOCK
 67
     1
  8
0
  2
$PAPER_SPACE
 70
     0
 10
0.0
 20
0.0
 30
0.0
  3
$PAPER_SPACE
  1

  0
ENDBLK
  5
1D
 67
     1
  8
0
  0
BLOCK
  8
0
  2
_FILLED
 70
     0
 10
0.0
 20
0.0
 30
0.0
  3
_FILLED
  1

  0
SOLID
  5
7CDB
  8
0
  6
BYBLOCK
 62
     0
 10
0.0
 20
0.0
 30
0.0
 11
-1.0
 21
0.1666666667
 31
0.0
 12
-1.0
 22
-0.1666666667
 32
0.0
 13
-1.0
 23
-0.1666666667
 33
0.0
  0
ENDBLK
  5
7CDC
  8
0
  6
BYBLOCK
 62
     0
  0
ENDSEC
  0
SECTION
  2
ENTITIES
  0
ATTDEF
  5
3930
  8
DEFPOINTS
 10
3274.6541713217629876
 20
89.8055309501109349
 30
0.0
 40
0.001
  1
K-99729T-9
  3

  2
MODELNUMBER
 70
     0
1001
ACDBATTR
1070
     0
1070
     1
  0
ATTDEF
  5
3931
  8
DEFPOINTS
 10
3274.6541713217629876
 20
89.803864283444284
 30
0.0
 40
0.001
  1
MODULO
  3

  2
TRADENAME
 70
     0
1001
ACDBATTR
1070
     0
1070
     1
  0
ATTDEF
  5
3932
  8
DEFPOINTS
 10
3274.6541713217629876
 20
89.8021976167776188
 30
0.0
 40
0.001
  1
VALVE TRIM
  3

  2
PRODUCT
 70
     0
1001
ACDBATTR
1070
     0
1070
     1
  0
LINE
  5
7D06
  8
0
 10
3271.9017033456161698
 20
89.2504118929552277
 30
0.0
 11
3271.9017033456161698
 21
89.8014630740552349
 31
0.0
  0
LINE
  5
7D07
  8
0
 10
3271.9017033456161698
 20
89.8014630740552349
 30
0.0
 11
3277.4135143692169549
 21
89.8014630740552349
 31
0.0
  0
LINE
  5
7D08
  8
0
 10
3271.9412033456169411
 20
89.2109118929552238
 30
0.0
 11
3277.3740143692170932
 21
89.2109118929552238
 31
0.0
  0
ARC
  5
7D09
  8
0
 10
3271.9412033456169411
 20
89.2504118929552561
 30
0.0
 40
0.0395
 50
180.0000000000023874
 51
270.0
  0
LINE
  5
7D0A
  8
0
 10
3277.4135143692169549
 20
89.2504118929552277
 30
0.0
 11
3277.4135143692169549
 21
89.8014630740552349
 31
0.0
  0
ARC
  5
7D0B
  8
0
 10
3277.3740143692170932
 20
89.2504118929552561
 30
0.0
 40
0.0395
 50
270.0
 51
359.9999999999976126
  0
LINE
  5
7D0D
  8
0
 10
3273.7127269676161632
 20
88.395951263055224
 30
0.0
 11
3273.7273303785891585
 21
86.7225661142083339
 31
0.0
  0
LINE
  5
7D0E
  8
0
 10
3273.747029628474138
 20
86.7030380269578416
 30
0.0
 11
3273.9320643417950123
 21
86.7030380269578416
 31
0.0
  0
LINE
  5
7D0F
  8
0
 10
3273.9438804173100834
 20
86.6991009695582875
 30
0.0
 11
3275.3713377773228785
 21
86.6991009695582875
 31
0.0
  0
LINE
  5
7D10
  8
0
 10
3273.9095773612980338
 20
88.3920142572726633
 30
0.0
 11
3273.9241811674660312
 21
86.7186290521626262
 31
0.0
  0
LINE
  5
7D11
  8
0
 10
3273.9095773612980338
 20
88.3920142572726633
 30
0.0
 11
3275.6024568692869252
 21
88.3920142572726633
 31
0.0
  0
LINE
  5
7D12
  8
0
 10
3274.0769001960161404
 20
88.4431953575552257
 30
0.0
 11
3274.0769001960161404
 21
88.3920142551552459
 31
0.0
  0
LINE
  5
7D13
  8
0
 10
3273.8800498023169894
 20
88.4431953575552257
 30
0.0
 11
3273.8800498023169894
 21
88.395951263055224
 31
0.0
  0
LINE
  5
7D14
  8
0
 10
3274.0769001960161404
 20
88.395951263055224
 30
0.0
 11
3273.7127269676161632
 21
88.395951263055224
 31
0.0
  0
LINE
  5
7D15
  8
0
 10
3273.8111671251158441
 20
88.4431953574552381
 30
0.0
 11
3275.5040510695162084
 21
88.4431953574552381
 31
0.0
  0
LINE
  5
7D16
  8
0
 10
3273.7914671251169239
 20
88.4628953574552384
 30
0.0
 11
3273.7914671251169239
 21
89.2109118929552238
 31
0.0
  0
ARC
  5
7D17
  8
0
 10
3273.8111671251158441
 20
88.4628953574552384
 30
0.0
 40
0.0197
 50
180.0
 51
270.0
  0
ARC
  5
7D18
  8
0
 10
3273.747029628474138
 20
86.7227380269578561
 30
0.0
 40
0.0197
 50
180.5000000005468905
 51
270.0
  0
ARC
  5
7D19
  8
0
 10
3273.9438804173100834
 20
86.7188009695582878
 30
0.0
 40
0.0197
 50
180.5000135139696056
 51
270.0
  0
LINE
  5
7D1A
  8
0
 10
3273.9883175188169844
 20
88.4628803968552262
 30
0.0
 11
3273.9883175188169844
 21
89.2109118929552238
 31
0.0
  0
LINE
  5
7D1B
  8
0
 10
3273.9883175188169844
 20
88.4628803968552262
 30
0.0
 11
3274.0080025582169583
 21
88.4431953575552257
 31
0.0
  0
LINE
  5
7D1C
  8
0
 10
3273.9883175188169844
 20
88.4628803968552262
 30
0.0
 11
3275.3269006758168871
 21
88.4628803968552262
 31
0.0
  0
LINE
  5
7D1D
  8
0
 10
3275.6024912270158893
 20
88.395951263055224
 30
0.0
 11
3275.587887816042894
 21
86.7225661142083339
 31
0.0
  0
LINE
  5
7D1E
  8
0
 10
3275.5681885661601882
 20
86.7030380269578416
 30
0.0
 11
3275.3831538528379497
 21
86.7030380269578416
 31
0.0
  0
LINE
  5
7D1F
  8
0
 10
3275.4056408333349282
 20
88.3920142572726633
 30
0.0
 11
3275.3910370271669308
 21
86.7186290521626262
 31
0.0
  0
LINE
  5
7D20
  8
0
 10
3275.2383179986159121
 20
88.4431953575552257
 30
0.0
 11
3275.2383179986159121
 21
88.3920142551552459
 31
0.0
  0
LINE
  5
7D21
  8
0
 10
3275.4351683923159726
 20
88.4431953575552257
 30
0.0
 11
3275.4351683923159726
 21
88.395951263055224
 31
0.0
  0
LINE
  5
7D22
  8
0
 10
3275.2383179986159121
 20
88.395951263055224
 30
0.0
 11
3275.6024912270158893
 21
88.395951263055224
 31
0.0
  0
LINE
  5
7D23
  8
0
 10
3275.5237510695169476
 20
88.4628953574552384
 30
0.0
 11
3275.5237510695169476
 21
89.2109118929552238
 31
0.0
  0
ARC
  5
7D24
  8
0
 10
3275.5040510695162084
 20
88.4628953574552384
 30
0.0
 40
0.0197
 50
270.0
 51
0.0
  0
ARC
  5
7D25
  8
0
 10
3275.5681885661601882
 20
86.7227380269578561
 30
0.0
 40
0.0197
 50
270.0
 51
359.4999999994531095
  0
ARC
  5
7D26
  8
0
 10
3275.3713377773228785
 20
86.7188009695582878
 30
0.0
 40
0.0197
 50
270.0
 51
359.4999864860304228
  0
LINE
  5
7D27
  8
0
 10
3275.3269006758168871
 20
88.4628803968552262
 30
0.0
 11
3275.3269006758168871
 21
89.2109118929552238
 31
0.0
  0
LINE
  5
7D28
  8
0
 10
3275.3269006758168871
 20
88.4628803968552262
 30
0.0
 11
3275.3072156364160037
 21
88.4431953575552257
 31
0.0
  0
ENDSEC
  0
EOF
