  0
SECTION
  2
HEADER
  9
$ACADVER
  1
AC1009
  9
$INSBASE
 10
765.3059214673645556
 20
89.1521906524517078
 30
0.0
  9
$EXTMIN
 10
742.538985108457382
 20
67.028615879433687
 30
-0.0000000000000058
  9
$EXTMAX
 10
765.326166062545326
 20
123.2213705933744023
 30
0.0000000000000104
  9
$LIMMIN
 10
0.0
 20
0.0
  9
$LIMMAX
 10
11.6929133858000007
 20
8.2677165353999982
  9
$ORTHOMODE
 70
     0
  9
$REGENMODE
 70
     1
  9
$FILLMODE
 70
     1
  9
$QTEXTMODE
 70
     0
  9
$MIRRTEXT
 70
     0
  9
$DRAGMODE
 70
     2
  9
$LTSCALE
 40
0.6431102362
  9
$OSMODE
 70
  4095
  9
$ATTMODE
 70
     1
  9
$TEXTSIZE
 40
0.2
  9
$TRACEWID
 40
0.05
  9
$TEXTSTYLE
  7
STANDARD
  9
$CLAYER
  8
0
  9
$CELTYPE
  6
BYLAYER
  9
$CECOLOR
 62
   256
  9
$DIMSCALE
 40
1.0
  9
$DIMASZ
 40
0.1875
  9
$DIMEXO
 40
0.0625
  9
$DIMDLI
 40
0.4443307087
  9
$DIMRND
 40
0.0
  9
$DIMDLE
 40
0.0
  9
$DIMEXE
 40
0.125
  9
$DIMTP
 40
0.01
  9
$DIMTM
 40
0.01
  9
$DIMTXT
 40
1.0
  9
$DIMCEN
 40
0.1052362205
  9
$DIMTSZ
 40
0.0
  9
$DIMTOL
 70
     1
  9
$DIMLIM
 70
     0
  9
$DIMTIH
 70
     0
  9
$DIMTOH
 70
     1
  9
$DIMSE1
 70
     0
  9
$DIMSE2
 70
     0
  9
$DIMTAD
 70
     0
  9
$DIMZIN
 70
     0
  9
$DIMBLK
  1

  9
$DIMASO
 70
     1
  9
$DIMSHO
 70
     1
  9
$DIMPOST
  1
\X
  9
$DIMAPOST
  1

  9
$DIMALT
 70
     1
  9
$DIMALTD
 70
     2
  9
$DIMALTF
 40
25.3999999999999986
  9
$DIMLFAC
 40
1.0
  9
$DIMTOFL
 70
     0
  9
$DIMTVP
 40
0.0
  9
$DIMTIX
 70
     0
  9
$DIMSOXD
 70
     0
  9
$DIMSAH
 70
     0
  9
$DIMBLK1
  1

  9
$DIMBLK2
  1

  9
$DIMSTYLE
  2
STANDARD
  9
$DIMCLRD
 70
     0
  9
$DIMCLRE
 70
     0
  9
$DIMCLRT
 70
     0
  9
$DIMTFAC
 40
1.0
  9
$DIMGAP
 40
0.09
  9
$LUNITS
 70
     2
  9
$LUPREC
 70
     4
  9
$SKETCHINC
 40
0.1
  9
$FILLETRAD
 40
0.0
  9
$AUNITS
 70
     0
  9
$AUPREC
 70
     0
  9
$MENU
  1
.
  9
$ELEVATION
 40
0.0
  9
$PELEVATION
 40
0.0
  9
$THICKNESS
 40
0.0
  9
$LIMCHECK
 70
     0
  9
$BLIPMODE
 70
     0
  9
$CHAMFERA
 40
0.0
  9
$CHAMFERB
 40
0.0
  9
$SKPOLY
 70
     0
  9
$TDCREATE
 40
2458172.5207638889551163
  9
$TDUPDATE
 40
2460045.4159490740858018
  9
$TDINDWG
 40
0.3616789583
  9
$TDUSRTIMER
 40
0.3616789583
  9
$USRTIMER
 70
     1
  9
$ANGBASE
 50
0.0
  9
$ANGDIR
 70
     0
  9
$PDMODE
 70
     0
  9
$PDSIZE
 40
0.3125
  9
$PLINEWID
 40
0.0
  9
$COORDS
 70
     1
  9
$SPLFRAME
 70
     0
  9
$SPLINETYPE
 70
     6
  9
$SPLINESEGS
 70
     8
  9
$ATTDIA
 70
     1
  9
$ATTREQ
 70
     1
  9
$HANDLING
 70
     1
  9
$HANDSEED
  5
EBD7
  9
$SURFTAB1
 70
     6
  9
$SURFTAB2
 70
     6
  9
$SURFTYPE
 70
     6
  9
$SURFU
 70
     6
  9
$SURFV
 70
     6
  9
$UCSNAME
  2

  9
$UCSORG
 10
0.0
 20
0.0
 30
0.0
  9
$UCSXDIR
 10
1.0
 20
0.0
 30
0.0
  9
$UCSYDIR
 10
0.0
 20
1.0
 30
0.0
  9
$PUCSNAME
  2

  9
$PUCSORG
 10
0.0
 20
0.0
 30
0.0
  9
$PUCSXDIR
 10
1.0
 20
0.0
 30
0.0
  9
$PUCSYDIR
 10
0.0
 20
1.0
 30
0.0
  9
$USERI1
 70
     0
  9
$USERI2
 70
     0
  9
$USERI3
 70
     0
  9
$USERI4
 70
     0
  9
$USERI5
 70
     0
  9
$USERR1
 40
0.0
  9
$USERR2
 40
0.0
  9
$USERR3
 40
0.0
  9
$USERR4
 40
0.0
  9
$USERR5
 40
0.0
  9
$WORLDVIEW
 70
     1
  9
$SHADEDGE
 70
     3
  9
$SHADEDIF
 70
    70
  9
$TILEMODE
 70
     1
  9
$MAXACTVP
 70
    64
  9
$PLIMCHECK
 70
     0
  9
$PEXTMIN
 10
1.0000000000000000E+20
 20
1.0000000000000000E+20
 30
1.0000000000000000E+20
  9
$PEXTMAX
 10
-1.0000000000000000E+20
 20
-1.0000000000000000E+20
 30
-1.0000000000000000E+20
  9
$PLIMMIN
 10
0.0
 20
0.0
  9
$PLIMMAX
 10
12.0
 20
9.0
  9
$UNITMODE
 70
     0
  9
$VISRETAIN
 70
     1
  9
$PLINEGEN
 70
     0
  9
$PSLTSCALE
 70
     1
  0
ENDSEC
  0
SECTION
  2
TABLES
  0
TABLE
  2
VPORT
 70
     1
  0
VPORT
  2
*ACTIVE
 70
     0
 10
0.0
 20
0.0
 11
1.0
 21
1.0
 12
287.1903738776712771
 22
5.9918461164742531
 13
0.0
 23
0.0
 14
1.0
 24
1.0
 15
0.0
 25
0.0
 16
0.0
 26
0.0
 36
24.1179433675886514
 17
466.74220170783002
 27
89.133147119929788
 37
0.0
 40
56.6785710371159865
 41
2.7301587301587298
 42
50.0
 43
0.0
 44
0.0
 50
0.0
 51
0.0
 71
     0
 72
   100
 73
     1
 74
     1
 75
     0
 76
     0
 77
     0
 78
     0
  0
ENDTAB
  0
TABLE
  2
LTYPE
 70
     2
  0
LTYPE
  2
CONTINUOUS
 70
     0
  3
Solid line
 72
    65
 73
     0
 40
0.0
  0
LTYPE
  2
PHANTOM2
 70
     0
  3
___ _ _ ___ _ _ ___ _ _ ___ _ _
 72
    65
 73
     6
 40
1.25
 49
0.625
 49
-0.125
 49
0.125
 49
-0.125
 49
0.125
 49
-0.125
  0
ENDTAB
  0
TABLE
  2
LAYER
 70
     2
  0
LAYER
  2
0
 70
     0
 62
   255
  6
CONTINUOUS
  0
LAYER
  2
DEFPOINTS
 70
     0
 62
     7
  6
CONTINUOUS
  0
ENDTAB
  0
TABLE
  2
STYLE
 70
     1
  0
STYLE
  2
STANDARD
 70
     0
 40
0.0
 41
0.8
 50
0.0
 71
     0
 42
0.2
  3
txt
  4

  0
ENDTAB
  0
TABLE
  2
VIEW
 70
     0
  0
ENDTAB
  0
TABLE
  2
UCS
 70
     0
  0
ENDTAB
  0
TABLE
  2
APPID
 70
    10
  0
APPID
  2
ACAD
 70
     0
  0
APPID
  2
ACAD_MLEADERVER
 70
     0
  0
APPID
  2
ACAD_EXEMPT_FROM_CAD_STANDARDS
 70
     0
  0
APPID
  2
ACAD_DSTYLE_DIMJAG
 70
     0
  0
APPID
  2
ACAD_DSTYLE_DIMTALN
 70
     0
  0
APPID
  2
ACAD_NAV_VCDISPLAY
 70
     0
  0
APPID
  2
ACAECLAYERSTANDARD
 70
     0
  0
APPID
  2
ACCMTRANSPARENCY
 70
     0
  0
APPID
  2
DCO15
 70
     0
  0
APPID
  2
ACDBATTR
 70
     0
  0
ENDTAB
  0
TABLE
  2
DIMSTYLE
 70
     1
  0
DIMSTYLE
  2
STANDARD
 70
     0
  3

  4

  5

  6

  7

 40
1.0
 41
0.1875
 42
0.0625
 43
0.38
 44
0.125
 45
0.0
 46
0.0
 47
0.01
 48
0.01
140
0.15625
141
0.09
142
0.0
143
25.3999999999999986
144
1.0
145
0.0
146
1.0
147
0.09
 71
     1
 72
     0
 73
     1
 74
     1
 75
     0
 76
     0
 77
     0
 78
     4
170
     0
171
     2
172
     0
173
     0
174
     0
175
     0
176
     0
177
     0
178
     0
  0
ENDTAB
  0
ENDSEC
  0
SECTION
  2
BLOCKS
  0
BLOCK
  8
0
  2
$MODEL_SPACE
 70
     0
 10
0.0
 20
0.0
 30
0.0
  3
$MODEL_SPACE
  1

  0
ENDBLK
  5
21
  8
0
  0
BLOCK
 67
     1
  8
0
  2
$PAPER_SPACE
 70
     0
 10
0.0
 20
0.0
 30
0.0
  3
$PAPER_SPACE
  1

  0
ENDBLK
  5
1D
 67
     1
  8
0
  0
BLOCK
  8
0
  2
_FILLED
 70
     0
 10
0.0
 20
0.0
 30
0.0
  3
_FILLED
  1

  0
SOLID
  5
8868
  8
0
  6
BYBLOCK
 62
     0
 10
0.0
 20
0.0
 30
0.0
 11
-1.0
 21
0.1666666667
 31
0.0
 12
-1.0
 22
-0.1666666667
 32
0.0
 13
-1.0
 23
-0.1666666667
 33
0.0
  0
ENDBLK
  5
8869
  8
0
  6
BYBLOCK
 62
     0
  0
ENDSEC
  0
SECTION
  2
ENTITIES
  0
ATTDEF
  5
829
  8
DEFPOINTS
 10
765.3074416315960207
 20
89.1521350071144951
 30
0.0
 40
0.001
  1
K-99742T-C9E2
  3

  2
MODELNUMBER
 70
     0
1001
ACDBATTR
1070
     0
1070
     1
  0
ATTDEF
  5
82A
  8
DEFPOINTS
 10
765.3074416315960207
 20
89.1504683404478442
 30
0.0
 40
0.001
  1
JULY
  3

  2
TRADENAME
 70
     0
1001
ACDBATTR
1070
     0
1070
     1
  0
ATTDEF
  5
82B
  8
DEFPOINTS
 10
765.3074416315960207
 20
89.148801673781179
 30
0.0
 40
0.001
  1
SHOWER COLUMN
  3

  2
PRODUCT
 70
     0
1001
ACDBATTR
1070
     0
1070
     1
  0
LINE
  5
E3DF
  8
0
 10
761.6838891839648795
 20
105.0429386840093002
 30
0.0
 11
762.9437017823645419
 21
105.0429386840093002
 31
0.0
  0
LINE
  5
E3E0
  8
0
 10
761.6641891839650498
 20
106.2633961643092988
 30
0.0
 11
761.6641891839650498
 21
105.0626386840093005
 31
0.0
  0
LINE
  5
E3E1
  8
0
 10
762.9634017823652812
 20
105.3086567942092984
 30
0.0
 11
762.9634017823652812
 21
105.0626386840093005
 31
0.0
  0
LINE
  5
E3E2
  8
0
 10
761.6838891839648795
 20
106.8342772666114939
 30
0.0
 11
762.9437017823645419
 21
106.8342772666114939
 31
0.0
  0
LINE
  5
E3E3
  8
0
 10
761.6838891839648795
 20
106.361836321744093
 30
0.0
 11
762.9437017823645419
 21
106.361836321744093
 31
0.0
  0
LINE
  5
E3E4
  8
0
 10
761.6838891839648795
 20
106.2830961642940935
 30
0.0
 11
762.9437017823645419
 21
106.2830961642940935
 31
0.0
  0
LINE
  5
E3E5
  8
0
 10
761.7626143808654433
 20
106.3618363217093048
 30
0.0
 11
761.7626143808654433
 21
106.2830961643092991
 31
0.0
  0
LINE
  5
E3E6
  8
0
 10
762.8649765855650458
 20
106.2830961642940935
 30
0.0
 11
762.8649765855650458
 21
106.361836321744093
 31
0.0
  0
ARC
  5
E3E7
  8
0
 10
761.6838891839395274
 20
106.2633961643199996
 30
0.0
 40
0.0196999999740903
 50
89.9999999247007452
 51
180.0000000312253974
  0
ARC
  5
E3E8
  8
0
 10
762.9437017823909173
 20
106.2633961643199996
 30
0.0
 40
0.0196999999740868
 50
359.9999999687950094
 51
90.000000075351366
  0
LINE
  5
E3E9
  8
0
 10
761.6641891839650498
 20
106.3815363217093051
 30
0.0
 11
761.6641891839650498
 21
106.8145772666093052
 31
0.0
  0
LINE
  5
E3EA
  8
0
 10
762.9634017823652812
 20
106.8145772666093052
 30
0.0
 11
762.9634017823652812
 21
106.3815363217093051
 31
0.0
  0
ARC
  5
E3EB
  8
0
 10
761.6838891839058761
 20
106.3815363216846066
 30
0.0
 40
0.0196999999405492
 50
179.9999999283988927
 51
270.0000001728495818
  0
ARC
  5
E3EC
  8
0
 10
761.6838891839686312
 20
106.8145772666076994
 30
0.0
 40
0.0197000000038372
 50
90.0000000112036957
 51
179.9999999953813017
  0
ARC
  5
E3ED
  8
0
 10
762.943701782360904
 20
106.8145772666076994
 30
0.0
 40
0.0197000000038159
 50
0.0000000045877339
 51
89.9999999889005267
  0
ARC
  5
E3EE
  8
0
 10
762.9437017824244549
 20
106.3815363216846066
 30
0.0
 40
0.0196999999405438
 50
269.9999998270462243
 51
0.0000000716112319
  0
LINE
  5
E3EF
  8
0
 10
748.5342647745153499
 20
122.4248237233441046
 30
0.0
 11
760.345294695714756
 21
122.4248237233441046
 31
0.0
  0
LINE
  5
E3F0
  8
0
 10
760.3452962705148366
 20
123.2122300224441034
 30
0.0
 11
748.5342631997151557
 21
123.2122300224441034
 31
0.0
  0
LINE
  5
E3F1
  8
0
 10
746.9594647745150269
 20
120.0626237233441032
 30
0.0
 11
746.9594647745150269
 21
120.8500237233440942
 31
0.0
  0
LINE
  5
E3F2
  8
0
 10
746.1720631997146711
 20
120.0626237233441032
 30
0.0
 11
746.1720631997146711
 21
120.8500252981441037
 31
0.0
  0
ARC
  5
E3F3
  8
0
 10
748.5342647745153499
 20
120.8500237233440942
 30
0.0
 40
1.5747999999999991
 50
90.0
 51
180.0
  0
ARC
  5
E3F4
  8
0
 10
760.345294695714756
 20
120.8500237233440942
 30
0.0
 40
1.5747999999999991
 50
0.0
 51
90.0
  0
ARC
  5
E3F5
  8
0
 10
760.3452882056105864
 20
120.8500219575515047
 30
0.0
 40
2.3622080649063788
 50
0.0000810266715613
 51
89.9998043843243209
  0
ARC
  5
E3F6
  8
0
 10
748.5342712646186101
 20
120.8500219575515047
 30
0.0
 40
2.3622080649063548
 50
90.0001956156756648
 51
179.9999189733271976
  0
ARC
  5
E3F7
  8
0
 10
761.6838891839648795
 20
105.0626386840093005
 30
0.0
 40
0.0197
 50
180.0000000000212026
 51
269.9999999999478746
  0
ARC
  5
E3F8
  8
0
 10
762.9437017823645419
 20
105.0626386840093005
 30
0.0
 40
0.0197
 50
270.0000000000521254
 51
359.9999999999690772
  0
LINE
  5
E3F9
  8
0
 10
765.3059214673645556
 20
104.4228599438092999
 30
0.0
 11
765.3059214673645556
 21
106.9031749044092976
 31
0.0
  0
LINE
  5
E3FA
  8
0
 10
764.9122206799653441
 20
104.4523602521080932
 30
0.0
 11
764.9122206799653441
 21
106.8736745961105044
 31
0.0
  0
LINE
  5
E3FB
  8
0
 10
764.9314049940827545
 20
104.4326670028060988
 30
0.0
 11
765.3059214673645556
 21
104.4228599438092999
 31
0.0
  0
LINE
  5
E3FC
  8
0
 10
764.9314049940827545
 20
106.8933678454124987
 30
0.0
 11
765.3059214673645556
 21
106.9031749044092976
 31
0.0
  0
LINE
  5
E3FD
  8
0
 10
763.2389923335647381
 20
105.1708914399092976
 30
0.0
 11
764.9122206799653441
 21
105.1708914399092976
 31
0.0
  0
LINE
  5
E3FE
  8
0
 10
763.2389923335647381
 20
106.1551434084093017
 30
0.0
 11
764.9122206799653441
 21
106.1551434084093017
 31
0.0
  0
LINE
  5
E3FF
  8
0
 10
763.2389923335647381
 20
106.1551434084093017
 30
0.0
 11
763.2389923335647381
 21
105.1708914399092976
 31
0.0
  0
LINE
  5
E400
  8
0
 10
763.2389923335647381
 20
105.3480567942092989
 30
0.0
 11
763.0028017823649407
 21
105.3480567942092989
 31
0.0
  0
LINE
  5
E401
  8
0
 10
763.2389923335647381
 20
105.9779780540092986
 30
0.0
 11
763.0028017823649407
 21
105.9779780540092986
 31
0.0
  0
ARC
  5
E402
  8
0
 10
764.9319206799652875
 20
104.4523602521080932
 30
0.0
 40
0.0197
 50
180.0000000000098055
 51
268.499999999801787
  0
ARC
  5
E403
  8
0
 10
764.9319206799652875
 20
106.8736745961105044
 30
0.0
 40
0.0197
 50
91.500000000198213
 51
180.0
  0
ARC
  5
E404
  8
0
 10
763.0028017823649407
 20
105.3086567942092984
 30
0.0
 40
0.0394
 50
90.0
 51
180.0000000000098055
  0
LINE
  5
E405
  8
0
 10
762.9634017823652812
 20
106.0173780540092991
 30
0.0
 11
762.9634017823652812
 21
106.2633961643092988
 31
0.0
  0
ARC
  5
E406
  8
0
 10
763.0028017823649407
 20
106.0173780540092991
 30
0.0
 40
0.0394
 50
179.9999999999901945
 51
270.0
  0
ARC
  5
E407
  8
0
 10
763.6596463574611562
 20
105.6796344894161024
 30
0.0
 40
0.7889112489321983
 50
181.206926794618397
 51
208.0498823004029134
  0
ARC
  5
E408
  8
0
 10
763.6680224994612445
 20
105.6442141024188004
 30
0.0
 40
0.7973341142382361
 50
152.0945075489026976
 51
178.6486833560653906
  0
LINE
  5
E409
  8
0
 10
746.1720631997146711
 20
120.0626237233441032
 30
0.0
 11
746.9594647745150269
 21
120.0626237233441032
 31
0.0
  0
LINE
  5
E40A
  8
0
 10
746.2015907587652919
 20
119.9445134870441052
 30
0.0
 11
746.2015907587652919
 21
120.0626237233441032
 31
0.0
  0
LINE
  5
E40B
  8
0
 10
746.9299372154152934
 20
119.9445134870441052
 30
0.0
 11
746.9299372154653156
 21
120.0626237233441032
 31
0.0
  0
LINE
  5
E40C
  8
0
 10
765.1642468589413966
 20
71.3421512823441333
 30
0.0
 11
765.2859214673646875
 21
71.3421512823441333
 31
0.0
  0
ARC
  5
E40D
  8
0
 10
765.2859214673646875
 20
71.3621512823441293
 30
0.0
 40
0.02
 50
270.0
 51
0.0
  0
LINE
  5
E40E
  8
0
 10
765.1641891839151413
 20
73.9405764792441715
 30
0.0
 11
765.2859214673646875
 21
73.9405764792441147
 31
0.0
  0
LINE
  5
E40F
  8
0
 10
764.5352119592150757
 20
73.2584099904428143
 30
0.0
 11
765.0090689568147582
 21
73.8649192892316648
 31
0.0
  0
LINE
  5
E410
  8
0
 10
764.535236926630887
 20
72.024285814309053
 30
0.0
 11
765.0090689568647804
 21
71.417808472180127
 31
0.0
  0
ARC
  5
E411
  8
0
 10
764.5972601457176552
 20
72.072795068771967
 30
0.0
 40
0.0787402532029534
 50
180.0000116627514046
 51
218.0294755788700911
  0
ARC
  5
E412
  8
0
 10
764.59726004919753
 20
73.2099327092880969
 30
0.0
 40
0.0787401565823027
 50
141.9999998283398099
 51
180.0000003230641141
  0
ARC
  5
E413
  8
0
 10
765.1641891842342602
 20
73.7437260850501133
 30
0.0
 40
0.1968503941939836
 50
90.0000000928604038
 51
141.9999999728186992
  0
ARC
  5
E414
  8
0
 10
765.1641891351571303
 20
71.5390015540748152
 30
0.0
 40
0.1968502801940648
 50
217.9999807827732923
 51
270.0168012424671815
  0
ARC
  5
E415
  8
0
 10
762.3137954830650642
 20
72.6413638808941471
 30
0.0
 40
0.8035751616999997
 50
193.6248429060867124
 51
166.3751570939120086
  0
ARC
  5
E416
  8
0
 10
761.4674156528651565
 20
72.6413638808941471
 30
0.0
 40
0.1054453262148129
 50
102.4380518848014958
 51
257.5619481151985042
  0
ARC
  5
E417
  8
0
 10
761.4196121989714356
 20
72.424627733414269
 30
0.0
 40
0.1165
 50
13.6248429060879399
 51
77.5619481151984758
  0
ARC
  5
E418
  8
0
 10
761.4196121989714356
 20
72.8581000283740252
 30
0.0
 40
0.1165
 50
282.4380518848014958
 51
346.3751570939119802
  0
LINE
  5
E419
  8
0
 10
763.2507883964651683
 20
72.4110489201941334
 30
0.0
 11
763.0836578469841243
 21
72.4110489201941334
 31
0.0
  0
LINE
  5
E41A
  8
0
 10
763.2507883964651683
 20
72.8716788414941163
 30
0.0
 11
763.0836578470141376
 21
72.8716788414941163
 31
0.0
  0
LINE
  5
E41B
  8
0
 10
763.270488396464998
 20
72.8519788414941161
 30
0.0
 11
763.270488396464998
 21
72.4307489201941337
 31
0.0
  0
ARC
  5
E41C
  8
0
 10
763.2507883964651683
 20
72.8519788414941161
 30
0.0
 40
0.0197
 50
0.0000000000211698
 51
90.0
  0
ARC
  5
E41D
  8
0
 10
763.2507883964651683
 20
72.4307489201941337
 30
0.0
 40
0.0197
 50
270.0
 51
359.9999999999902229
  0
CIRCLE
  5
E41E
  8
0
 10
762.3137954830650642
 20
72.6413638808941471
 30
0.0
 40
0.2520307987000025
  0
CIRCLE
  5
E41F
  8
0
 10
762.3137954830650642
 20
72.6413638808941471
 30
0.0
 40
0.2894214795999982
  0
LINE
  5
E420
  8
0
 10
763.5578899712652401
 20
73.1470598361624695
 30
0.0
 11
763.5578899712652401
 21
72.1356679255257802
 31
0.0
  0
LINE
  5
E421
  8
0
 10
763.5253354458916419
 20
73.1653732724402914
 30
0.0
 11
762.8195282888189013
 21
73.3628649987277015
 31
0.0
  0
LINE
  5
E422
  8
0
 10
763.5808108224343869
 20
73.1072924272664011
 30
0.0
 11
763.5911261772514536
 21
73.0626237233941254
 31
0.0
  0
LINE
  5
E423
  8
0
 10
763.5578899712652401
 20
73.0626237233941254
 30
0.0
 11
763.6366301287650913
 21
73.0626237233941254
 31
0.0
  0
ARC
  5
E424
  8
0
 10
763.5041289414764378
 20
73.0895842615582012
 30
0.0
 40
0.0787
 50
13.0033755715798396
 51
74.3678619333692694
  0
ARC
  5
E425
  8
0
 10
762.3093679934297597
 20
71.4310074426817039
 30
0.0
 40
1.99808336759087
 50
75.2071663221538529
 51
83.935461691800441
  0
LINE
  5
E426
  8
0
 10
763.5253354458916419
 20
72.1173544892479583
 30
0.0
 11
762.8195282888189013
 21
71.9198627629605483
 31
0.0
  0
LINE
  5
E427
  8
0
 10
763.5808108224343869
 20
72.1754353344218487
 30
0.0
 11
763.5911261772514536
 21
72.2201040382941244
 31
0.0
  0
ARC
  5
E428
  8
0
 10
763.5041289414764378
 20
72.1931435001301054
 30
0.0
 40
0.0787
 50
285.6321380666307164
 51
346.9966244284202048
  0
ARC
  5
E429
  8
0
 10
762.3093679934297597
 20
73.8517203190065459
 30
0.0
 40
1.99808336759087
 50
276.0645382901727771
 51
284.792833677846204
  0
LINE
  5
E42A
  8
0
 10
764.4240317035653334
 20
73.2122300225941132
 30
0.0
 11
764.4240317035653334
 21
72.0704977390941224
 31
0.0
  0
LINE
  5
E42B
  8
0
 10
763.6366301286650469
 20
73.2122300225441336
 30
0.0
 11
764.4240317035653334
 21
73.2122300225441336
 31
0.0
  0
LINE
  5
E42C
  8
0
 10
763.6760002074649947
 20
73.2122300225441336
 30
0.0
 11
763.6760002074649947
 21
73.1135456324441293
 31
0.0
  0
LINE
  5
E42D
  8
0
 10
763.6760002074649947
 20
73.1135456324441293
 30
0.0
 11
764.3846616247652719
 21
73.1135456324441293
 31
0.0
  0
LINE
  5
E42E
  8
0
 10
764.3846616247652719
 20
73.1135456324441293
 30
0.0
 11
764.3846616247652719
 21
73.2122300225441336
 31
0.0
  0
LINE
  5
E42F
  8
0
 10
763.6366301286650469
 20
73.2122300225441336
 30
0.0
 11
763.6366301286650469
 21
72.0704977391441162
 31
0.0
  0
LINE
  5
E430
  8
0
 10
763.6366301286650469
 20
72.0704977391441162
 30
0.0
 11
764.4240317035653334
 21
72.0704977391441162
 31
0.0
  0
LINE
  5
E431
  8
0
 10
764.3846616247652719
 20
72.0704977391441162
 30
0.0
 11
764.3846616247652719
 21
72.1691821292441205
 31
0.0
  0
LINE
  5
E432
  8
0
 10
764.3846616247652719
 20
72.1691821292441205
 30
0.0
 11
763.6760002074649947
 21
72.1691821292441205
 31
0.0
  0
LINE
  5
E433
  8
0
 10
763.6760002074649947
 20
72.1691821292441205
 30
0.0
 11
763.6760002074649947
 21
72.0704977391441162
 31
0.0
  0
ARC
  5
E434
  8
0
 10
764.0992285527261174
 20
72.926796951744123
 30
0.0
 40
0.4625984240956238
 50
156.1906237166307108
 51
203.8093762833692892
  0
ARC
  5
E435
  8
0
 10
764.0992285529634955
 20
72.3559308099941347
 30
0.0
 40
0.4625984243329731
 50
156.1906237228299119
 51
203.8093762771700028
  0
ARC
  5
E436
  8
0
 10
763.9614332794460552
 20
72.9267969517338202
 30
0.0
 40
0.4625984240956238
 50
336.1906237252151755
 51
23.809376291917669
  0
ARC
  5
E437
  8
0
 10
763.9614332792940559
 20
72.3559308099838034
 30
0.0
 40
0.4625984243329731
 50
336.1906237314182135
 51
23.8093762857150004
  0
LINE
  5
E438
  8
0
 10
763.6760002074649947
 20
72.5426794907441206
 30
0.0
 11
763.6760002074649947
 21
72.7400482710441167
 31
0.0
  0
LINE
  5
E439
  8
0
 10
763.6760002074649947
 20
72.7400482710441167
 30
0.0
 11
764.3846616247126349
 21
72.7400482710441167
 31
0.0
  0
LINE
  5
E43A
  8
0
 10
764.3846616247126349
 20
72.7400482710441167
 30
0.0
 11
764.3846616247652719
 21
72.5426794907970987
 31
0.0
  0
LINE
  5
E43B
  8
0
 10
764.3846616247652719
 20
72.5426794907970987
 30
0.0
 11
763.6760002074649947
 21
72.5426794907970987
 31
0.0
  0
LINE
  5
E43C
  8
0
 10
763.5578899712652401
 20
72.2201040383441182
 30
0.0
 11
763.6366301286650469
 21
72.2201040383441182
 31
0.0
  0
LINE
  5
E43D
  8
0
 10
761.9200946957150791
 20
120.8500237233440942
 30
0.0
 11
761.9200946957150791
 21
106.8342772666114939
 31
0.0
  0
LINE
  5
E43E
  8
0
 10
762.7074962705153212
 20
106.8342772666114939
 30
0.0
 11
762.7074962705153212
 21
120.8500252981441037
 31
0.0
  0
LINE
  5
E43F
  8
0
 10
762.0945928110656951
 20
106.8342772666114939
 30
0.0
 11
762.0945935824645403
 21
106.3618363218093066
 31
0.0
  0
LINE
  5
E440
  8
0
 10
762.5329988044646825
 20
106.3618363219998031
 30
0.0
 11
762.5329978392652492
 21
106.8342772666114939
 31
0.0
  0
LINE
  5
E441
  8
0
 10
761.8216694988648214
 20
105.0429386840093002
 30
0.0
 11
761.8216694988648214
 21
99.5690915969354506
 31
0.0
  0
LINE
  5
E442
  8
0
 10
762.8059214673646693
 20
97.857618041620384
 30
0.0
 11
762.8059214673646693
 21
105.0429386840093002
 31
0.0
  0
LINE
  5
E443
  8
0
 10
761.821669498764777
 20
96.4800522415191892
 30
0.0
 11
761.821669498764777
 21
75.7712851406941184
 31
0.0
  0
LINE
  5
E444
  8
0
 10
761.821669498764777
 20
75.7712851406941184
 30
0.0
 11
762.8059214672646249
 21
75.7712851406941184
 31
0.0
  0
LINE
  5
E445
  8
0
 10
762.8059214672646249
 20
75.7712851406941184
 30
0.0
 11
762.8059214673628503
 21
94.9537885074586967
 31
0.0
  0
LINE
  5
E446
  8
0
 10
761.821669498764777
 20
75.720104038344104
 30
0.0
 11
761.821669498764777
 21
75.1216788413941288
 31
0.0
  0
LINE
  5
E447
  8
0
 10
761.821669498764777
 20
75.1216788413941288
 30
0.0
 11
762.8059178688650945
 21
75.1216788413941288
 31
0.0
  0
LINE
  5
E448
  8
0
 10
762.8059178688650945
 20
75.1216788413941288
 30
0.0
 11
762.8059214672646249
 21
75.720104038344104
 31
0.0
  0
LINE
  5
E449
  8
0
 10
761.6248191050650576
 20
75.0626237233441316
 30
0.0
 11
761.6248191050650576
 21
74.5035686052441122
 31
0.0
  0
LINE
  5
E44A
  8
0
 10
761.6445099577647397
 20
74.4838835658941605
 30
0.0
 11
762.9830868215647115
 21
74.4838835658941605
 31
0.0
  0
LINE
  5
E44B
  8
0
 10
761.6445041444646904
 20
75.0823087626941401
 30
0.0
 11
762.9830868215647115
 21
75.0823087626941401
 31
0.0
  0
LINE
  5
E44C
  8
0
 10
763.0027718609651401
 20
75.0626237233441316
 30
0.0
 11
763.0027718609651401
 21
74.5035686052441122
 31
0.0
  0
LINE
  5
E44D
  8
0
 10
759.9614332784145745
 20
74.4307339596941517
 30
0.0
 11
763.0027661714655096
 21
74.4307339596941517
 31
0.0
  0
LINE
  5
E44E
  8
0
 10
763.0027661714655096
 20
74.4307339596941517
 30
0.0
 11
763.0027718609651401
 21
74.4504189989941381
 31
0.0
  0
LINE
  5
E44F
  8
0
 10
763.0027718609651401
 20
74.4504189989941381
 30
0.0
 11
761.6248247946648462
 21
74.4504189989941381
 31
0.0
  0
LINE
  5
E450
  8
0
 10
761.6248247946648462
 20
74.4504189989941381
 30
0.0
 11
761.6248191050650576
 21
74.4307339596941517
 31
0.0
  0
LINE
  5
E451
  8
0
 10
761.6838742231655033
 20
74.48388356594117
 30
0.0
 11
761.6838742231655033
 21
74.4504189989441159
 31
0.0
  0
LINE
  5
E452
  8
0
 10
762.9437167428648081
 20
74.4838835658470657
 30
0.0
 11
762.9437167428648081
 21
74.4504189989441159
 31
0.0
  0
LINE
  5
E453
  8
0
 10
759.9515907586653611
 20
74.4208914399441142
 30
0.0
 11
759.9515907586653611
 21
73.8500252981441037
 31
0.0
  0
LINE
  5
E454
  8
0
 10
759.9614396963650051
 20
73.840170701554996
 30
0.0
 11
763.0027718609651401
 21
73.840170701554996
 31
0.0
  0
LINE
  5
E455
  8
0
 10
763.0027718609651401
 20
73.840170701554996
 30
0.0
 11
763.0027718609651401
 21
73.4459891651441126
 31
0.0
  0
LINE
  5
E456
  8
0
 10
761.6260976127221056
 20
73.8401827784460352
 30
0.0
 11
761.6259448842654365
 21
73.8106552194441292
 31
0.0
  0
LINE
  5
E457
  8
0
 10
763.0027326609904321
 20
73.8106552194441292
 30
0.0
 11
761.6248191050650576
 21
73.8106552194441292
 31
0.0
  0
LINE
  5
E458
  8
0
 10
761.6248191050650576
 20
73.8106552194441292
 30
0.0
 11
761.6248191050650576
 21
73.6059308099441125
 31
0.0
  0
LINE
  5
E459
  8
0
 10
763.0027718609651401
 20
74.4208914399441142
 30
0.0
 11
763.0027718609651401
 21
73.8500252981441037
 31
0.0
  0
ARC
  5
E45A
  8
0
 10
762.9930051219940879
 20
73.8499375407957643
 30
0.0
 40
0.0097671332270165
 50
269.5554520022300835
 51
0.514807489607334
  0
ARC
  5
E45B
  8
0
 10
761.649694053099438
 20
73.8499276610652373
 30
0.0
 40
0.0097578361258914
 50
179.4266878613580047
 51
269.2319867265350126
  0
ARC
  5
E45C
  8
0
 10
761.6496733051496903
 20
74.420997405222721
 30
0.0
 40
0.0097371762874938
 50
90.6475478426867056
 51
180.6235363213959033
  0
LINE
  5
E45D
  8
0
 10
761.6399367054651748
 20
74.4208914399441142
 30
0.0
 11
761.6399367054651748
 21
73.8500252981441037
 31
0.0
  0
ARC
  5
E45E
  8
0
 10
761.6445041458443939
 20
74.5035686058154454
 30
0.0
 40
0.0196850407792653
 50
180.0000016628953006
 51
270.0169163243227786
  0
ARC
  5
E45F
  8
0
 10
762.983086821650204
 20
74.503568605208585
 30
0.0
 40
0.019685039314453
 50
269.9999997509132186
 51
0.0000001034371342
  0
ARC
  5
E460
  8
0
 10
762.9929293411794333
 20
74.4208914399087575
 30
0.0
 40
0.0098425197853942
 50
0.0000002059436127
 51
89.9999995029728552
  0
ARC
  5
E461
  8
0
 10
762.983086821650204
 20
75.0626237233794598
 30
0.0
 40
0.0196850393146591
 50
359.9999998971417767
 51
90.0000002484614754
  0
ARC
  5
E462
  8
0
 10
761.6445041443799937
 20
75.0626237233794882
 30
0.0
 40
0.0196850393146342
 50
89.9999997515385246
 51
180.0000001029200973
  0
LINE
  5
E463
  8
0
 10
761.9012954830647004
 20
75.1216788413941288
 30
0.0
 11
761.9012954830647004
 21
75.0823087626941401
 31
0.0
  0
LINE
  5
E464
  8
0
 10
762.1200582647650208
 20
75.1216788413941288
 30
0.0
 11
762.1200582647650208
 21
75.0823087626941401
 31
0.0
  0
LINE
  5
E465
  8
0
 10
762.507532701365335
 20
75.1216788413941288
 30
0.0
 11
762.507532701365335
 21
75.0823087626941401
 31
0.0
  0
LINE
  5
E466
  8
0
 10
762.7262954830646322
 20
75.1216788413941288
 30
0.0
 11
762.7262954830646322
 21
75.0823087626941401
 31
0.0
  0
LINE
  5
E467
  8
0
 10
762.176000207464881
 20
75.1216788414441226
 30
0.0
 11
762.176000207464881
 21
75.5941197863732839
 31
0.0
  0
LINE
  5
E468
  8
0
 10
762.4515907586652474
 20
75.1216788414441226
 30
0.0
 11
762.4515907586652474
 21
75.5941197863441232
 31
0.0
  0
LINE
  5
E469
  8
0
 10
762.4515907586652474
 20
75.5941197863441232
 30
0.0
 11
762.176000207464881
 21
75.5941197863732839
 31
0.0
  0
ARC
  5
E46A
  8
0
 10
762.3137954830650642
 20
75.1216788414441226
 30
0.0
 40
0.4921259842999911
 50
73.7397952921917437
 51
106.260204707808299
  0
ARC
  5
E46B
  8
0
 10
761.8413545380850564
 20
75.72010403837713
 30
0.0
 40
0.0196850393203287
 50
89.9989452484855121
 51
180.0000000960542081
  0
ARC
  5
E46C
  8
0
 10
762.7862364279505982
 20
75.7201040383794606
 30
0.0
 40
0.0196850393146377
 50
359.9999998971726995
 51
90.0000002484614754
  0
LINE
  5
E46D
  8
0
 10
762.7862364278651057
 20
75.7397890776941267
 30
0.0
 11
761.8413549004651486
 21
75.7397890776941267
 31
0.0
  0
LINE
  5
E46E
  8
0
 10
762.6287561129654478
 20
75.7712851406941184
 30
0.0
 11
762.6287561129654478
 21
75.7397890776941267
 31
0.0
  0
LINE
  5
E46F
  8
0
 10
761.99883485306475
 20
75.7712851406941184
 30
0.0
 11
761.99883485306475
 21
75.7397890776941267
 31
0.0
  0
LINE
  5
E470
  8
0
 10
765.0090689568147582
 20
73.8649192892316648
 30
0.0
 11
765.0090689568647804
 21
71.4178084721801554
 31
0.0
  0
ARC
  5
E471
  8
0
 10
758.0224575703975916
 20
73.3401666082204144
 30
0.0
 40
0.0393707488336945
 50
100.018999844198305
 51
179.9994957082147948
  0
ARC
  5
E472
  8
0
 10
758.5736380018239515
 20
70.279159162702058
 30
0.0
 40
3.1496062928920661
 50
89.9999999846796044
 51
100.2052259791223037
  0
ARC
  5
E473
  8
0
 10
760.543506556914167
 20
72.8028450869481389
 30
0.0
 40
2.5604197369237318
 50
180.0020091836063898
 51
187.5267104601871893
  0
ARC
  5
E474
  8
0
 10
758.2768663945578282
 20
72.5029075253761448
 30
0.0
 40
0.2740211985534785
 50
187.4326692711520934
 51
253.8473432298943919
  0
ARC
  5
E475
  8
0
 10
758.1999586448788477
 20
72.256823852869104
 30
0.0
 40
0.017133564456381
 50
272.2602739702501822
 51
281.3562849761360098
  0
ARC
  5
E476
  8
0
 10
758.3338162774878128
 20
71.694891880079922
 30
0.0
 40
0.5605327470186499
 50
99.1914551309777863
 51
103.4611190843421014
  0
ARC
  5
E477
  8
0
 10
758.3430581168847766
 20
71.6437117022772156
 30
0.0
 40
0.6125327455907278
 50
93.0990963283236255
 51
99.2801272875571215
  0
ARC
  5
E478
  8
0
 10
757.9082864508998227
 20
76.2511731996833646
 30
0.0
 40
4.0159608721832871
 50
275.740033417224879
 51
279.5656354315989915
  0
ARC
  5
E479
  8
0
 10
758.7103994135801486
 20
71.7227463480081155
 30
0.0
 40
0.5840614326691363
 50
73.6480354841202285
 51
103.3391229921609948
  0
ARC
  5
E47A
  8
0
 10
759.6320489725210336
 20
74.733693308536985
 30
0.0
 40
2.5648345379946509
 50
252.8287053428196884
 51
256.6290419120895763
  0
ARC
  5
E47B
  8
0
 10
759.1106245505168317
 20
72.6135433770468524
 30
0.0
 40
0.3819514489486717
 50
259.1793370175150244
 51
269.6706333243017752
  0
ARC
  5
E47C
  8
0
 10
758.9234398434580271
 20
66.0438002635740418
 30
0.0
 40
6.1905625541172862
 50
87.798226344108528
 51
88.2876079053589251
  0
LINE
  5
E47D
  8
0
 10
759.2080276050653538
 20
72.2279780540441152
 30
0.0
 11
761.2674777786565983
 21
72.2279780540441152
 31
0.0
  0
ARC
  5
E47E
  8
0
 10
758.8203356522815284
 20
62.8413018742324709
 30
0.0
 40
9.3946790660935591
 50
87.6348928925268638
 51
87.9202495044366401
  0
ARC
  5
E47F
  8
0
 10
761.2289815221745357
 20
71.2869384328904516
 30
0.0
 40
0.9418266987363685
 50
57.0003725469476379
 51
87.6574376855259345
  0
LINE
  5
E480
  8
0
 10
758.5736380026653478
 20
73.4287654555941458
 30
0.0
 11
761.4476537507649709
 21
73.4287654555941458
 31
0.0
  0
LINE
  5
E481
  8
0
 10
757.9830868217102307
 20
72.8027553013617705
 30
0.0
 11
757.9830868215647115
 21
73.3401669547442339
 31
0.0
  0
LINE
  5
E482
  8
0
 10
758.5730922002645684
 20
73.3760187360441307
 30
0.0
 11
761.3078664290485449
 21
73.3736445677157292
 31
0.0
  0
ARC
  5
E483
  8
0
 10
761.1302207227552117
 20
96.1550369485325263
 30
0.0
 40
22.7820831412077212
 50
270.4460663084054772
 51
272.2456976876471231
  0
ARC
  5
E484
  8
0
 10
758.5688760546250933
 20
68.5726786031465281
 30
0.0
 40
4.803341983264235
 50
89.9497084773890094
 51
97.0049165397680042
  0
ARC
  5
E485
  8
0
 10
761.4476537506268414
 20
73.6059308100320493
 30
0.0
 40
0.1771653544379212
 50
270.0000000446062813
 51
359.999999971566524
  0
ARC
  5
E486
  8
0
 10
763.1799372152652268
 20
73.4459891651441126
 30
0.0
 40
0.17716535429998
 50
179.9999999999984084
 51
254.3409296732864959
  0
LINE
  5
E487
  8
0
 10
761.8413545382152279
 20
71.9913388089559589
 30
0.0
 11
761.8413545382152279
 21
71.7299465580941558
 31
0.0
  0
LINE
  5
E488
  8
0
 10
761.8413545382152279
 20
71.7299465580941558
 30
0.0
 11
761.8511970579154422
 21
71.7201040383941404
 31
0.0
  0
LINE
  5
E489
  8
0
 10
761.8511970579154422
 20
71.7201040383941404
 30
0.0
 11
762.7763939083148443
 21
71.7201040383941404
 31
0.0
  0
LINE
  5
E48A
  8
0
 10
762.7763939083148443
 20
71.7201040383941404
 30
0.0
 11
762.7862364280151724
 21
71.7299465580941558
 31
0.0
  0
LINE
  5
E48B
  8
0
 10
762.7862364280151724
 20
71.7299465580941558
 30
0.0
 11
762.7862364280151724
 21
71.911376627816793
 31
0.0
  0
ARC
  5
E48C
  8
0
 10
759.961433278706636
 20
74.4208914396526495
 30
0.0
 40
0.0098425200415058
 50
90.0000016968125891
 51
179.9999983032078035
  0
ARC
  5
E48D
  8
0
 10
759.9614539132560367
 20
73.850033849607243
 30
0.0
 40
0.0098631582984915
 50
180.0496760564016085
 51
269.917413050567518
  0
LINE
  5
E48E
  8
0
 10
761.8413545382152279
 20
71.7299465580941558
 30
0.0
 11
762.7862364280151724
 21
71.7299465580941558
 31
0.0
  0
ARC
  5
E48F
  8
0
 10
746.1917482389686711
 20
119.086556076013693
 30
0.0
 40
0.0196850394961601
 50
0.0000000882364238
 51
69.9999988948571286
  0
ARC
  5
E490
  8
0
 10
746.1917482390651912
 20
118.9590095285441009
 30
0.0
 40
0.0196850393999891
 50
316.4847259471665097
 51
0.0000000000097707
  0
ARC
  5
E491
  8
0
 10
746.5657639831813412
 20
118.6038922942708069
 30
0.0
 40
0.4960629871997393
 50
136.4847257043714137
 51
151.5531721402720962
  0
ARC
  5
E492
  8
0
 10
743.3403543990605158
 20
119.022782804545102
 30
0.0
 40
2.8717870676497839
 50
358.7275379892869864
 51
1.272461920869935
  0
ARC
  5
E493
  8
0
 10
742.5857263081468318
 20
118.0054670946072974
 30
0.0
 40
0.0157480313368412
 50
89.9999997473696993
 51
181.0000007993679105
  0
ARC
  5
E494
  8
0
 10
742.6359807852011272
 20
117.6078292991093974
 30
0.0
 40
0.0590551180653266
 50
181.0000000415936938
 51
270.0000001107862886
  0
LINE
  5
E495
  8
0
 10
742.5699806753151506
 20
118.0051922533441058
 30
0.0
 11
742.5769346615148834
 21
117.6067986452205929
 31
0.0
  0
ARC
  5
E496
  8
0
 10
746.9397797351609825
 20
119.086556076013693
 30
0.0
 40
0.0196850394962522
 50
110.0000011055309983
 51
179.9999999116602112
  0
ARC
  5
E497
  8
0
 10
746.9397797350644623
 20
118.9590095285441009
 30
0.0
 40
0.0196850393999891
 50
179.9999999999901945
 51
223.5152740528334903
  0
ARC
  5
E498
  8
0
 10
746.5657639870648836
 20
118.6038922912441933
 30
0.0
 40
0.496062992099808
 50
28.4368901582472411
 51
43.5152742403056507
  0
ARC
  5
E499
  8
0
 10
749.7911735750692515
 20
119.022782804545102
 30
0.0
 40
2.8717870676497839
 50
178.7275380791301131
 51
181.2724620107128999
  0
LINE
  5
E49A
  8
0
 10
750.5458016659147233
 20
118.0212151259440958
 30
0.0
 11
742.5857263082168629
 21
118.0212151259440958
 31
0.0
  0
LINE
  5
E49B
  8
0
 10
746.0933235645650257
 20
119.9445134870431957
 30
0.0
 11
747.0382044095647416
 21
119.9445134870441052
 31
0.0
  0
LINE
  5
E49C
  8
0
 10
746.1984809193552337
 20
119.1050539622384008
 30
0.0
 11
746.9330470547745335
 21
119.1050539622384008
 31
0.0
  0
LINE
  5
E49D
  8
0
 10
746.2114332783645523
 20
118.9590095285441009
 30
0.0
 11
746.9200946956649432
 21
118.9590095285441009
 31
0.0
  0
LINE
  5
E49E
  8
0
 10
746.0933235645650257
 20
119.9445134870441052
 30
0.0
 11
746.0933230421649114
 21
119.6295528572440929
 31
0.0
  0
LINE
  5
E49F
  8
0
 10
746.0933230421649114
 20
119.6295528572440929
 30
0.0
 11
746.1326931209647455
 21
119.6295528572440929
 31
0.0
  0
LINE
  5
E4A0
  8
0
 10
746.1326931209647455
 20
119.6295528572440929
 30
0.0
 11
746.1326931209647455
 21
119.1289987626441018
 31
0.0
  0
LINE
  5
E4A1
  8
0
 10
746.1326931209647455
 20
119.1289987626441018
 30
0.0
 11
746.1984809193552337
 21
119.1050539622384008
 31
0.0
  0
LINE
  5
E4A2
  8
0
 10
747.0382044095647416
 20
119.9445134870441052
 30
0.0
 11
747.0382044095647416
 21
119.6295528572440929
 31
0.0
  0
LINE
  5
E4A3
  8
0
 10
747.0382044095647416
 20
119.6295528572440929
 30
0.0
 11
746.9988348531649081
 21
119.6295528572440929
 31
0.0
  0
LINE
  5
E4A4
  8
0
 10
746.9988348531649081
 20
119.6295528572440929
 30
0.0
 11
746.9988348531649081
 21
119.1290046291441058
 31
0.0
  0
LINE
  5
E4A5
  8
0
 10
746.9988348531649081
 20
119.1290046291441058
 30
0.0
 11
746.9330470547745335
 21
119.1050539622384008
 31
0.0
  0
LINE
  5
E4A6
  8
0
 10
746.1326931209647455
 20
119.1386140261440971
 30
0.0
 11
746.9988348531649081
 21
119.1386140261440971
 31
0.0
  0
ARC
  5
E4A7
  8
0
 10
745.9116191354612511
 20
118.7731836299359003
 30
0.0
 40
0.0590551180082231
 50
89.9999993830151368
 51
175.5518357766096926
  0
ARC
  5
E4A8
  8
0
 10
757.9775303861913471
 20
117.8345973236175013
 30
0.0
 40
12.1614168116983699
 50
175.5520169845009093
 51
179.0651055458127985
  0
LINE
  5
E4A9
  8
0
 10
745.7665513884974189
 20
118.0212151259440958
 30
0.0
 11
745.7783624119972501
 21
118.0330261495440993
 31
0.0
  0
ARC
  5
E4AA
  8
0
 10
747.2199088381328238
 20
118.7731836299359003
 30
0.0
 40
0.0590551180082231
 50
4.4481642233902221
 51
90.0000006169848632
  0
ARC
  5
E4AB
  8
0
 10
735.1539975874027277
 20
117.8345973236175013
 30
0.0
 40
12.1614168116983699
 50
0.9348944541871402
 51
4.4479830154990623
  0
LINE
  5
E4AC
  8
0
 10
747.364976585096656
 20
118.0212151259440958
 30
0.0
 11
747.3531655615968248
 21
118.0330261495440993
 31
0.0
  0
LINE
  5
E4AD
  8
0
 10
745.9116191360968742
 20
118.8322387479441034
 30
0.0
 11
747.2199088381328238
 21
118.8322387479441034
 31
0.0
  0
LINE
  5
E4AE
  8
0
 10
745.7783624119972501
 20
118.0330261495440993
 30
0.0
 11
747.3531655615968248
 21
118.0330261495440993
 31
0.0
  0
LINE
  5
E4AF
  8
0
 10
746.0382049320147644
 20
118.8322387479441034
 30
0.0
 11
746.0382049320147644
 21
118.8401127637441022
 31
0.0
  0
LINE
  5
E4B0
  8
0
 10
746.0382049320147644
 20
118.8401127637441022
 30
0.0
 11
747.0927939251148473
 21
118.8401127637441022
 31
0.0
  0
LINE
  5
E4B1
  8
0
 10
747.0927939251148473
 20
118.8401127637441022
 30
0.0
 11
747.0927939251148473
 21
118.8322387479441034
 31
0.0
  0
ARC
  5
E4B2
  8
0
 10
750.5458016659147233
 20
118.0054670944441
 30
0.0
 40
0.0157480314999616
 50
358.9999998045535108
 51
90.0000000009379733
  0
ARC
  5
E4B3
  8
0
 10
750.4955471641449094
 20
117.6078293097859984
 30
0.0
 40
0.0590551430516946
 50
269.9601135469924884
 51
358.9999900960098103
  0
LINE
  5
E4B4
  8
0
 10
750.5615472989127284
 20
118.0051922533441058
 30
0.0
 11
750.5545933126356886
 21
117.606798645297502
 31
0.0
  0
LINE
  5
E4B5
  8
0
  6
CONTINUOUS
 62
     7
 10
746.6198662023150519
 20
117.4964972275440971
 30
0.0
 11
746.6272132489464184
 21
117.5487741810440951
 31
0.0
  0
LINE
  5
E4B6
  8
0
  6
CONTINUOUS
 62
     7
 10
746.5116617719146461
 20
117.4964972275440971
 30
0.0
 11
746.5043147251660685
 21
117.5487741810440951
 31
0.0
  0
LINE
  5
E4B7
  8
0
  6
CONTINUOUS
 62
     7
 10
746.5194601131148602
 20
117.4897190629441042
 30
0.0
 11
746.6120688159151086
 21
117.4897190629441042
 31
0.0
  0
LINE
  5
E4B8
  8
0
  6
CONTINUOUS
 62
     7
 10
742.6359807853148141
 20
117.5487741810440951
 30
0.0
 11
750.4955060529143793
 21
117.5487741810440951
 31
0.0
  0
ARC
  5
E4B9
  8
0
  6
CONTINUOUS
 62
     7
 10
746.6120688158631538
 20
117.497593078781307
 30
0.0
 40
0.0078740158372241
 50
270.0000003732653795
 51
351.9999997343638256
  0
ARC
  5
E4BA
  8
0
  6
CONTINUOUS
 62
     7
 10
746.519459158325617
 20
117.4975930787041989
 30
0.0
 40
0.0078740158179833
 50
188.0000003210192858
 51
270.0069475854604093
  0
CIRCLE
  5
E4BB
  8
0
 10
746.565891774714828
 20
119.0193166367440938
 30
0.0
 40
0.0236220472
  0
LINE
  5
E4BC
  8
0
  6
CONTINUOUS
 62
     7
 10
747.2951694450646301
 20
117.4964972275440971
 30
0.0
 11
747.3025164916967924
 21
117.5487741810440951
 31
0.0
  0
LINE
  5
E4BD
  8
0
  6
CONTINUOUS
 62
     7
 10
747.1869650146652475
 20
117.4964972275440971
 30
0.0
 11
747.1796179679156467
 21
117.5487741810440951
 31
0.0
  0
LINE
  5
E4BE
  8
0
  6
CONTINUOUS
 62
     7
 10
747.0820460353149883
 20
117.4897190629441042
 30
0.0
 11
747.2873720586646868
 21
117.4897190629441042
 31
0.0
  0
ARC
  5
E4BF
  8
0
  6
CONTINUOUS
 62
     7
 10
747.2873720586137551
 20
117.497593078781307
 30
0.0
 40
0.0078740158372241
 50
270.0000003732653795
 51
351.9999997343638256
  0
ARC
  5
E4C0
  8
0
  6
CONTINUOUS
 62
     7
 10
747.1947624010761047
 20
117.4975930787041989
 30
0.0
 40
0.0078740158179833
 50
188.0000003210192858
 51
270.0069475854604093
  0
LINE
  5
E4C1
  8
0
  6
CONTINUOUS
 62
     7
 10
747.7450241158145445
 20
117.4964972275440971
 30
0.0
 11
747.7523711624469342
 21
117.5487741810440951
 31
0.0
  0
LINE
  5
E4C2
  8
0
  6
CONTINUOUS
 62
     7
 10
747.6368196854152757
 20
117.4964972275440971
 30
0.0
 11
747.6294726386655611
 21
117.5487741810440951
 31
0.0
  0
LINE
  5
E4C3
  8
0
  6
CONTINUOUS
 62
     7
 10
747.6446180266145802
 20
117.4897190629441042
 30
0.0
 11
747.737226729414715
 21
117.4897190629441042
 31
0.0
  0
ARC
  5
E4C4
  8
0
  6
CONTINUOUS
 62
     7
 10
747.7372267293636696
 20
117.497593078781307
 30
0.0
 40
0.0078740158372241
 50
270.0000003732653795
 51
351.9999997343638256
  0
ARC
  5
E4C5
  8
0
  6
CONTINUOUS
 62
     7
 10
747.6446170718261328
 20
117.4975930787041989
 30
0.0
 40
0.0078740158179833
 50
188.0000003210192858
 51
270.0069475854604093
  0
LINE
  5
E4C6
  8
0
  6
CONTINUOUS
 62
     7
 10
748.3075980573146353
 20
117.4964972275440971
 30
0.0
 11
748.3149451039467976
 21
117.5487741810440951
 31
0.0
  0
LINE
  5
E4C7
  8
0
  6
CONTINUOUS
 62
     7
 10
748.1993936269152528
 20
117.4964972275440971
 30
0.0
 11
748.1920465801656519
 21
117.5487741810440951
 31
0.0
  0
LINE
  5
E4C8
  8
0
  6
CONTINUOUS
 62
     7
 10
748.2071919681153531
 20
117.4897190629441042
 30
0.0
 11
748.2998006709146921
 21
117.4897190629441042
 31
0.0
  0
ARC
  5
E4C9
  8
0
  6
CONTINUOUS
 62
     7
 10
748.2998006708636467
 20
117.497593078781307
 30
0.0
 40
0.0078740158372241
 50
270.0000003732653795
 51
351.9999997343638256
  0
ARC
  5
E4CA
  8
0
  6
CONTINUOUS
 62
     7
 10
748.2071910133261099
 20
117.4975930787041989
 30
0.0
 40
0.0078740158179833
 50
188.0000003210192858
 51
270.0069475854604093
  0
LINE
  5
E4CB
  8
0
  6
CONTINUOUS
 62
     7
 10
748.8701752309649464
 20
117.4964972275440971
 30
0.0
 11
748.8775222775964266
 21
117.5487741810440951
 31
0.0
  0
LINE
  5
E4CC
  8
0
  6
CONTINUOUS
 62
     7
 10
748.7619708005646544
 20
117.4964972275440971
 30
0.0
 11
748.754623753815963
 21
117.5487741810440951
 31
0.0
  0
LINE
  5
E4CD
  8
0
  6
CONTINUOUS
 62
     7
 10
748.7697691417649821
 20
117.4897190629441042
 30
0.0
 11
748.8623778445651169
 21
117.4897190629441042
 31
0.0
  0
ARC
  5
E4CE
  8
0
  6
CONTINUOUS
 62
     7
 10
748.862377844513162
 20
117.497593078781307
 30
0.0
 40
0.0078740158372241
 50
270.0000003732653795
 51
351.9999997343638256
  0
ARC
  5
E4CF
  8
0
  6
CONTINUOUS
 62
     7
 10
748.7697681869756252
 20
117.4975930787041989
 30
0.0
 40
0.0078740158179833
 50
188.0000003210192858
 51
270.0069475854604093
  0
LINE
  5
E4D0
  8
0
  6
CONTINUOUS
 62
     7
 10
749.0336235241644545
 20
117.4964972275440971
 30
0.0
 11
749.0409705707968442
 21
117.5487741810440951
 31
0.0
  0
LINE
  5
E4D1
  8
0
  6
CONTINUOUS
 62
     7
 10
748.9254190937651856
 20
117.4964972275440971
 30
0.0
 11
748.9180720470154711
 21
117.5487741810440951
 31
0.0
  0
LINE
  5
E4D2
  8
0
  6
CONTINUOUS
 62
     7
 10
748.933217434965286
 20
117.4897190629441042
 30
0.0
 11
749.2104940127153441
 21
117.4897190629441042
 31
0.0
  0
ARC
  5
E4D3
  8
0
  6
CONTINUOUS
 62
     7
 10
749.0258261377135796
 20
117.497593078781307
 30
0.0
 40
0.0078740158372241
 50
270.0000003732653795
 51
351.9999997343638256
  0
ARC
  5
E4D4
  8
0
  6
CONTINUOUS
 62
     7
 10
748.9332164801760428
 20
117.4975930787041989
 30
0.0
 40
0.0078740158179833
 50
188.0000003210192858
 51
270.0069475854604093
  0
LINE
  5
E4D5
  8
0
  6
CONTINUOUS
 62
     7
 10
749.1297517301652533
 20
117.4964972275440971
 30
0.0
 11
749.1370987767965062
 21
117.5487741810440951
 31
0.0
  0
ARC
  5
E4D6
  8
0
  6
CONTINUOUS
 62
     7
 10
749.1219543437133552
 20
117.497593078781307
 30
0.0
 40
0.0078740158372241
 50
270.0000003732653795
 51
351.9999997343638256
  0
LINE
  5
E4D7
  8
0
  6
CONTINUOUS
 62
     7
 10
749.2182913991151736
 20
117.4964972274440953
 30
0.0
 11
749.2256384457466538
 21
117.5487741809440934
 31
0.0
  0
ARC
  5
E4D8
  8
0
  6
CONTINUOUS
 62
     7
 10
749.2104940126635029
 20
117.4975930786813052
 30
0.0
 40
0.0078740158372241
 50
270.0000003732653795
 51
351.9999997343638256
  0
LINE
  5
E4D9
  8
0
  6
CONTINUOUS
 62
     7
 10
749.4327491725149457
 20
117.4964972275440971
 30
0.0
 11
749.4400962191464259
 21
117.5487741810440951
 31
0.0
  0
LINE
  5
E4DA
  8
0
  6
CONTINUOUS
 62
     7
 10
749.3245447421147674
 20
117.4964972275440971
 30
0.0
 11
749.317197695366076
 21
117.5487741810440951
 31
0.0
  0
LINE
  5
E4DB
  8
0
  6
CONTINUOUS
 62
     7
 10
749.3323430833148677
 20
117.4897190629441042
 30
0.0
 11
749.4249517861151162
 21
117.4897190629441042
 31
0.0
  0
ARC
  5
E4DC
  8
0
  6
CONTINUOUS
 62
     7
 10
749.4249517860631613
 20
117.497593078781307
 30
0.0
 40
0.0078740158372241
 50
270.0000003732653795
 51
351.9999997343638256
  0
ARC
  5
E4DD
  8
0
  6
CONTINUOUS
 62
     7
 10
749.3323421285256245
 20
117.4975930787041989
 30
0.0
 40
0.0078740158179833
 50
188.0000003210192858
 51
270.0069475854604093
  0
LINE
  5
E4DE
  8
0
  6
CONTINUOUS
 62
     7
 10
749.7089294314653216
 20
117.4964972275440971
 30
0.0
 11
749.7162764780965745
 21
117.5487741810440951
 31
0.0
  0
LINE
  5
E4DF
  8
0
  6
CONTINUOUS
 62
     7
 10
749.6007250010650296
 20
117.4964972275440971
 30
0.0
 11
749.5933779543154287
 21
117.5487741810440951
 31
0.0
  0
LINE
  5
E4E0
  8
0
  6
CONTINUOUS
 62
     7
 10
749.6085233422652436
 20
117.4897190629441042
 30
0.0
 11
749.7011320450653784
 21
117.4897190629441042
 31
0.0
  0
ARC
  5
E4E1
  8
0
  6
CONTINUOUS
 62
     7
 10
749.7011320450135372
 20
117.497593078781307
 30
0.0
 40
0.0078740158372241
 50
270.0000003732653795
 51
351.9999997343638256
  0
ARC
  5
E4E2
  8
0
  6
CONTINUOUS
 62
     7
 10
749.608522387475773
 20
117.4975930787041989
 30
0.0
 40
0.0078740158179833
 50
188.0000003210192858
 51
270.0069475854604093
  0
LINE
  5
E4E3
  8
0
  6
CONTINUOUS
 62
     7
 10
749.8501041645647547
 20
117.4964972275440971
 30
0.0
 11
749.8574512111961212
 21
117.5487741810440951
 31
0.0
  0
LINE
  5
E4E4
  8
0
  6
CONTINUOUS
 62
     7
 10
749.7418997341653721
 20
117.4964972275440971
 30
0.0
 11
749.7345526874156576
 21
117.5487741810440951
 31
0.0
  0
LINE
  5
E4E5
  8
0
  6
CONTINUOUS
 62
     7
 10
749.7496980753646767
 20
117.4897190629441042
 30
0.0
 11
749.8423067781648115
 21
117.4897190629441042
 31
0.0
  0
ARC
  5
E4E6
  8
0
  6
CONTINUOUS
 62
     7
 10
749.8423067781137661
 20
117.497593078781307
 30
0.0
 40
0.0078740158372241
 50
270.0000003732653795
 51
351.9999997343638256
  0
ARC
  5
E4E7
  8
0
  6
CONTINUOUS
 62
     7
 10
749.7496971205753198
 20
117.4975930787041989
 30
0.0
 40
0.0078740158179833
 50
188.0000003210192858
 51
270.0069475854604093
  0
LINE
  5
E4E8
  8
0
  6
CONTINUOUS
 62
     7
 10
743.3896272851650338
 20
117.4964972275440971
 30
0.0
 11
743.3969743317962866
 21
117.5487741810440951
 31
0.0
  0
LINE
  5
E4E9
  8
0
  6
CONTINUOUS
 62
     7
 10
743.2814228547647417
 20
117.4964972275440971
 30
0.0
 11
743.2740758080160504
 21
117.5487741810440951
 31
0.0
  0
LINE
  5
E4EA
  8
0
  6
CONTINUOUS
 62
     7
 10
743.2892211959649558
 20
117.4897190629441042
 30
0.0
 11
743.3818298987650905
 21
117.4897190629441042
 31
0.0
  0
ARC
  5
E4EB
  8
0
  6
CONTINUOUS
 62
     7
 10
743.3818298987140452
 20
117.497593078781307
 30
0.0
 40
0.0078740158372241
 50
270.0000003732653795
 51
351.9999997343638256
  0
ARC
  5
E4EC
  8
0
  6
CONTINUOUS
 62
     7
 10
743.2892202411755989
 20
117.4975930787041989
 30
0.0
 40
0.0078740158179833
 50
188.0000003210192858
 51
270.0069475854604093
  0
LINE
  5
E4ED
  8
0
  6
CONTINUOUS
 62
     7
 10
743.5308042054144835
 20
117.4964972275440971
 30
0.0
 11
743.5381512520468732
 21
117.5487741810440951
 31
0.0
  0
LINE
  5
E4EE
  8
0
  6
CONTINUOUS
 62
     7
 10
743.4225997750152146
 20
117.4964972275440971
 30
0.0
 11
743.4152527282655001
 21
117.5487741810440951
 31
0.0
  0
LINE
  5
E4EF
  8
0
  6
CONTINUOUS
 62
     7
 10
743.4303981162154287
 20
117.4897190629441042
 30
0.0
 11
743.523006819014654
 21
117.4897190629441042
 31
0.0
  0
ARC
  5
E4F0
  8
0
  6
CONTINUOUS
 62
     7
 10
743.5230068189637223
 20
117.497593078781307
 30
0.0
 40
0.0078740158372241
 50
270.0000003732653795
 51
351.9999997343638256
  0
ARC
  5
E4F1
  8
0
  6
CONTINUOUS
 62
     7
 10
743.4303971614259581
 20
117.4975930787041989
 30
0.0
 40
0.0078740158179833
 50
188.0000003210192858
 51
270.0069475854604093
  0
LINE
  5
E4F2
  8
0
  6
CONTINUOUS
 62
     7
 10
743.807011234664742
 20
117.4964972275440971
 30
0.0
 11
743.8143582812961085
 21
117.5487741810440951
 31
0.0
  0
LINE
  5
E4F3
  8
0
  6
CONTINUOUS
 62
     7
 10
743.6988068042652458
 20
117.4964972275440971
 30
0.0
 11
743.6914597575157586
 21
117.5487741810440951
 31
0.0
  0
LINE
  5
E4F4
  8
0
  6
CONTINUOUS
 62
     7
 10
743.7066051454645503
 20
117.4897190629441042
 30
0.0
 11
743.7992138482646851
 21
117.4897190629441042
 31
0.0
  0
ARC
  5
E4F5
  8
0
  6
CONTINUOUS
 62
     7
 10
743.7992138482138671
 20
117.497593078781307
 30
0.0
 40
0.0078740158372241
 50
270.0000003732653795
 51
351.9999997343638256
  0
ARC
  5
E4F6
  8
0
  6
CONTINUOUS
 62
     7
 10
743.7066041906753071
 20
117.4975930787041989
 30
0.0
 40
0.0078740158179833
 50
188.0000003210192858
 51
270.0069475854604093
  0
LINE
  5
E4F7
  8
0
  6
CONTINUOUS
 62
     7
 10
744.2061079255652203
 20
117.4964972275440971
 30
0.0
 11
744.2134549721964731
 21
117.5487741810440951
 31
0.0
  0
LINE
  5
E4F8
  8
0
  6
CONTINUOUS
 62
     7
 10
744.0979034951649282
 20
117.4964972275440971
 30
0.0
 11
744.0905564484153274
 21
117.5487741810440951
 31
0.0
  0
ARC
  5
E4F9
  8
0
  6
CONTINUOUS
 62
     7
 10
744.1983105391134359
 20
117.497593078781307
 30
0.0
 40
0.0078740158372241
 50
270.0000003732653795
 51
351.9999997343638256
  0
ARC
  5
E4FA
  8
0
  6
CONTINUOUS
 62
     7
 10
744.1057008815756717
 20
117.4975930787041989
 30
0.0
 40
0.0078740158179833
 50
188.0000003210192858
 51
270.0069475854604093
  0
LINE
  5
E4FB
  8
0
  6
CONTINUOUS
 62
     7
 10
744.3695735653651582
 20
117.4964972275440971
 30
0.0
 11
744.3769206119966384
 21
117.5487741810440951
 31
0.0
  0
LINE
  5
E4FC
  8
0
  6
CONTINUOUS
 62
     7
 10
744.2613691349649798
 20
117.4964972275440971
 30
0.0
 11
744.2540220882152653
 21
117.5487741810440951
 31
0.0
  0
LINE
  5
E4FD
  8
0
  6
CONTINUOUS
 62
     7
 10
744.2691674761650802
 20
117.4897190629441042
 30
0.0
 11
744.3617761789653287
 21
117.4897190629441042
 31
0.0
  0
ARC
  5
E4FE
  8
0
  6
CONTINUOUS
 62
     7
 10
744.3617761789133738
 20
117.497593078781307
 30
0.0
 40
0.0078740158372241
 50
270.0000003732653795
 51
351.9999997343638256
  0
ARC
  5
E4FF
  8
0
  6
CONTINUOUS
 62
     7
 10
744.269166521375837
 20
117.4975930787041989
 30
0.0
 40
0.0078740158179833
 50
188.0000003210192858
 51
270.0069475854604093
  0
LINE
  5
E500
  8
0
  6
CONTINUOUS
 62
     7
 10
744.9321623496150551
 20
117.4964972275440971
 30
0.0
 11
744.9395093962464216
 21
117.5487741810440951
 31
0.0
  0
LINE
  5
E501
  8
0
  6
CONTINUOUS
 62
     7
 10
744.8239579192146493
 20
117.4964972275440971
 30
0.0
 11
744.816610872465958
 21
117.5487741810440951
 31
0.0
  0
LINE
  5
E502
  8
0
  6
CONTINUOUS
 62
     7
 10
744.8317562604149771
 20
117.4897190629441042
 30
0.0
 11
744.9243649632151119
 21
117.4897190629441042
 31
0.0
  0
ARC
  5
E503
  8
0
  6
CONTINUOUS
 62
     7
 10
744.924364963163157
 20
117.497593078781307
 30
0.0
 40
0.0078740158372241
 50
270.0000003732653795
 51
351.9999997343638256
  0
ARC
  5
E504
  8
0
  6
CONTINUOUS
 62
     7
 10
744.8317553056256202
 20
117.4975930787041989
 30
0.0
 40
0.0078740158179833
 50
188.0000003210192858
 51
270.0069475854604093
  0
LINE
  5
E505
  8
0
  6
CONTINUOUS
 62
     7
 10
745.4947246805146506
 20
117.4964972275440971
 30
0.0
 11
745.5020717271461308
 21
117.5487741810440951
 31
0.0
  0
LINE
  5
E506
  8
0
  6
CONTINUOUS
 62
     7
 10
745.3865202501153817
 20
117.4964972275440971
 30
0.0
 11
745.3791732033656672
 21
117.5487741810440951
 31
0.0
  0
LINE
  5
E507
  8
0
  6
CONTINUOUS
 62
     7
 10
745.3943185913145726
 20
117.4897190629441042
 30
0.0
 11
745.4869272941148211
 21
117.4897190629441042
 31
0.0
  0
ARC
  5
E508
  8
0
  6
CONTINUOUS
 62
     7
 10
745.4869272940638893
 20
117.497593078781307
 30
0.0
 40
0.0078740158372241
 50
270.0000003732653795
 51
351.9999997343638256
  0
ARC
  5
E509
  8
0
  6
CONTINUOUS
 62
     7
 10
745.3943176365253294
 20
117.4975930787041989
 30
0.0
 40
0.0078740158179833
 50
188.0000003210192858
 51
270.0069475854604093
  0
LINE
  5
E50A
  8
0
  6
CONTINUOUS
 62
     7
 10
745.8363580516941056
 20
117.4964972274621005
 30
0.0
 11
745.8290110049453006
 21
117.548774180962198
 31
0.0
  0
LINE
  5
E50B
  8
0
  6
CONTINUOUS
 62
     7
 10
745.8441563928943197
 20
117.489719062862207
 30
0.0
 11
746.0494932583148966
 21
117.4897190629441042
 31
0.0
  0
ARC
  5
E50C
  8
0
  6
CONTINUOUS
 62
     7
 10
745.8441554381049627
 20
117.4975930786223017
 30
0.0
 40
0.0078740158179833
 50
188.0000003210192858
 51
270.0069475854604093
  0
LINE
  5
E50D
  8
0
  6
CONTINUOUS
 62
     7
 10
745.190568344594567
 20
117.4964972274621005
 30
0.0
 11
745.1832212978448524
 21
117.548774180962198
 31
0.0
  0
LINE
  5
E50E
  8
0
  6
CONTINUOUS
 62
     7
 10
745.1983666857946673
 20
117.489719062862207
 30
0.0
 11
745.3593693242153222
 21
117.4897190629441042
 31
0.0
  0
ARC
  5
E50F
  8
0
  6
CONTINUOUS
 62
     7
 10
745.1983657310054241
 20
117.4975930786223017
 30
0.0
 40
0.0078740158179833
 50
188.0000003210192858
 51
270.0069475854604093
  0
LINE
  5
E510
  8
0
  6
CONTINUOUS
 62
     7
 10
744.592449812294717
 20
117.4964972274621005
 30
0.0
 11
744.5851027655451162
 21
117.548774180962198
 31
0.0
  0
LINE
  5
E511
  8
0
  6
CONTINUOUS
 62
     7
 10
744.6002481534949311
 20
117.489719062862207
 30
0.0
 11
744.7747047388154442
 21
117.4897190629441042
 31
0.0
  0
ARC
  5
E512
  8
0
  6
CONTINUOUS
 62
     7
 10
744.6002471987054605
 20
117.4975930786223017
 30
0.0
 40
0.0078740158179833
 50
188.0000003210192858
 51
270.0069475854604093
  0
LINE
  5
E513
  8
0
  6
CONTINUOUS
 62
     7
 10
744.6025167595942094
 20
117.4964972274621005
 30
0.0
 11
744.595169712845518
 21
117.548774180962198
 31
0.0
  0
ARC
  5
E514
  8
0
  6
CONTINUOUS
 62
     7
 10
744.6103141460049528
 20
117.4975930786223017
 30
0.0
 40
0.0078740158179833
 50
188.0000003210192858
 51
270.0069475854604093
  0
LINE
  5
E515
  8
0
  6
CONTINUOUS
 62
     7
 10
743.9132365750944018
 20
117.4964972274621005
 30
0.0
 11
743.9058895283449147
 21
117.548774180962198
 31
0.0
  0
LINE
  5
E516
  8
0
  6
CONTINUOUS
 62
     7
 10
743.9210349162947296
 20
117.489719062862207
 30
0.0
 11
744.1983105391134359
 21
117.4897190629441042
 31
0.0
  0
ARC
  5
E517
  8
0
  6
CONTINUOUS
 62
     7
 10
743.921033961505259
 20
117.4975930786223017
 30
0.0
 40
0.0078740158179833
 50
188.0000003210192858
 51
270.0069475854604093
  0
LINE
  5
E518
  8
0
  6
CONTINUOUS
 62
     7
 10
744.0017757665970066
 20
117.4964972274440953
 30
0.0
 11
743.9944287198475195
 21
117.5487741809440934
 31
0.0
  0
ARC
  5
E519
  8
0
  6
CONTINUOUS
 62
     7
 10
744.0095731530078638
 20
117.4975930786042966
 30
0.0
 40
0.0078740158179833
 50
188.0000003210192858
 51
270.0069475854604093
  0
LINE
  5
E51A
  8
0
  6
CONTINUOUS
 62
     7
 10
747.7643384128119806
 20
117.4964972274638058
 30
0.0
 11
747.7569913660634029
 21
117.5487741809638038
 31
0.0
  0
LINE
  5
E51B
  8
0
  6
CONTINUOUS
 62
     7
 10
747.7721367540123083
 20
117.4897190628638981
 30
0.0
 11
747.8647454568124431
 21
117.4897190628638981
 31
0.0
  0
ARC
  5
E51C
  8
0
  6
CONTINUOUS
 62
     7
 10
747.7721357992229514
 20
117.497593078624007
 30
0.0
 40
0.0078740158179833
 50
188.0000003210192858
 51
270.0069475854604093
  0
LINE
  5
E51D
  8
0
  6
CONTINUOUS
 62
     7
 10
747.8108743703138543
 20
117.4964972274503054
 30
0.0
 11
747.803527323565163
 21
117.5487741809503035
 31
0.0
  0
LINE
  5
E51E
  8
0
  6
CONTINUOUS
 62
     7
 10
747.8186727115141821
 20
117.4897190628502983
 30
0.0
 11
747.9112814143142032
 21
117.4897190628502983
 31
0.0
  0
ARC
  5
E51F
  8
0
  6
CONTINUOUS
 62
     7
 10
747.8186717567248252
 20
117.497593078610393
 30
0.0
 40
0.0078740158179833
 50
188.0000003210192858
 51
270.0069475854604093
  0
LINE
  5
E520
  8
0
  6
CONTINUOUS
 62
     7
 10
747.8327551992149438
 20
117.4964972274440953
 30
0.0
 11
747.8254081524653429
 21
117.5487741809440934
 31
0.0
  0
LINE
  5
E521
  8
0
  6
CONTINUOUS
 62
     7
 10
747.8405535404150442
 20
117.4897190628441024
 30
0.0
 11
747.9331622432152926
 21
117.4897190628441024
 31
0.0
  0
ARC
  5
E522
  8
0
  6
CONTINUOUS
 62
     7
 10
747.8405525856258009
 20
117.4975930786042966
 30
0.0
 40
0.0078740158179833
 50
188.0000003210192858
 51
270.0069475854604093
  0
LINE
  5
E523
  8
0
  6
CONTINUOUS
 62
     7
 10
748.3490258490153337
 20
117.4964972274440953
 30
0.0
 11
748.3416788022657329
 21
117.5487741809440934
 31
0.0
  0
LINE
  5
E524
  8
0
  6
CONTINUOUS
 62
     7
 10
748.3568241902146383
 20
117.4897190628441024
 30
0.0
 11
748.5312208707152877
 21
117.4897190629441042
 31
0.0
  0
ARC
  5
E525
  8
0
  6
CONTINUOUS
 62
     7
 10
748.3568232354252814
 20
117.4975930786042966
 30
0.0
 40
0.0078740158179833
 50
188.0000003210192858
 51
270.0069475854604093
  0
LINE
  5
E526
  8
0
  6
CONTINUOUS
 62
     7
 10
748.4208067842143919
 20
117.4964972274501065
 30
0.0
 11
748.413459737464791
 21
117.5487741809501046
 31
0.0
  0
ARC
  5
E527
  8
0
  6
CONTINUOUS
 62
     7
 10
748.428604170625249
 20
117.4975930786101941
 30
0.0
 40
0.0078740158179833
 50
188.0000003210192858
 51
270.0069475854604093
  0
LINE
  5
E528
  8
0
  6
CONTINUOUS
 62
     7
 10
748.5290112146327601
 20
117.4964972274440953
 30
0.0
 11
748.5363582612642404
 21
117.5487741809440934
 31
0.0
  0
ARC
  5
E529
  8
0
  6
CONTINUOUS
 62
     7
 10
748.5212138281819989
 20
117.4975930786813052
 30
0.0
 40
0.0078740158372241
 50
270.0000003732653795
 51
351.9999997343638256
  0
LINE
  5
E52A
  8
0
  6
CONTINUOUS
 62
     7
 10
748.5390781619150857
 20
117.4964972274440953
 30
0.0
 11
748.5464252085464523
 21
117.5487741809440934
 31
0.0
  0
ARC
  5
E52B
  8
0
  6
CONTINUOUS
 62
     7
 10
748.5312807754633013
 20
117.4975930786813052
 30
0.0
 40
0.0078740158372241
 50
270.0000003732653795
 51
351.9999997343638256
  0
LINE
  5
E52C
  8
0
  6
CONTINUOUS
 62
     7
 10
747.9409596295323581
 20
117.4964972274440953
 30
0.0
 11
747.9483066761647478
 21
117.5487741809440934
 31
0.0
  0
ARC
  5
E52D
  8
0
  6
CONTINUOUS
 62
     7
 10
747.9331622430815969
 20
117.4975930786813052
 30
0.0
 40
0.0078740158372241
 50
270.0000003732653795
 51
351.9999997343638256
  0
LINE
  5
E52E
  8
0
  6
CONTINUOUS
 62
     7
 10
745.3671895613149445
 20
117.4964972274440953
 30
0.0
 11
745.3745366079463111
 21
117.5487741809440934
 31
0.0
  0
ARC
  5
E52F
  8
0
  6
CONTINUOUS
 62
     7
 10
745.3593921748639559
 20
117.4975930786813052
 30
0.0
 40
0.0078740158372241
 50
270.0000003732653795
 51
351.9999997343638256
  0
LINE
  5
E530
  8
0
  6
CONTINUOUS
 62
     7
 10
745.3206536038358081
 20
117.4964972274621005
 30
0.0
 11
745.328000650467061
 21
117.5487741809620985
 31
0.0
  0
ARC
  5
E531
  8
0
  6
CONTINUOUS
 62
     7
 10
745.3128562173840237
 20
117.4975930786993956
 30
0.0
 40
0.0078740158372241
 50
270.0000003732653795
 51
351.9999997343638256
  0
LINE
  5
E532
  8
0
  6
CONTINUOUS
 62
     7
 10
745.2987727750174827
 20
117.496497227464701
 30
0.0
 11
745.3061198216498724
 21
117.5487741809646991
 31
0.0
  0
ARC
  5
E533
  8
0
  6
CONTINUOUS
 62
     7
 10
745.2909753885667214
 20
117.4975930787018967
 30
0.0
 40
0.0078740158372241
 50
270.0000003732653795
 51
351.9999997343638256
  0
LINE
  5
E534
  8
0
  6
CONTINUOUS
 62
     7
 10
744.7825021251325097
 20
117.4964972274440953
 30
0.0
 11
744.7898491717648994
 21
117.5487741809440934
 31
0.0
  0
ARC
  5
E535
  8
0
  6
CONTINUOUS
 62
     7
 10
744.7747047386817485
 20
117.4975930786813052
 30
0.0
 40
0.0078740158372241
 50
270.0000003732653795
 51
351.9999997343638256
  0
LINE
  5
E536
  8
0
  6
CONTINUOUS
 62
     7
 10
744.7107211899153754
 20
117.4964972274440953
 30
0.0
 11
744.7180682365467419
 21
117.5487741809440934
 31
0.0
  0
ARC
  5
E537
  8
0
  6
CONTINUOUS
 62
     7
 10
744.702923803463591
 20
117.4975930786813052
 30
0.0
 40
0.0078740158372241
 50
270.0000003732653795
 51
351.9999997343638256
  0
LINE
  5
E538
  8
0
  6
CONTINUOUS
 62
     7
 10
746.0572906447148398
 20
117.4964972274440953
 30
0.0
 11
746.0646376913460927
 21
117.5487741809440934
 31
0.0
  0
ARC
  5
E539
  8
0
  6
CONTINUOUS
 62
     7
 10
746.0494932582639649
 20
117.4975930786813052
 30
0.0
 40
0.0078740158372241
 50
270.0000003732653795
 51
351.9999997343638256
  0
LINE
  5
E53A
  8
0
  6
CONTINUOUS
 62
     7
 10
745.9702599031177215
 20
117.4964972274630952
 30
0.0
 11
745.977606949749088
 21
117.548774180963207
 31
0.0
  0
ARC
  5
E53B
  8
0
  6
CONTINUOUS
 62
     7
 10
745.9624625166659371
 20
117.4975930787004046
 30
0.0
 40
0.0078740158372241
 50
270.0000003732653795
 51
351.9999997343638256
  0
LINE
  5
E53C
  8
0
  6
CONTINUOUS
 62
     7
 10
745.9533308836149672
 20
117.4964972274440953
 30
0.0
 11
745.9606779302464474
 21
117.5487741809440934
 31
0.0
  0
ARC
  5
E53D
  8
0
  6
CONTINUOUS
 62
     7
 10
745.9455334971631828
 20
117.4975930786813052
 30
0.0
 40
0.0078740158372241
 50
270.0000003732653795
 51
351.9999997343638256
  0
LINE
  5
E53E
  8
0
  6
CONTINUOUS
 62
     7
 10
745.9473442740352311
 20
117.4964972274621005
 30
0.0
 11
745.9546913206675072
 21
117.5487741809620985
 31
0.0
  0
ARC
  5
E53F
  8
0
  6
CONTINUOUS
 62
     7
 10
745.9395468875843562
 20
117.4975930786993956
 30
0.0
 40
0.0078740158372241
 50
270.0000003732653795
 51
351.9999997343638256
  0
LINE
  5
E540
  8
0
  6
CONTINUOUS
 62
     7
 10
745.9445624821162255
 20
117.496497227450007
 30
0.0
 11
745.9519095287474784
 21
117.5487741809501046
 31
0.0
  0
ARC
  5
E541
  8
0
  6
CONTINUOUS
 62
     7
 10
745.9367650956644411
 20
117.4975930786873022
 30
0.0
 40
0.0078740158372241
 50
270.0000003732653795
 51
351.9999997343638256
  0
LINE
  5
E542
  8
0
  6
CONTINUOUS
 62
     7
 10
747.0742373294330037
 20
117.4964972275440971
 30
0.0
 11
747.0668902826835165
 21
117.5487741810440951
 31
0.0
  0
ARC
  5
E543
  8
0
  6
CONTINUOUS
 62
     7
 10
747.0820347158438608
 20
117.4975930787041989
 30
0.0
 40
0.0078740158179833
 50
188.0000003210192858
 51
270.0069475854604093
  0
LINE
  5
E544
  8
0
  6
CONTINUOUS
 62
     7
 10
747.1612680711330086
 20
117.4964972275440971
 30
0.0
 11
747.153921024383294
 21
117.5487741810440951
 31
0.0
  0
ARC
  5
E545
  8
0
  6
CONTINUOUS
 62
     7
 10
747.169065457543752
 20
117.4975930787041989
 30
0.0
 40
0.0078740158179833
 50
188.0000003210192858
 51
270.0069475854604093
  0
LINE
  5
E546
  8
0
  6
CONTINUOUS
 62
     7
 10
747.1781970905327626
 20
117.4964972275440971
 30
0.0
 11
747.1708500437831617
 21
117.5487741810440951
 31
0.0
  0
ARC
  5
E547
  8
0
  6
CONTINUOUS
 62
     7
 10
747.1859944769437334
 20
117.4975930787041989
 30
0.0
 40
0.0078740158179833
 50
188.0000003210192858
 51
270.0069475854604093
  0
LINE
  5
E548
  8
0
  6
CONTINUOUS
 62
     7
 10
747.1841837001327349
 20
117.4964972275440971
 30
0.0
 11
747.1768366533840435
 21
117.5487741810440951
 31
0.0
  0
ARC
  5
E549
  8
0
  6
CONTINUOUS
 62
     7
 10
747.1919810865434783
 20
117.4975930787041989
 30
0.0
 40
0.0078740158179833
 50
188.0000003210192858
 51
270.0069475854604093
  0
ARC
  5
E54A
  8
0
 10
762.4827617285378665
 20
99.0775062905670723
 30
0.0
 40
0.45363432177387
 50
198.3247520131048987
 51
245.9837659613012022
  0
ARC
  5
E54B
  8
0
 10
762.286081513072304
 20
98.6360919308501991
 30
0.0
 40
0.02961483147904
 50
20.1972436458399187
 51
65.9837659613012448
  0
LINE
  5
E54C
  8
0
 10
762.3138753176979208
 20
98.646316541746188
 30
0.0
 11
762.5097421341830568
 21
98.109175135082566
 31
0.0
  0
ARC
  5
E54D
  8
0
 10
762.4820023680210852
 20
98.0990567295699947
 30
0.0
 40
0.0295275592767934
 50
289.9999789170125268
 51
20.0400350676363992
  0
LINE
  5
E54E
  8
0
 10
762.4921013778672432
 20
98.0713098962916519
 30
0.0
 11
761.5955256710982439
 21
97.7449830262461887
 31
0.0
  0
ARC
  5
E54F
  8
0
 10
761.585431302763709
 20
97.7728032242427787
 30
0.0
 40
0.0295949267381603
 50
200.1612929650349884
 51
289.942956386302285
  0
LINE
  5
E550
  8
0
 10
761.5576497731979089
 20
97.7626029152462053
 30
0.0
 11
760.0914676863756085
 21
101.7835096127440977
 31
0.0
  0
ARC
  5
E551
  8
0
 10
761.6467105412154979
 20
97.7213116536120054
 30
0.0
 40
0.0397515354320367
 50
110.4918420536605055
 51
203.0068078918633887
  0
LINE
  5
E552
  8
0
 10
761.6101209057103461
 20
97.7057751436185953
 30
0.0
 11
761.6551518288157467
 21
97.6007574477380899
 31
0.0
  0
ARC
  5
E553
  8
0
 10
762.4682970982981942
 20
98.0210268766462036
 30
0.0
 40
0.0393700786999882
 50
16.8590294357862795
 51
103.3984230448310058
  0
LINE
  5
E554
  8
0
 10
762.5059750987400093
 20
98.0324449053533158
 30
0.0
 11
762.5393147917491206
 21
97.9224282816312552
 31
0.0
  0
LINE
  5
E555
  8
0
 10
762.2534614303709759
 20
96.383092798898673
 30
0.0
 11
761.7736498324982222
 21
97.6588648275461253
 31
0.0
  0
ARC
  5
E556
  8
0
 10
761.7366971062152743
 20
97.6449670885728551
 30
0.0
 40
0.0394797559302102
 50
20.6110339506710787
 51
144.6433313067574034
  0
ARC
  5
E557
  8
0
 10
762.3135165600466507
 20
97.1679418066887024
 30
0.0
 40
0.787891806319356
 50
140.6214677636995134
 51
146.6786755602200003
  0
ARC
  5
E558
  8
0
 10
762.3134901124456064
 20
97.168212868936223
 30
0.0
 40
0.7877208314770993
 50
146.6940935768213023
 51
268.0342060186795834
  0
LINE
  5
E559
  8
0
 10
762.863662035598054
 20
96.605287701946196
 30
0.0
 11
762.4110013073983509
 21
97.8908444171461554
 31
0.0
  0
ARC
  5
E55A
  8
0
 10
762.4477283370175655
 20
97.9038852027496773
 30
0.0
 40
0.0389735396626271
 50
90.8061580074516854
 51
199.5485892060509912
  0
ARC
  5
E55B
  8
0
 10
762.4481781507054166
 20
97.8719178652170569
 30
0.0
 40
0.0709440417118234
 50
81.8565215524103564
 51
90.8061580074516854
  0
ARC
  5
E55C
  8
0
 10
762.3131208735109112
 20
97.1682311799347929
 30
0.0
 40
0.787401378308479
 50
314.3618493260868831
 51
79.3805202632075293
  0
LINE
  5
E55D
  8
0
 10
761.7639081186978274
 20
96.6039910233861008
 30
0.0
 11
761.7639081186978274
 21
96.5831941661665212
 31
0.0
  0
ARC
  5
E55E
  8
0
 10
762.3144047466090569
 20
97.2292900429256122
 30
0.0
 40
0.8487942567873474
 50
226.5288614373735925
 51
268.1139282499996739
  0
LINE
  5
E55F
  8
0
 10
761.7304435517977481
 20
96.6133022075461838
 30
0.0
 11
761.7304435517977481
 21
96.5627955366461634
 31
0.0
  0
ARC
  5
E560
  8
0
 10
761.7502028966480339
 20
96.5627955366461634
 30
0.0
 40
0.0197593448495752
 50
179.9999999999878071
 51
226.9567098111382961
  0
ARC
  5
E561
  8
0
 10
762.3112870276969488
 20
97.1635738999976439
 30
0.0
 40
0.8417995166092422
 50
226.9567098111382961
 51
269.776744638089383
  0
ARC
  5
E562
  8
0
 10
762.3131207170979451
 20
97.1682310093462149
 30
0.0
 40
0.8464566928999674
 50
47.0811785999819392
 51
75.9178025725006904
  0
ARC
  5
E563
  8
0
 10
762.8761362966557726
 20
97.7737089447771552
 30
0.0
 40
0.0196616317645598
 50
359.8761666919796767
 51
47.0811785999869912
  0
LINE
  5
E564
  8
0
 10
762.8957978824979591
 20
97.7736664501461803
 30
0.0
 11
762.8956887226373738
 21
97.7231599292097854
 31
0.0
  0
ARC
  5
E565
  8
0
 10
762.3135881190471537
 20
97.1103173255595209
 30
0.0
 40
0.8452320211333914
 50
46.4737088762202575
 51
74.5665072622492033
  0
LINE
  5
E566
  8
0
 10
762.8623333154980628
 20
97.7531982468203182
 30
0.0
 11
762.8623333154980628
 21
97.7324709953062865
 31
0.0
  0
ARC
  5
E567
  8
0
 10
762.6370285222217262
 20
96.881059538121761
 30
0.0
 40
0.3723374607043867
 50
311.6438565940537728
 51
314.170695819541379
  0
LINE
  5
E568
  8
0
 10
762.8964726484653056
 20
96.6139941341441357
 30
0.0
 11
762.8964726484653056
 21
96.5697731323362802
 31
0.0
  0
LINE
  5
E569
  8
0
 10
762.222823588891174
 20
96.4645558176150359
 30
0.0
 11
762.8346589015297923
 21
96.6876591945948149
 31
0.0
  0
LINE
  5
E56A
  8
0
 10
762.2521482080535407
 20
96.475251349911062
 30
0.0
 11
762.686377713385582
 21
95.2822155891324343
 31
0.0
  0
ARC
  5
E56B
  8
0
 10
8214.9990613415993721
 20
2807.6540211184578766
 30
0.0
 40
7930.5690304035788358
 50
199.9996728545999076
 51
200.0232393384723935
  0
LINE
  5
E56C
  8
0
 10
756.7447349511836592
 20
105.5838853740612961
 30
0.0
 11
757.3145943715469457
 21
106.1844825241269064
 31
0.0
  0
ARC
  5
E56D
  8
0
 10
757.3369251663768864
 20
106.1649738400003997
 30
0.0
 40
0.0287050629786198
 50
51.3147614934810221
 51
87.5338739428278672
  0
ARC
  5
E56E
  8
0
 10
757.3341840278078507
 20
106.1681424993418972
 30
0.0
 40
0.0255098224690789
 50
90.0342157110233217
 51
140.1680101897408122
  0
ARC
  5
E56F
  8
0
 10
734.0931272295881627
 20
78.2071024478509571
 30
0.0
 40
36.3868728127324488
 50
43.6275736154024827
 51
50.2611524631811193
  0
ARC
  5
E570
  8
0
 10
759.7878463515851308
 20
102.8572430247948972
 30
0.0
 40
0.7885191963143344
 50
19.7456250031144513
 51
35.2986137664320196
  0
ARC
  5
E571
  8
0
 10
760.1262290463835143
 20
101.7923680348883977
 30
0.0
 40
0.0358723262768774
 50
157.6105397302690108
 51
194.2966918668894039
  0
ARC
  5
E572
  8
0
 10
759.6805257973779817
 20
101.9870804509842941
 30
0.0
 40
0.4505150744347076
 50
336.3048467130988115
 51
21.9220590582659085
  0
LINE
  5
E573
  8
0
 10
760.0984652907534382
 20
102.1552779901173977
 30
0.0
 11
759.9979717122530474
 21
102.4299816334173983
 31
0.0
  0
ARC
  5
E574
  8
0
 10
759.4453207814046891
 20
102.219956939149796
 30
0.0
 40
0.5912135177502523
 50
20.8083619255734504
 51
40.802119550762761
  0
ARC
  5
E575
  8
0
 10
759.3783738189283667
 20
102.1621655493308936
 30
0.0
 40
0.6796541222370414
 50
40.802119550762761
 51
49.3063801827340527
  0
ARC
  5
E576
  8
0
 10
66278.0280097301292699
 20
70449.3822341931518167
 30
0.0
 40
96131.6506210392835783
 50
227.0328710650956054
 51
227.0353760573366912
  0
ARC
  5
E577
  8
0
 10
756.7651494987278511
 20
105.5635547209434009
 30
0.0
 40
0.0288112687612925
 50
135.1179719252704956
 51
228.3362744513200084
  0
LINE
  5
E578
  8
0
 10
757.3341687939342819
 20
106.1936523172624049
 30
0.0
 11
757.3381603087998428
 21
106.1936523173624067
 31
0.0
  0
ARC
  5
E579
  8
0
 10
758.5583959721858491
 20
104.3546312619496064
 30
0.0
 40
0.4760028772711134
 50
222.5960162331676031
 51
227.0571412449540105
  0
ARC
  5
E57A
  8
0
 10
758.3212715132491439
 20
104.1366145707436033
 30
0.0
 40
0.1538859937173968
 50
212.5027401903475095
 51
222.5960162331676031
  0
ARC
  5
E57B
  8
0
 10
758.2047927010487456
 20
104.0624015517071967
 30
0.0
 40
0.0157741336685405
 50
184.9516159266626119
 51
212.5027401903456905
  0
ARC
  5
E57C
  8
0
 10
758.2038018290846821
 20
104.0623157047391061
 30
0.0
 40
0.0147795498609997
 50
141.138927679759604
 51
184.9516159266576949
  0
LINE
  5
E57D
  8
0
 10
758.1922934426536358
 20
104.071588899217403
 30
0.0
 11
758.2303971554526925
 21
104.1139595301316945
 31
0.0
  0
ARC
  5
E57E
  8
0
 10
758.1071312147638537
 20
103.8729087933210025
 30
0.0
 40
0.2655356843020728
 50
46.6728573932358017
 51
56.9227148635763385
  0
ARC
  5
E57F
  8
0
 10
758.0359020459534349
 20
103.864977265973593
 30
0.0
 40
0.3159438486253768
 50
46.8318147219928989
 51
52.0044521424093773
  0
ARC
  5
E580
  8
0
 10
758.1975894357625521
 20
104.0732510195385032
 30
0.0
 40
0.0522831646512264
 50
51.1340353580034019
 51
68.099601861868436
  0
ARC
  5
E581
  8
0
 10
758.2144991820694031
 20
104.1149345991552053
 30
0.0
 40
0.0073018735138627
 50
69.211530036957484
 51
97.4677998522119822
  0
ARC
  5
E582
  8
0
 10
758.2140701071173226
 20
104.1202636858759973
 30
0.0
 40
0.0019803277503879
 50
105.2216356865613989
 51
159.4827432501508042
  0
ARC
  5
E583
  8
0
 10
758.2539139928492204
 20
104.1299798393964977
 30
0.0
 40
0.0426634566966164
 50
192.2085507917942095
 51
218.8996013224555952
  0
ARC
  5
E584
  8
0
 10
758.1450331383646244
 20
103.9122748483193988
 30
0.0
 40
0.1399908709702604
 50
46.5729732927860027
 51
54.0771757493443417
  0
ARC
  5
E585
  8
0
 10
758.2140256352191727
 20
104.0075039346424006
 30
0.0
 40
0.0223960432619965
 50
54.0778068208932297
 51
64.1994212083196487
  0
ARC
  5
E586
  8
0
 10
758.2213415643770986
 20
104.0226372708398941
 30
0.0
 40
0.0055870967181137
 50
64.199421208320004
 51
76.89059000344281
  0
ARC
  5
E587
  8
0
 10
758.2224460416742886
 20
104.0273799506728949
 30
0.0
 40
0.0007175092511611
 50
76.8905900032823411
 51
131.1931273412232883
  0
ARC
  5
E588
  8
0
 10
758.2224754668575315
 20
104.0276031175883986
 30
0.0
 40
0.0005935600035988
 50
147.7474666857123111
 51
191.9631174319831928
  0
ARC
  5
E589
  8
0
 10
758.2307949737829631
 20
104.0303836680640046
 30
0.0
 40
0.0093618336440673
 50
198.0683481250603961
 51
218.8551431712753867
  0
ARC
  5
E58A
  8
0
 10
758.320054172031405
 20
104.1010342352105056
 30
0.0
 40
0.1231978308978852
 50
218.3998147260404892
 51
227.8404534553403948
  0
ARC
  5
E58B
  8
0
 10
758.5551520941069157
 20
104.3576222482624019
 30
0.0
 40
0.4760028772711134
 50
227.5882501437853875
 51
232.0493751556130064
  0
ARC
  5
E58C
  8
0
 10
758.3570559536070732
 20
104.1036198746715939
 30
0.0
 40
0.1538859937173968
 50
232.0493751556130064
 51
242.1426511983582941
  0
ARC
  5
E58D
  8
0
 10
758.2925201753130295
 20
103.9815132851441035
 30
0.0
 40
0.0157741336685405
 50
242.1426511983582941
 51
269.6937754620687997
  0
ARC
  5
E58E
  8
0
 10
758.2925148596593772
 20
103.9805187155417059
 30
0.0
 40
0.0147795498609997
 50
269.6937754620687997
 51
313.5064637089727171
  0
LINE
  5
E58F
  8
0
 10
758.3026896398030203
 20
103.9697991566366966
 30
0.0
 11
758.3418351189991427
 21
104.0112092369508048
 31
0.0
  0
ARC
  5
E590
  8
0
 10
758.1115593597465931
 20
103.8688258651984029
 30
0.0
 40
0.2655356843020728
 50
37.7226765251683318
 51
47.9725339955610508
  0
ARC
  5
E591
  8
0
 10
758.109422636210752
 20
103.7971883189816964
 30
0.0
 40
0.3159438486253768
 50
42.6409392463312997
 51
47.8135766667854014
  0
ARC
  5
E592
  8
0
 10
758.303917385165505
 20
103.9752123653247935
 30
0.0
 40
0.0522831646512264
 50
26.5457895269226398
 51
43.5113560307801492
  0
ARC
  5
E593
  8
0
 10
758.3440945391819241
 20
103.9954424573901974
 30
0.0
 40
0.0073018735138627
 50
357.1775915365377045
 51
25.4338613518133982
  0
ARC
  5
E594
  8
0
 10
758.3494408701806151
 20
103.9954463870837031
 30
0.0
 40
0.0019803277503879
 50
295.1626481386334717
 51
349.4237557022007081
  0
ARC
  5
E595
  8
0
 10
758.355898206842312
 20
104.0359462842770029
 30
0.0
 40
0.0426634566966164
 50
235.7457900666709065
 51
262.4368405969725018
  0
ARC
  5
E596
  8
0
 10
758.1477264754737462
 20
103.909791482753306
 30
0.0
 40
0.1399908711282218
 50
40.5682156415428992
 51
48.0724181108819266
  0
ARC
  5
E597
  8
0
 10
758.2370551330930084
 20
103.9862698095464992
 30
0.0
 40
0.0223960432619965
 50
30.4459701804444514
 51
40.5675845678615872
  0
ARC
  5
E598
  8
0
 10
758.2515462500439298
 20
103.9947873334496933
 30
0.0
 40
0.0055870967181137
 50
17.7548013852856883
 51
30.4459701804278211
  0
ARC
  5
E599
  8
0
 10
758.2561839002707984
 20
103.9962722854595967
 30
0.0
 40
0.0007175092511611
 50
323.452264047520714
 51
17.7548013854485305
  0
ARC
  5
E59A
  8
0
 10
758.2564039509859413
 20
103.996319687952905
 30
0.0
 40
0.0005935600035988
 50
262.6822739567444955
 51
306.8979247030760007
  0
ARC
  5
E59B
  8
0
 10
758.258501582413146
 20
104.0048370583701995
 30
0.0
 40
0.0093618336440673
 50
235.7902482174505963
 51
256.5770432637106069
  0
ARC
  5
E59C
  8
0
 10
758.3216910891511588
 20
104.0995249316613069
 30
0.0
 40
0.1231978308978852
 50
226.8049379334019022
 51
236.2455766626601132
  0
ARC
  5
E59D
  8
0
 10
758.1907924304530297
 20
104.7130787784787032
 30
0.0
 40
0.4760028772711134
 50
222.5960162331676031
 51
227.0571412449540105
  0
ARC
  5
E59E
  8
0
 10
757.953667971517234
 20
104.4950620872727001
 30
0.0
 40
0.1538859937173968
 50
212.5027401903475095
 51
222.5960162331676031
  0
ARC
  5
E59F
  8
0
 10
757.837189159316722
 20
104.4208490682362935
 30
0.0
 40
0.0157741336685405
 50
184.9516159266626119
 51
212.5027401903456905
  0
ARC
  5
E5A0
  8
0
 10
757.8361982873526586
 20
104.4207632212682029
 30
0.0
 40
0.0147795498609997
 50
141.138927679759604
 51
184.9516159266576949
  0
LINE
  5
E5A1
  8
0
 10
757.8246899009207027
 20
104.4300364157464998
 30
0.0
 11
757.8627936137196457
 21
104.4724070466608055
 31
0.0
  0
ARC
  5
E5A2
  8
0
 10
757.7395276730310343
 20
104.2313563098501987
 30
0.0
 40
0.2655356843020728
 50
46.6728573932358017
 51
56.9227148635763385
  0
ARC
  5
E5A3
  8
0
 10
757.6682985042212977
 20
104.223424782502704
 30
0.0
 40
0.3159438486253768
 50
46.8318147219928989
 51
52.0044521424093773
  0
ARC
  5
E5A4
  8
0
 10
757.8299858940306422
 20
104.4316985360676
 30
0.0
 40
0.0522831646512264
 50
51.1340353580034019
 51
68.099601861868436
  0
ARC
  5
E5A5
  8
0
 10
757.8468956403373795
 20
104.4733821156843021
 30
0.0
 40
0.0073018735138627
 50
69.211530036957484
 51
97.4677998522119822
  0
ARC
  5
E5A6
  8
0
 10
757.846466565385299
 20
104.4787112024050941
 30
0.0
 40
0.0019803277503879
 50
105.2216356865613989
 51
159.4827432501508042
  0
ARC
  5
E5A7
  8
0
 10
757.8863104511171969
 20
104.488427355925694
 30
0.0
 40
0.0426634566966164
 50
192.2085507917942095
 51
218.899601321533595
  0
ARC
  5
E5A8
  8
0
 10
757.7774295966324871
 20
104.2707223648484955
 30
0.0
 40
0.1399908709702604
 50
46.5729732927860027
 51
54.0771757493443417
  0
ARC
  5
E5A9
  8
0
 10
757.8464220934863533
 20
104.3659514511714974
 30
0.0
 40
0.0223960432619965
 50
54.0778068208932297
 51
64.1994212083196487
  0
ARC
  5
E5AA
  8
0
 10
757.853738022645075
 20
104.3810847873690051
 30
0.0
 40
0.0055870967181137
 50
64.199421208320004
 51
76.89059000344281
  0
ARC
  5
E5AB
  8
0
 10
757.8548424999413555
 20
104.3858274672021054
 30
0.0
 40
0.0007175092511611
 50
76.8905900032823411
 51
131.1931273412232883
  0
ARC
  5
E5AC
  8
0
 10
757.8548719251255079
 20
104.3860506341174954
 30
0.0
 40
0.0005935600035988
 50
147.7474666857123111
 51
191.9631174319831928
  0
ARC
  5
E5AD
  8
0
 10
757.8631914320510532
 20
104.3888311845931014
 30
0.0
 40
0.0093618336440673
 50
198.0683481250603961
 51
218.8551431712753867
  0
ARC
  5
E5AE
  8
0
 10
757.9524506302993814
 20
104.4594817517397018
 30
0.0
 40
0.1231978308978852
 50
218.3998147260404892
 51
227.8404534553403948
  0
ARC
  5
E5AF
  8
0
 10
758.1875485523738689
 20
104.7160697647915981
 30
0.0
 40
0.4760028772711134
 50
227.5882501437853875
 51
232.0493751556130064
  0
ARC
  5
E5B0
  8
0
 10
757.9894524118750496
 20
104.4620673912008044
 30
0.0
 40
0.1538859937173968
 50
232.0493751556130064
 51
242.1426511983582941
  0
ARC
  5
E5B1
  8
0
 10
757.9249166335800965
 20
104.3399608016732003
 30
0.0
 40
0.0157741336685405
 50
242.1426511983582941
 51
269.6937754620687997
  0
ARC
  5
E5B2
  8
0
 10
757.9249113179264441
 20
104.3389662320708027
 30
0.0
 40
0.0147795498609997
 50
269.6937754620687997
 51
313.5064637089727171
  0
LINE
  5
E5B3
  8
0
 10
757.9350860980709967
 20
104.3282466731657934
 30
0.0
 11
757.9742315772671191
 21
104.369656753480001
 31
0.0
  0
ARC
  5
E5B4
  8
0
 10
757.7439558180145696
 20
104.2272733817274997
 30
0.0
 40
0.2655356843020728
 50
37.7226765251683318
 51
47.9725339955610508
  0
ARC
  5
E5B5
  8
0
 10
757.7418190944788421
 20
104.1556358355107932
 30
0.0
 40
0.3159438486253768
 50
42.6409392463312997
 51
47.8135766667854014
  0
ARC
  5
E5B6
  8
0
 10
757.9363138434333678
 20
104.3336598818539045
 30
0.0
 40
0.0522831646512264
 50
26.5457895269226398
 51
43.5113560307801492
  0
ARC
  5
E5B7
  8
0
 10
757.9764909974499005
 20
104.3538899739193937
 30
0.0
 40
0.0073018735138627
 50
357.1775915365377045
 51
25.4338613518133982
  0
ARC
  5
E5B8
  8
0
 10
757.9818373284485915
 20
104.3538939036127999
 30
0.0
 40
0.0019803277503879
 50
295.1626481386334717
 51
349.4237557022007081
  0
ARC
  5
E5B9
  8
0
 10
757.9882946651101747
 20
104.3943938008060996
 30
0.0
 40
0.0426634566966164
 50
235.7457900666709065
 51
262.4368405969725018
  0
ARC
  5
E5BA
  8
0
 10
757.7801229337408131
 20
104.2682389992824028
 30
0.0
 40
0.1399908711282218
 50
40.5682156415428992
 51
48.0724181108819266
  0
ARC
  5
E5BB
  8
0
 10
757.8694515913609848
 20
104.344717326075596
 30
0.0
 40
0.0223960432619965
 50
30.4459701804444514
 51
40.5675845678615872
  0
ARC
  5
E5BC
  8
0
 10
757.8839427083119062
 20
104.3532348499788043
 30
0.0
 40
0.0055870967181137
 50
17.7548013852856883
 51
30.4459701804278211
  0
ARC
  5
E5BD
  8
0
 10
757.8885803585387748
 20
104.3547198019886935
 30
0.0
 40
0.0007175092511611
 50
323.452264047520714
 51
17.7548013854485305
  0
ARC
  5
E5BE
  8
0
 10
757.8888004092528945
 20
104.3547672044820018
 30
0.0
 40
0.0005935600035988
 50
262.6822739567444955
 51
306.8979247030760007
  0
ARC
  5
E5BF
  8
0
 10
757.8908980406811224
 20
104.3632845748993958
 30
0.0
 40
0.0093618336440673
 50
235.7902482174505963
 51
256.5770432637106069
  0
ARC
  5
E5C0
  8
0
 10
757.9540875474183395
 20
104.4579724481904037
 30
0.0
 40
0.1231978308978852
 50
226.8049379334019022
 51
236.2455766626601132
  0
ARC
  5
E5C1
  8
0
 10
758.3354373447369881
 20
104.4913669764137012
 30
0.0
 40
0.4760028772711134
 50
222.5960162331676031
 51
227.0571412449540105
  0
ARC
  5
E5C2
  8
0
 10
758.0983128858011924
 20
104.2733502852075986
 30
0.0
 40
0.1538859937173968
 50
212.5027401903475095
 51
222.5960162331676031
  0
ARC
  5
E5C3
  8
0
 10
757.9818340736006803
 20
104.1991372661712063
 30
0.0
 40
0.0157741336685405
 50
184.9516159266626119
 51
212.5027401903456905
  0
ARC
  5
E5C4
  8
0
 10
757.9808432016368442
 20
104.1990514192031014
 30
0.0
 40
0.0147795498609997
 50
141.138927679759604
 51
184.9516159266576949
  0
LINE
  5
E5C5
  8
0
 10
757.9693348152047747
 20
104.2083246136814978
 30
0.0
 11
758.0074385280038314
 21
104.2506952445958035
 31
0.0
  0
ARC
  5
E5C6
  8
0
 10
757.8841725873151063
 20
104.0096445077850973
 30
0.0
 40
0.2655356843020728
 50
46.6728573932358017
 51
56.9227148635763385
  0
ARC
  5
E5C7
  8
0
 10
757.8129434185053697
 20
104.0017129804376026
 30
0.0
 40
0.3159438486253768
 50
46.8318147219928989
 51
52.0044521424093773
  0
ARC
  5
E5C8
  8
0
 10
757.9746308083147142
 20
104.2099867340024986
 30
0.0
 40
0.0522831646512264
 50
51.1340353580034019
 51
68.099601861868436
  0
ARC
  5
E5C9
  8
0
 10
757.9915405546214515
 20
104.2516703136192007
 30
0.0
 40
0.0073018735138627
 50
69.211530036957484
 51
97.4677998522119822
  0
ARC
  5
E5CA
  8
0
 10
757.9911114796692573
 20
104.2569994003401064
 30
0.0
 40
0.0019803277503879
 50
105.2216356865613989
 51
159.4827432501508042
  0
ARC
  5
E5CB
  8
0
 10
758.0309553654012689
 20
104.2667155538606067
 30
0.0
 40
0.0426634566966164
 50
192.2085507917942095
 51
218.8996013215304117
  0
ARC
  5
E5CC
  8
0
 10
757.9220745109165591
 20
104.0490105627833941
 30
0.0
 40
0.1399908709702604
 50
46.5729732927860027
 51
54.0771757493443417
  0
ARC
  5
E5CD
  8
0
 10
757.9910670077704253
 20
104.144239649106396
 30
0.0
 40
0.0223960432619965
 50
54.0778068208932297
 51
64.1994212083196487
  0
ARC
  5
E5CE
  8
0
 10
757.998382936929147
 20
104.1593729853039036
 30
0.0
 40
0.0055870967181137
 50
64.199421208320004
 51
76.89059000344281
  0
ARC
  5
E5CF
  8
0
 10
757.9994874142255412
 20
104.1641156651370039
 30
0.0
 40
0.0007175092511611
 50
76.8905900032823411
 51
131.1931273412232883
  0
ARC
  5
E5D0
  8
0
 10
757.9995168394095799
 20
104.164338832052394
 30
0.0
 40
0.0005935600035988
 50
147.7474666857123111
 51
191.9631174319831928
  0
ARC
  5
E5D1
  8
0
 10
758.0078363463351252
 20
104.167119382528
 30
0.0
 40
0.0093618336440673
 50
198.0683481250603961
 51
218.8551431712753867
  0
ARC
  5
E5D2
  8
0
 10
758.0970955445834534
 20
104.2377699496746004
 30
0.0
 40
0.1231978308978852
 50
218.3998147260404892
 51
227.8404534553403948
  0
ARC
  5
E5D3
  8
0
 10
758.3321934666580546
 20
104.4943579627264967
 30
0.0
 40
0.4760028772711134
 50
227.5882501437853875
 51
232.0493751556130064
  0
ARC
  5
E5D4
  8
0
 10
758.1340973261592353
 20
104.240355589135703
 30
0.0
 40
0.1538859937173968
 50
232.0493751556130064
 51
242.1426511983582941
  0
ARC
  5
E5D5
  8
0
 10
758.0695615478640548
 20
104.1182489996080989
 30
0.0
 40
0.0157741336685405
 50
242.1426511983582941
 51
269.6937754620687997
  0
ARC
  5
E5D6
  8
0
 10
758.0695562322105161
 20
104.1172544300057012
 30
0.0
 40
0.0147795498609997
 50
269.6937754620687997
 51
313.5064637089727171
  0
LINE
  5
E5D7
  8
0
 10
758.0797310123549551
 20
104.1065348711007061
 30
0.0
 11
758.1188764915511911
 21
104.1479449514148996
 31
0.0
  0
ARC
  5
E5D8
  8
0
 10
757.8886007322987552
 20
104.0055615796623982
 30
0.0
 40
0.2655356843020728
 50
37.7226765251683318
 51
47.9725339955610508
  0
ARC
  5
E5D9
  8
0
 10
757.8864640087629141
 20
103.933924033445706
 30
0.0
 40
0.3159438486253768
 50
42.6409392463312997
 51
47.8135766667854014
  0
ARC
  5
E5DA
  8
0
 10
758.0809587577175535
 20
104.1119480797888031
 30
0.0
 40
0.0522831646512264
 50
26.5457895269226398
 51
43.5113560307801492
  0
ARC
  5
E5DB
  8
0
 10
758.1211359117339725
 20
104.1321781718543065
 30
0.0
 40
0.0073018735138627
 50
357.1775915365377045
 51
25.4338613518133982
  0
ARC
  5
E5DC
  8
0
 10
758.1264822427326635
 20
104.1321821015476985
 30
0.0
 40
0.0019803277503879
 50
295.1626481386334717
 51
349.4237557022007081
  0
ARC
  5
E5DD
  8
0
 10
758.1329395793942467
 20
104.1726819987409982
 30
0.0
 40
0.0426634566966164
 50
235.745790066685089
 51
262.4368405969725018
  0
ARC
  5
E5DE
  8
0
 10
757.9247678480248851
 20
104.0465271972173014
 30
0.0
 40
0.1399908711282218
 50
40.5682156415428992
 51
48.0724181108819266
  0
ARC
  5
E5DF
  8
0
 10
758.0140965056450568
 20
104.1230055240104946
 30
0.0
 40
0.0223960432619965
 50
30.4459701804444514
 51
40.5675845678615872
  0
ARC
  5
E5E0
  8
0
 10
758.0285876225959782
 20
104.1315230479137028
 30
0.0
 40
0.0055870967181137
 50
17.7548013852856883
 51
30.4459701804278211
  0
ARC
  5
E5E1
  8
0
 10
758.0332252728228468
 20
104.1330079999236062
 30
0.0
 40
0.0007175092511611
 50
323.452264047520714
 51
17.7548013854485305
  0
ARC
  5
E5E2
  8
0
 10
758.0334453235369665
 20
104.1330554024169004
 30
0.0
 40
0.0005935600035988
 50
262.6822739567444955
 51
306.8979247030760007
  0
ARC
  5
E5E3
  8
0
 10
758.0355429549650808
 20
104.1415727728342944
 30
0.0
 40
0.0093618336440673
 50
235.7902482174505963
 51
256.5770432637106069
  0
ARC
  5
E5E4
  8
0
 10
758.0987324617024115
 20
104.2362606461253023
 30
0.0
 40
0.1231978308978852
 50
226.8049379334019022
 51
236.2455766626601132
  0
ARC
  5
E5E5
  8
0
 10
757.2911863597253159
 20
104.1574083418384049
 30
0.0
 40
0.5754752159633985
 50
44.7457620497444495
 51
48.7363462406586123
  0
ARC
  5
E5E6
  8
0
 10
757.5257072674855863
 20
104.4528432051247933
 30
0.0
 40
0.1995944934806548
 50
43.400393222099062
 51
52.6665169081055424
  0
ARC
  5
E5E7
  8
0
 10
757.6384036347160418
 20
104.6024879178957008
 30
0.0
 40
0.0123174160695262
 50
47.3305638895058891
 51
79.2196316442119439
  0
ARC
  5
E5E8
  8
0
 10
757.6404460098090112
 20
104.6132143893787969
 30
0.0
 40
0.0013982363158355
 50
79.2196316439467836
 51
163.4030414921855936
  0
ARC
  5
E5E9
  8
0
 10
757.6506527815579375
 20
104.6156752338345939
 30
0.0
 40
0.011729328046824
 50
190.1224370811276003
 51
209.5462282978064081
  0
ARC
  5
E5EA
  8
0
 10
757.8717672790323832
 20
104.7445833249998941
 30
0.0
 40
0.267675599416682
 50
210.2113827182911905
 51
214.6249846502047092
  0
ARC
  5
E5EB
  8
0
 10
757.2604896921800446
 20
104.1369770459750015
 30
0.0
 40
0.6117011841006882
 50
38.8213142735783023
 51
44.0808830201963673
  0
ARC
  5
E5EC
  8
0
 10
757.6826058037274834
 20
104.4741204426882035
 30
0.0
 40
0.0715020705897464
 50
25.0485613134795102
 51
40.3855836384738112
  0
ARC
  5
E5ED
  8
0
 10
757.7405649838725594
 20
104.500977292340707
 30
0.0
 40
0.0076260146396362
 50
0.2300276044126591
 51
26.6128306782907096
  0
ARC
  5
E5EE
  8
0
 10
757.743368863783644
 20
104.5009885492473956
 30
0.0
 40
0.0048221121313219
 50
341.3787173380235913
 51
0.2300276044094023
  0
ARC
  5
E5EF
  8
0
 10
757.7459229607153475
 20
104.5005717156719953
 30
0.0
 40
0.0023072718272709
 50
305.7356368083384268
 51
330.876875359852022
  0
ARC
  5
E5F0
  8
0
 10
757.746974734953028
 20
104.499785449315695
 30
0.0
 40
0.0011261306639196
 50
252.786970656011988
 51
285.2274085407070174
  0
ARC
  5
E5F1
  8
0
 10
757.8173429897303777
 20
104.6219406607444
 30
0.0
 40
0.142072370769341
 50
231.1248763039118899
 51
240.1557299509379959
  0
LINE
  5
E5F2
  8
0
 10
757.7370191051911661
 20
104.5205107201026067
 30
0.0
 11
757.7006915153531281
 21
104.4828222018173989
 31
0.0
  0
LINE
  5
E5F3
  8
0
 10
757.65928681288392
 20
104.6011485215466053
 30
0.0
 11
757.622678857353776
 21
104.5604390301173936
 31
0.0
  0
ARC
  5
E5F4
  8
0
 10
757.6339312467123364
 20
104.5511262230326963
 30
0.0
 40
0.0146063219902665
 50
140.3878465221065142
 51
162.4155321368637885
  0
ARC
  5
E5F5
  8
0
 10
757.6329495367715481
 20
104.5523085254919948
 30
0.0
 40
0.0133391744862587
 50
165.9849627959268048
 51
206.0614384293168939
  0
ARC
  5
E5F6
  8
0
 10
757.6903761219933813
 20
104.5873148833857016
 30
0.0
 40
0.080546660450082
 50
210.488607434579194
 51
222.9728713956893955
  0
ARC
  5
E5F7
  8
0
 10
757.9977303277635201
 20
104.8549732029616024
 30
0.0
 40
0.4880718031401407
 50
221.3679938748717859
 51
224.8604669944344892
  0
ARC
  5
E5F8
  8
0
 10
757.9938706962664128
 20
104.8473822123364982
 30
0.0
 40
0.4799888006447149
 50
224.5431611340059135
 51
228.0040216486414977
  0
ARC
  5
E5F9
  8
0
 10
757.7389213011817901
 20
104.5622395843127066
 30
0.0
 40
0.0975007498520389
 50
227.2362481591609082
 51
235.740361874696589
  0
ARC
  5
E5FA
  8
0
 10
757.6920581548407654
 20
104.4933358519918016
 30
0.0
 40
0.0141709434811737
 50
235.5107841478186117
 51
271.5706643364143815
  0
ARC
  5
E5FB
  8
0
 10
757.6918496876129439
 20
104.4916509681730048
 30
0.0
 40
0.012495000326272
 50
272.738080820570417
 51
315.0423507038619846
  0
ARC
  5
E5FC
  8
0
 10
757.4442021990449803
 20
104.3064102990431934
 30
0.0
 40
0.2960478481578904
 50
44.5862267476897074
 51
46.7795886447694329
  0
ARC
  5
E5FD
  8
0
 10
757.5346779347316897
 20
104.402688415826205
 30
0.0
 40
0.1639292101115727
 50
46.779588644763578
 51
49.0852708968980025
  0
ARC
  5
E5FE
  8
0
 10
757.6105048080087272
 20
104.4901798947390006
 30
0.0
 40
0.0481515197156614
 50
49.0852708968971996
 51
54.0591017394276676
  0
ARC
  5
E5FF
  8
0
 10
757.6345993583779546
 20
104.5234152386749003
 30
0.0
 40
0.0071011184508354
 50
54.0591017394913678
 51
66.1310190635325341
  0
ARC
  5
E600
  8
0
 10
757.6373411003138472
 20
104.5296113852152047
 30
0.0
 40
0.0003254722975166
 50
66.131019063019636
 51
122.2147083104491969
  0
ARC
  5
E601
  8
0
 10
757.6373102396780723
 20
104.5297640590291053
 30
0.0
 40
0.0001881538474914
 50
139.300295340974003
 51
169.506468113092609
  0
ARC
  5
E602
  8
0
 10
757.6377657867576545
 20
104.5297690330640989
 30
0.0
 40
0.0006412236066324
 50
177.3816119162158884
 51
208.158513160704814
  0
ARC
  5
E603
  8
0
 10
757.6514837715527619
 20
104.5370333881242999
 30
0.0
 40
0.0161639093224561
 50
207.9135632698533982
 51
219.5603786713527938
  0
ARC
  5
E604
  8
0
 10
757.7946948669756466
 20
104.6548284542733995
 30
0.0
 40
0.2015960611527888
 50
219.448030276733391
 51
225.3847002071719885
  0
ARC
  5
E605
  8
0
 10
757.820166782713045
 20
104.6754785353749071
 30
0.0
 40
0.2342137179315194
 50
224.4970363476662953
 51
228.630817795651609
  0
ARC
  5
E606
  8
0
 10
757.6957822973452039
 20
104.5344630415086016
 30
0.0
 40
0.0461797888915376
 50
228.8145654567730958
 51
234.9970672804508922
  0
ARC
  5
E607
  8
0
 10
757.6702378732486522
 20
104.4976493470868064
 30
0.0
 40
0.0013856122598902
 50
226.9906370732014977
 51
274.8229501522952773
  0
ARC
  5
E608
  8
0
 10
757.6701798381279787
 20
104.496424050813701
 30
0.0
 40
0.0002336965613697
 50
318.3171221184085766
 51
20.8942946068604094
  0
ARC
  5
E609
  8
0
 10
757.6564396206200627
 20
104.4896638377107934
 30
0.0
 40
0.0155459101473967
 50
26.1176694457307512
 51
40.8804524667486504
  0
ARC
  5
E60A
  8
0
 10
757.5026027863957552
 20
104.3617685844682939
 30
0.0
 40
0.2156004583445092
 50
39.8213941835720178
 51
45.0035292901476467
  0
ARC
  5
E60B
  8
0
 10
757.0884992093493793
 20
104.3162381028056984
 30
0.0
 40
0.5754752159633985
 50
44.7457620497444495
 51
48.7363462406586123
  0
ARC
  5
E60C
  8
0
 10
757.3230201171088538
 20
104.6116729660922005
 30
0.0
 40
0.1995944934806548
 50
43.400393222099062
 51
52.6665169081055424
  0
ARC
  5
E60D
  8
0
 10
757.4357164843402188
 20
104.7613176788630938
 30
0.0
 40
0.0123174160695262
 50
47.3305638895058891
 51
79.2196316442119439
  0
ARC
  5
E60E
  8
0
 10
757.4377588594321651
 20
104.7720441503461046
 30
0.0
 40
0.0013982363158355
 50
79.2196316439467836
 51
163.4030414921855936
  0
ARC
  5
E60F
  8
0
 10
757.4479656311821145
 20
104.7745049948019016
 30
0.0
 40
0.011729328046824
 50
190.1224370811276003
 51
209.5462282978064081
  0
ARC
  5
E610
  8
0
 10
757.6690801286556507
 20
104.9034130859673013
 30
0.0
 40
0.267675599416682
 50
210.2113827182911905
 51
214.6249846502047092
  0
ARC
  5
E611
  8
0
 10
757.0578025418033121
 20
104.2958068069423945
 30
0.0
 40
0.6117011841006882
 50
38.8213142735783023
 51
44.0808830201963673
  0
ARC
  5
E612
  8
0
 10
757.4799186533516604
 20
104.6329502036555965
 30
0.0
 40
0.0715020705897464
 50
25.0485613134795102
 51
40.3855836384738112
  0
ARC
  5
E613
  8
0
 10
757.5378778334959406
 20
104.6598070533081
 30
0.0
 40
0.0076260146396362
 50
0.2300276044126591
 51
26.6128306782907096
  0
ARC
  5
E614
  8
0
 10
757.5406817134067978
 20
104.6598183102148028
 30
0.0
 40
0.0048221121313219
 50
341.3787173380235913
 51
0.2300276044094023
  0
ARC
  5
E615
  8
0
 10
757.5432358103387287
 20
104.659401476639303
 30
0.0
 40
0.0023072718272709
 50
305.7356368083384268
 51
330.876875359852022
  0
ARC
  5
E616
  8
0
 10
757.5442875845761819
 20
104.6586152102831022
 30
0.0
 40
0.0011261306639196
 50
252.786970656011988
 51
285.2274085407070174
  0
ARC
  5
E617
  8
0
 10
757.6146558393545547
 20
104.780770421711793
 30
0.0
 40
0.142072370769341
 50
231.1248763037116873
 51
240.1557299509379959
  0
LINE
  5
E618
  8
0
 10
757.5343319422207742
 20
104.6793404680045967
 30
0.0
 11
757.4980043649773052
 21
104.6416519627848061
 31
0.0
  0
LINE
  5
E619
  8
0
 10
757.4565996625071875
 20
104.7599782825138988
 30
0.0
 11
757.4199917069770436
 21
104.7192687910847013
 31
0.0
  0
ARC
  5
E61A
  8
0
 10
757.4312440963356039
 20
104.709955984000004
 30
0.0
 40
0.0146063219902665
 50
140.3878465221065142
 51
162.4155321368637885
  0
ARC
  5
E61B
  8
0
 10
757.4302623863957251
 20
104.711138286459402
 30
0.0
 40
0.0133391744862587
 50
165.9849627959268048
 51
206.0614384293168939
  0
ARC
  5
E61C
  8
0
 10
757.4876889716167625
 20
104.7461446443530946
 30
0.0
 40
0.080546660450082
 50
210.488607434579194
 51
222.9728713956893955
  0
ARC
  5
E61D
  8
0
 10
757.7950431773876971
 20
105.0138029639288959
 30
0.0
 40
0.4880718031401407
 50
221.3679938748717859
 51
224.8604669944344892
  0
ARC
  5
E61E
  8
0
 10
757.7911835458896803
 20
105.0062119733039054
 30
0.0
 40
0.4799888006447149
 50
224.5431611340059135
 51
228.0040216486414977
  0
ARC
  5
E61F
  8
0
 10
757.5362341508059671
 20
104.7210693452800996
 30
0.0
 40
0.0975007498520389
 50
227.2362481591609082
 51
235.740361874696589
  0
ARC
  5
E620
  8
0
 10
757.4893710044641466
 20
104.6521656129590951
 30
0.0
 40
0.0141709434811737
 50
235.5107841478186117
 51
271.5706643364143815
  0
ARC
  5
E621
  8
0
 10
757.4891625372363251
 20
104.6504807291402983
 30
0.0
 40
0.012495000326272
 50
272.738080820570417
 51
315.0423507038619846
  0
ARC
  5
E622
  8
0
 10
757.2415150486691573
 20
104.4652400600105011
 30
0.0
 40
0.2960478481578904
 50
44.5862267476897074
 51
46.7795886447694329
  0
ARC
  5
E623
  8
0
 10
757.3319907843548435
 20
104.5615181767934985
 30
0.0
 40
0.1639292101115727
 50
46.779588644763578
 51
49.0852708968980025
  0
ARC
  5
E624
  8
0
 10
757.4078176576327905
 20
104.6490096557063936
 30
0.0
 40
0.0481515197156614
 50
49.0852708968971996
 51
54.0591017394276676
  0
ARC
  5
E625
  8
0
 10
757.4319122080012221
 20
104.6822449996421938
 30
0.0
 40
0.0071011184508354
 50
54.0591017394913678
 51
66.1310190635325341
  0
ARC
  5
E626
  8
0
 10
757.4346539499381379
 20
104.6884411461824982
 30
0.0
 40
0.0003254722975166
 50
66.131019063019636
 51
122.2147083104491969
  0
ARC
  5
E627
  8
0
 10
757.4346230893013399
 20
104.6885938199963988
 30
0.0
 40
0.0001881538474914
 50
139.300295340974003
 51
169.506468113092609
  0
ARC
  5
E628
  8
0
 10
757.4350786363818315
 20
104.6885987940314067
 30
0.0
 40
0.0006412236066324
 50
177.3816119162158884
 51
208.158513160704814
  0
ARC
  5
E629
  8
0
 10
757.4487966211761432
 20
104.6958631490915934
 30
0.0
 40
0.0161639093224561
 50
207.9135632698533982
 51
219.5603786713527938
  0
ARC
  5
E62A
  8
0
 10
757.5920077165999373
 20
104.813658215240693
 30
0.0
 40
0.2015960611527888
 50
219.448030276733391
 51
225.3847002071719885
  0
ARC
  5
E62B
  8
0
 10
757.6174796323364262
 20
104.8343082963422006
 30
0.0
 40
0.2342137179315194
 50
224.4970363476662953
 51
228.630817795651609
  0
ARC
  5
E62C
  8
0
 10
757.4930951469693809
 20
104.6932928024759946
 30
0.0
 40
0.0461797888915376
 50
228.8145654567730958
 51
234.9970672804508922
  0
ARC
  5
E62D
  8
0
 10
757.4675507228719198
 20
104.6564791080541994
 30
0.0
 40
0.0013856122598902
 50
226.9906370732014977
 51
274.8229501522952773
  0
ARC
  5
E62E
  8
0
 10
757.4674926877512462
 20
104.655253811781094
 30
0.0
 40
0.0002336965613697
 50
318.3171221184085766
 51
20.8942946068604094
  0
ARC
  5
E62F
  8
0
 10
757.4537524702443534
 20
104.6484935986781011
 30
0.0
 40
0.0155459101473967
 50
26.1176694457307512
 51
40.8804524667486504
  0
ARC
  5
E630
  8
0
 10
757.299915636018909
 20
104.5205983454356016
 30
0.0
 40
0.2156004583445092
 50
39.8213941835720178
 51
45.0035292901476467
  0
ARC
  5
E631
  8
0
 10
756.9428298967046658
 20
104.545575520952994
 30
0.0
 40
0.5754752159633985
 50
44.7457620497444495
 51
48.7363462406586123
  0
ARC
  5
E632
  8
0
 10
757.1773508044641403
 20
104.8410103842393966
 30
0.0
 40
0.1995944934806548
 50
43.400393222099062
 51
52.6665169081055424
  0
ARC
  5
E633
  8
0
 10
757.2900471716955053
 20
104.9906550970103041
 30
0.0
 40
0.0123174160695262
 50
47.3305638895058891
 51
79.2196316442119439
  0
ARC
  5
E634
  8
0
 10
757.2920895467874516
 20
105.0013815684934002
 30
0.0
 40
0.0013982363158355
 50
79.2196316439467836
 51
163.4030414921855936
  0
ARC
  5
E635
  8
0
 10
757.302296318537401
 20
105.0038424129491972
 30
0.0
 40
0.011729328046824
 50
190.1224370811276003
 51
209.5462282978064081
  0
ARC
  5
E636
  8
0
 10
757.5234108160109372
 20
105.1327505041145969
 30
0.0
 40
0.267675599416682
 50
210.2113827182911905
 51
214.6249846502047092
  0
ARC
  5
E637
  8
0
 10
756.7644884003482275
 20
104.3731493879245988
 30
0.0
 40
0.8235272715007491
 50
39.998477163631307
 51
44.5313235004725669
  0
ARC
  5
E638
  8
0
 10
757.340897735306271
 20
104.856157534090201
 30
0.0
 40
0.0715020705897464
 50
25.0485613134795102
 51
40.3855836384738112
  0
ARC
  5
E639
  8
0
 10
757.398856915451347
 20
104.8830143837427045
 30
0.0
 40
0.0076260146396362
 50
0.2300276044126591
 51
26.6128306782907096
  0
ARC
  5
E63A
  8
0
 10
757.4016607953624316
 20
104.883025640649393
 30
0.0
 40
0.0048221121313219
 50
341.3787173380235913
 51
0.2300276044094023
  0
ARC
  5
E63B
  8
0
 10
757.4042148922942488
 20
104.8826088070738933
 30
0.0
 40
0.0023072718272709
 50
305.7356368083384268
 51
330.876875359852022
  0
ARC
  5
E63C
  8
0
 10
757.4052666665318156
 20
104.8818225407177067
 30
0.0
 40
0.0011261306639196
 50
252.786970656011988
 51
285.2274085407070174
  0
ARC
  5
E63D
  8
0
 10
757.4756349213091653
 20
105.0039777521463975
 30
0.0
 40
0.142072370769341
 50
231.1248763039118899
 51
240.1557299509379959
  0
LINE
  5
E63E
  8
0
 10
757.3953098831749458
 20
104.9025466146927954
 30
0.0
 11
757.3589834469319158
 21
104.8648592932193964
 31
0.0
  0
LINE
  5
E63F
  8
0
 10
757.3109303498623603
 20
104.9893157006611943
 30
0.0
 11
757.2743223943323301
 21
104.9486062092319969
 31
0.0
  0
ARC
  5
E640
  8
0
 10
757.2855747836917999
 20
104.9392934021472996
 30
0.0
 40
0.0146063219902665
 50
140.3878465221065142
 51
162.4155321368637885
  0
ARC
  5
E641
  8
0
 10
757.2845930737510116
 20
104.9404757046066976
 30
0.0
 40
0.0133391744862587
 50
165.9849627959268048
 51
206.0614384293168939
  0
ARC
  5
E642
  8
0
 10
757.342019658972049
 20
104.9754820625004044
 30
0.0
 40
0.080546660450082
 50
210.488607434579194
 51
222.9728713956893955
  0
ARC
  5
E643
  8
0
 10
757.64937386474287
 20
105.2431403820762057
 30
0.0
 40
0.4880718031401407
 50
221.3679938748717859
 51
224.8604669944344892
  0
ARC
  5
E644
  8
0
 10
757.8854325251793398
 20
105.4850391346229941
 30
0.0
 40
0.8260425190477562
 50
225.203990900550906
 51
227.8420925884105088
  0
ARC
  5
E645
  8
0
 10
757.3972132327614872
 20
104.9442766757147041
 30
0.0
 40
0.0975007498520389
 50
227.2362481591609082
 51
235.740361874696589
  0
ARC
  5
E646
  8
0
 10
757.350350086419553
 20
104.8753729433936996
 30
0.0
 40
0.0141709434811737
 50
235.5107841478186117
 51
271.5706643364143815
  0
ARC
  5
E647
  8
0
 10
757.3501416191918452
 20
104.8736880595749028
 30
0.0
 40
0.012495000326272
 50
272.738080820570417
 51
315.0423507038619846
  0
ARC
  5
E648
  8
0
 10
757.0958457360244438
 20
104.6945774781577967
 30
0.0
 40
0.2960478481578904
 50
44.5862267476897074
 51
46.7795886447694329
  0
ARC
  5
E649
  8
0
 10
757.1863214717102437
 20
104.790855594940794
 30
0.0
 40
0.1639292101115727
 50
46.779588644763578
 51
49.0852708968980025
  0
ARC
  5
E64A
  8
0
 10
757.262148344988077
 20
104.8783470738537034
 30
0.0
 40
0.0481515197156614
 50
49.0852708968971996
 51
54.0591017394276676
  0
ARC
  5
E64B
  8
0
 10
757.2862428953563949
 20
104.9115824177895036
 30
0.0
 40
0.0071011184508354
 50
54.0591017394913678
 51
66.1310190635325341
  0
ARC
  5
E64C
  8
0
 10
757.2889846372934244
 20
104.9177785643297938
 30
0.0
 40
0.0003254722975166
 50
66.131019063019636
 51
122.2147083104491969
  0
ARC
  5
E64D
  8
0
 10
757.2889537766575359
 20
104.9179312381436944
 30
0.0
 40
0.0001881538474914
 50
139.300295340974003
 51
169.506468113092609
  0
ARC
  5
E64E
  8
0
 10
757.289409323737118
 20
104.9179362121787022
 30
0.0
 40
0.0006412236066324
 50
177.3816119162158884
 51
208.158513160704814
  0
ARC
  5
E64F
  8
0
 10
757.3031273085314297
 20
104.9252005672389032
 30
0.0
 40
0.0161639093224561
 50
207.9135632698533982
 51
219.5603786713527938
  0
ARC
  5
E650
  8
0
 10
757.4463384039552238
 20
105.0429956333880028
 30
0.0
 40
0.2015960611527888
 50
219.448030276733391
 51
225.3847002071719885
  0
ARC
  5
E651
  8
0
 10
757.6917272492244138
 20
105.2930378460774961
 30
0.0
 40
0.5519337154265749
 50
225.4820945226173023
 51
228.1748483841666086
  0
ARC
  5
E652
  8
0
 10
757.3540742289239915
 20
104.9165001329105991
 30
0.0
 40
0.0461797888915376
 50
228.8145654567730958
 51
234.9970672804508922
  0
ARC
  5
E653
  8
0
 10
757.3285298048274399
 20
104.8796864384888039
 30
0.0
 40
0.0013856122598902
 50
226.9906370732014977
 51
274.8229501522952773
  0
ARC
  5
E654
  8
0
 10
757.3284717697067663
 20
104.8784611422156985
 30
0.0
 40
0.0002336965613697
 50
318.3171221184085766
 51
20.8942946068604094
  0
ARC
  5
E655
  8
0
 10
757.3147315521988503
 20
104.8717009291127056
 30
0.0
 40
0.0155459101473967
 50
26.1176694457307512
 51
40.8804524667486504
  0
ARC
  5
E656
  8
0
 10
756.9848230626173518
 20
104.5721130100046992
 30
0.0
 40
0.4611788874187221
 50
42.1964946073615366
 51
45.7395598893440791
  0
ARC
  5
E657
  8
0
 10
756.7441933192510533
 20
104.7130176937622963
 30
0.0
 40
0.5754752159633985
 50
44.7457620497444495
 51
48.7363462406586123
  0
ARC
  5
E658
  8
0
 10
756.9787142270103004
 20
105.0084525570486988
 30
0.0
 40
0.1995944934806548
 50
43.400393222099062
 51
52.6665169081055424
  0
ARC
  5
E659
  8
0
 10
757.0914105942416654
 20
105.1580972698196064
 30
0.0
 40
0.0123174160695262
 50
47.3305638895058891
 51
79.2196316442119439
  0
ARC
  5
E65A
  8
0
 10
757.0934529693338391
 20
105.168823741302603
 30
0.0
 40
0.0013982363158355
 50
79.2196316439467836
 51
163.4030414921855936
  0
ARC
  5
E65B
  8
0
 10
757.1036597410835611
 20
105.1712845857584995
 30
0.0
 40
0.011729328046824
 50
190.1224370811276003
 51
209.5462282978064081
  0
ARC
  5
E65C
  8
0
 10
757.3247742385570973
 20
105.3001926769237997
 30
0.0
 40
0.267675599416682
 50
210.2113827182911905
 51
214.6249846502055902
  0
ARC
  5
E65D
  8
0
 10
756.2265382969032999
 20
104.1880585947868951
 30
0.0
 40
1.3127116629978619
 50
41.5238037775801487
 51
45.1139717235393078
  0
ARC
  5
E65E
  8
0
 10
757.1548765232688538
 20
105.0119678316600016
 30
0.0
 40
0.0715020705897464
 50
25.0485613134795102
 51
40.3855836384738112
  0
ARC
  5
E65F
  8
0
 10
757.2128357034132478
 20
105.038824681312505
 30
0.0
 40
0.0076260146396362
 50
0.2300276044126591
 51
26.6128306782907096
  0
ARC
  5
E660
  8
0
 10
757.2156395833242186
 20
105.0388359382191936
 30
0.0
 40
0.0048221121313219
 50
341.3787173380235913
 51
0.2300276044094023
  0
ARC
  5
E661
  8
0
 10
757.2181936802560358
 20
105.0384191046436939
 30
0.0
 40
0.0023072718272709
 50
305.7356368083384268
 51
330.876875359852022
  0
ARC
  5
E662
  8
0
 10
757.2192454544936027
 20
105.0376328382874931
 30
0.0
 40
0.0011261306639196
 50
252.786970656011988
 51
285.2274085407070174
  0
ARC
  5
E663
  8
0
 10
757.2896137092709523
 20
105.1597880497161981
 30
0.0
 40
0.142072370769341
 50
231.124876303977004
 51
240.1557299509379959
  0
LINE
  5
E664
  8
0
 10
757.2092871996856047
 20
105.0583553856868946
 30
0.0
 11
757.1729622348946123
 21
105.0206695907891969
 31
0.0
  0
LINE
  5
E665
  8
0
 10
757.1122937724087478
 20
105.1567578734704966
 30
0.0
 11
757.0756858168786039
 21
105.1160483820412992
 31
0.0
  0
ARC
  5
E666
  8
0
 10
757.0869382062371642
 20
105.1067355749566019
 30
0.0
 40
0.0146063219902665
 50
140.3878465221065142
 51
162.4155321368637885
  0
ARC
  5
E667
  8
0
 10
757.0859564962962622
 20
105.1079178774159004
 30
0.0
 40
0.0133391744862587
 50
165.9849627959268048
 51
206.0614384293168939
  0
ARC
  5
E668
  8
0
 10
757.1433830815183228
 20
105.142924235309593
 30
0.0
 40
0.080546660450082
 50
210.488607434579194
 51
222.9728713956893955
  0
ARC
  5
E669
  8
0
 10
757.4507372872892574
 20
105.4105825548854938
 30
0.0
 40
0.4880718031401407
 50
221.3679938748717859
 51
224.8604669944344892
  0
ARC
  5
E66A
  8
0
 10
758.3160922269622688
 20
106.3146557894375945
 30
0.0
 40
1.7394421837757781
 50
225.8626884650865065
 51
227.680641659811414
  0
ARC
  5
E66B
  8
0
 10
757.2111920207231606
 20
105.1000869732845047
 30
0.0
 40
0.0975007498520389
 50
227.2362481591609082
 51
235.740361874696589
  0
ARC
  5
E66C
  8
0
 10
757.1643288743814537
 20
105.0311832409635002
 30
0.0
 40
0.0141709434811737
 50
235.5107841478186117
 51
271.5706643364143815
  0
ARC
  5
E66D
  8
0
 10
757.1641204071536322
 20
105.0294983571447034
 30
0.0
 40
0.012495000326272
 50
272.738080820570417
 51
315.0423507038619846
  0
ARC
  5
E66E
  8
0
 10
756.8972091585708313
 20
104.862019650967099
 30
0.0
 40
0.2960478481578904
 50
44.5862267476897074
 51
46.7795886447694329
  0
ARC
  5
E66F
  8
0
 10
756.9876848942564038
 20
104.9582977677499969
 30
0.0
 40
0.1639292101115727
 50
46.779588644763578
 51
49.0852708968980025
  0
ARC
  5
E670
  8
0
 10
757.0635117675343508
 20
105.0457892466629062
 30
0.0
 40
0.0481515197156614
 50
49.0852708968971996
 51
54.0591017394276676
  0
ARC
  5
E671
  8
0
 10
757.0876063179027824
 20
105.0790245905987064
 30
0.0
 40
0.0071011184508354
 50
54.0591017394913678
 51
66.1310190635325341
  0
ARC
  5
E672
  8
0
 10
757.0903480598396982
 20
105.0852207371390961
 30
0.0
 40
0.0003254722975166
 50
66.131019063019636
 51
122.2147083104491969
  0
ARC
  5
E673
  8
0
 10
757.0903171992029002
 20
105.0853734109529967
 30
0.0
 40
0.0001881538474914
 50
139.300295340974003
 51
169.506468113092609
  0
ARC
  5
E674
  8
0
 10
757.0907727462833918
 20
105.0853783849880045
 30
0.0
 40
0.0006412236066324
 50
177.3816119162158884
 51
208.158513160704814
  0
ARC
  5
E675
  8
0
 10
757.1044907310777035
 20
105.0926427400482055
 30
0.0
 40
0.0161639093224561
 50
207.9135632698533982
 51
219.5603786713527938
  0
ARC
  5
E676
  8
0
 10
757.2477018265014976
 20
105.2104378061973051
 30
0.0
 40
0.2015960611527888
 50
219.448030276733391
 51
225.3847002071719885
  0
ARC
  5
E677
  8
0
 10
758.1604072092602564
 20
106.1669160074453941
 30
0.0
 40
1.5236464283916309
 50
226.2149238602144976
 51
227.8355828692446892
  0
ARC
  5
E678
  8
0
 10
757.1680530168856649
 20
105.0723104304803996
 30
0.0
 40
0.0461797888915376
 50
228.8145654567730958
 51
234.9970672804508922
  0
ARC
  5
E679
  8
0
 10
757.1425085927891132
 20
105.0354967360586045
 30
0.0
 40
0.0013856122598902
 50
226.9906370732014977
 51
274.8229501522952773
  0
ARC
  5
E67A
  8
0
 10
757.1424505576685533
 20
105.0342714397854991
 30
0.0
 40
0.0002336965613697
 50
318.3171221184085766
 51
20.8942946068604094
  0
ARC
  5
E67B
  8
0
 10
757.128710340160751
 20
105.0275112266825062
 30
0.0
 40
0.0155459101473967
 50
26.1176694457307512
 51
40.8804524667486504
  0
ARC
  5
E67C
  8
0
 10
756.29184940714606
 20
104.2146945238791034
 30
0.0
 40
1.182142847318191
 50
44.1217971854921274
 51
46.3347305297912868
  0
ARC
  5
E67D
  8
0
 10
756.5687250737034901
 20
104.8883739322503033
 30
0.0
 40
0.5754752159633985
 50
44.7457620497444495
 51
48.7363462406586123
  0
ARC
  5
E67E
  8
0
 10
756.803245981462851
 20
105.1838087955367058
 30
0.0
 40
0.1995944934806548
 50
43.400393222099062
 51
52.6665169081055424
  0
ARC
  5
E67F
  8
0
 10
756.915942348694216
 20
105.3334535083076986
 30
0.0
 40
0.0123174160695262
 50
47.3305638895058891
 51
79.2196316442119439
  0
ARC
  5
E680
  8
0
 10
756.9179847237862759
 20
105.3441799797906953
 30
0.0
 40
0.0013982363158355
 50
79.2196316439467836
 51
163.4030414921855936
  0
ARC
  5
E681
  8
0
 10
756.9281914955361117
 20
105.3466408242465064
 30
0.0
 40
0.011729328046824
 50
190.1224370811276003
 51
209.5462282978064081
  0
ARC
  5
E682
  8
0
 10
757.1493059930096479
 20
105.4755489154119061
 30
0.0
 40
0.267675599416682
 50
210.2113827182911905
 51
214.6249846502059881
  0
ARC
  5
E683
  8
0
 10
756.5380284061573093
 20
104.8679426363868998
 30
0.0
 40
0.6117011841006882
 50
38.8213142735783023
 51
44.0808830201963673
  0
ARC
  5
E684
  8
0
 10
756.9601445177055439
 20
105.2050860331001019
 30
0.0
 40
0.0715020705897464
 50
25.0485613134795102
 51
40.3855836384738112
  0
ARC
  5
E685
  8
0
 10
757.0181036978499378
 20
105.2319428827527048
 30
0.0
 40
0.0076260146396362
 50
0.2300276044126591
 51
26.6128306782907096
  0
ARC
  5
E686
  8
0
 10
757.0209075777618182
 20
105.2319541396593934
 30
0.0
 40
0.0048221121313219
 50
341.3787173380235913
 51
0.2300276044094023
  0
ARC
  5
E687
  8
0
 10
757.0234616746927259
 20
105.2315373060838937
 30
0.0
 40
0.0023072718272709
 50
305.7356368083384268
 51
330.876875359852022
  0
ARC
  5
E688
  8
0
 10
757.0245134489302927
 20
105.2307510397277071
 30
0.0
 40
0.0011261306639196
 50
252.786970656011988
 51
285.2274085407070174
  0
ARC
  5
E689
  8
0
 10
757.0948817037085519
 20
105.3529062511563978
 30
0.0
 40
0.142072370769341
 50
231.1248763037116873
 51
240.1557299509379959
  0
LINE
  5
E68A
  8
0
 10
757.014557806574885
 20
105.2514762974492015
 30
0.0
 11
756.9782302293313023
 21
105.2137877922293967
 31
0.0
  0
LINE
  5
E68B
  8
0
 10
756.9368255268611847
 20
105.3321141119585036
 30
0.0
 11
756.9002175713310407
 21
105.2914046205293062
 31
0.0
  0
ARC
  5
E68C
  8
0
 10
756.9114699606905106
 20
105.2820918134445947
 30
0.0
 40
0.0146063219902665
 50
140.3878465221065142
 51
162.4155321368637885
  0
ARC
  5
E68D
  8
0
 10
756.9104882507497223
 20
105.2832741159040069
 30
0.0
 40
0.0133391744862587
 50
165.9849627959268048
 51
206.0614384293168939
  0
ARC
  5
E68E
  8
0
 10
756.967914835970646
 20
105.3182804737976994
 30
0.0
 40
0.080546660450082
 50
210.488607434579194
 51
222.9728713956893955
  0
ARC
  5
E68F
  8
0
 10
757.2752690417415806
 20
105.5859387933735007
 30
0.0
 40
0.4880718031401407
 50
221.3679938748717859
 51
224.8604669944344892
  0
ARC
  5
E690
  8
0
 10
757.2714094102436775
 20
105.5783478027484961
 30
0.0
 40
0.4799888006447149
 50
224.5431611340059135
 51
228.0040216486414977
  0
ARC
  5
E691
  8
0
 10
757.0164600151598506
 20
105.2932051747246049
 30
0.0
 40
0.0975007498520389
 50
227.2362481591609082
 51
235.740361874696589
  0
ARC
  5
E692
  8
0
 10
756.9695968688181438
 20
105.2243014424037
 30
0.0
 40
0.0141709434811737
 50
235.5107841478186117
 51
271.5706643364143815
  0
ARC
  5
E693
  8
0
 10
756.9693884015903222
 20
105.2226165585849031
 30
0.0
 40
0.012495000326272
 50
272.738080820570417
 51
315.0423507038619846
  0
ARC
  5
E694
  8
0
 10
756.7217409130232681
 20
105.0373758894551059
 30
0.0
 40
0.2960478481578904
 50
44.5862267476897074
 51
46.7795886447694329
  0
ARC
  5
E695
  8
0
 10
756.8122166487089544
 20
105.1336540062381033
 30
0.0
 40
0.1639292101115727
 50
46.779588644763578
 51
49.0852708968980025
  0
ARC
  5
E696
  8
0
 10
756.8880435219869014
 20
105.2211454851509984
 30
0.0
 40
0.0481515197156614
 50
49.0852708968971996
 51
54.0591017394276676
  0
ARC
  5
E697
  8
0
 10
756.9121380723552193
 20
105.2543808290867986
 30
0.0
 40
0.0071011184508354
 50
54.0591017394913678
 51
66.1310190635325341
  0
ARC
  5
E698
  8
0
 10
756.9148798142921351
 20
105.260576975627103
 30
0.0
 40
0.0003254722975166
 50
66.131019063019636
 51
122.2147083104491969
  0
ARC
  5
E699
  8
0
 10
756.9148489536562465
 20
105.2607296494410036
 30
0.0
 40
0.0001881538474914
 50
139.300295340974003
 51
169.506468113092609
  0
ARC
  5
E69A
  8
0
 10
756.9153045007358287
 20
105.2607346234759973
 30
0.0
 40
0.0006412236066324
 50
177.3816119162158884
 51
208.158513160704814
  0
ARC
  5
E69B
  8
0
 10
756.9290224855301403
 20
105.2679989785361983
 30
0.0
 40
0.0161639093224561
 50
207.9135632698533982
 51
219.5603786713527938
  0
ARC
  5
E69C
  8
0
 10
757.0722335809539345
 20
105.3857940446852979
 30
0.0
 40
0.2015960611527888
 50
219.448030276733391
 51
225.3847002071719885
  0
ARC
  5
E69D
  8
0
 10
757.0977054966913329
 20
105.4064441257868054
 30
0.0
 40
0.2342137179315194
 50
224.4970363476662953
 51
228.630817795651609
  0
ARC
  5
E69E
  8
0
 10
756.9733210113232644
 20
105.2654286319204999
 30
0.0
 40
0.0461797888915376
 50
228.8145654567730958
 51
234.9970672804508922
  0
ARC
  5
E69F
  8
0
 10
756.9477765872268265
 20
105.2286149374988042
 30
0.0
 40
0.0013856122598902
 50
226.9906370732014977
 51
274.8229501522952773
  0
ARC
  5
E6A0
  8
0
 10
756.9477185521052434
 20
105.2273896412255993
 30
0.0
 40
0.0002336965613697
 50
318.3171221184085766
 51
20.8942946068604094
  0
ARC
  5
E6A1
  8
0
 10
756.9339783345983506
 20
105.2206294281227059
 30
0.0
 40
0.0155459101473967
 50
26.1176694457307512
 51
40.8804524667486504
  0
ARC
  5
E6A2
  8
0
 10
756.7801415003730199
 20
105.0927341748802064
 30
0.0
 40
0.2156004583445092
 50
39.8213941835720178
 51
45.0035292901476467
  0
ARC
  5
E6A3
  8
0
 10
757.4447059147503296
 20
103.939152509012203
 30
0.0
 40
0.5754752159633985
 50
44.7457620497444495
 51
48.7363462406586123
  0
ARC
  5
E6A4
  8
0
 10
757.6792268225106
 20
104.2345873722987051
 30
0.0
 40
0.1995944934806548
 50
43.400393222099062
 51
52.6665169081055424
  0
ARC
  5
E6A5
  8
0
 10
757.791923189741965
 20
104.3842320850695984
 30
0.0
 40
0.0123174160695262
 50
47.3305638895058891
 51
79.2196316442119439
  0
ARC
  5
E6A6
  8
0
 10
757.7939655648340249
 20
104.394958556552595
 30
0.0
 40
0.0013982363158355
 50
79.2196316439467836
 51
163.4030414921855936
  0
ARC
  5
E6A7
  8
0
 10
757.8041723365829512
 20
104.3974194010085057
 30
0.0
 40
0.011729328046824
 50
190.1224370811276003
 51
209.5462282978064081
  0
ARC
  5
E6A8
  8
0
 10
758.0252868340573968
 20
104.5263274921738059
 30
0.0
 40
0.267675599416682
 50
210.2113827182911905
 51
214.6249846502047092
  0
ARC
  5
E6A9
  8
0
 10
757.4140092472049446
 20
103.9187212131488991
 30
0.0
 40
0.6117011841006882
 50
38.8213142735783023
 51
44.0808830201963673
  0
ARC
  5
E6AA
  8
0
 10
757.836125358752497
 20
104.2558646098621011
 30
0.0
 40
0.0715020705897464
 50
25.0485613134795102
 51
40.3855836384738112
  0
ARC
  5
E6AB
  8
0
 10
757.8940845388975731
 20
104.2827214595146046
 30
0.0
 40
0.0076260146396362
 50
0.2300276044126591
 51
26.6128306782907096
  0
ARC
  5
E6AC
  8
0
 10
757.896888418808544
 20
104.2827327164214068
 30
0.0
 40
0.0048221121313219
 50
341.3787173380235913
 51
0.2300276044094023
  0
ARC
  5
E6AD
  8
0
 10
757.8994425157404748
 20
104.2823158828458929
 30
0.0
 40
0.0023072718272709
 50
305.7356368083384268
 51
330.876875359852022
  0
ARC
  5
E6AE
  8
0
 10
757.9004942899780417
 20
104.2815296164896068
 30
0.0
 40
0.0011261306639196
 50
252.786970656011988
 51
285.2274085407070174
  0
ARC
  5
E6AF
  8
0
 10
757.9708625447553914
 20
104.4036848279182976
 30
0.0
 40
0.142072370769341
 50
231.1248763039118899
 51
240.1557299509379959
  0
LINE
  5
E6B0
  8
0
 10
757.890538647622634
 20
104.3022548742112008
 30
0.0
 11
757.8542110703781418
 21
104.2645663689912965
 31
0.0
  0
LINE
  5
E6B1
  8
0
 10
757.8128063679089337
 20
104.3828926887205029
 30
0.0
 11
757.7761984123787897
 21
104.3421831972913054
 31
0.0
  0
ARC
  5
E6B2
  8
0
 10
757.78745080173735
 20
104.3328703902065939
 30
0.0
 40
0.0146063219902665
 50
140.3878465221065142
 51
162.4155321368637885
  0
ARC
  5
E6B3
  8
0
 10
757.7864690917964481
 20
104.3340526926659066
 30
0.0
 40
0.0133391744862587
 50
165.9849627959268048
 51
206.0614384293168939
  0
ARC
  5
E6B4
  8
0
 10
757.8438956770185086
 20
104.3690590505595992
 30
0.0
 40
0.080546660450082
 50
210.488607434579194
 51
222.9728713956893955
  0
ARC
  5
E6B5
  8
0
 10
758.1512498827885338
 20
104.6367173701354005
 30
0.0
 40
0.4880718031401407
 50
221.3679938748717859
 51
224.8604669944344892
  0
ARC
  5
E6B6
  8
0
 10
758.1473902512914265
 20
104.6291263795103959
 30
0.0
 40
0.4799888006447149
 50
224.5431611340059135
 51
228.0040216486414977
  0
ARC
  5
E6B7
  8
0
 10
757.8924408562077133
 20
104.3439837514866042
 30
0.0
 40
0.0975007498520389
 50
227.2362481591609082
 51
235.740361874696589
  0
ARC
  5
E6B8
  8
0
 10
757.8455777098658928
 20
104.2750800191656992
 30
0.0
 40
0.0141709434811737
 50
235.5107841478186117
 51
271.5706643364143815
  0
ARC
  5
E6B9
  8
0
 10
757.8453692426379575
 20
104.2733951353469024
 30
0.0
 40
0.012495000326272
 50
272.738080820570417
 51
315.0423507038619846
  0
ARC
  5
E6BA
  8
0
 10
757.5977217540699939
 20
104.0881544662171052
 30
0.0
 40
0.2960478481578904
 50
44.5862267476897074
 51
46.7795886447694329
  0
ARC
  5
E6BB
  8
0
 10
757.6881974897567034
 20
104.1844325830001026
 30
0.0
 40
0.1639292101115727
 50
46.779588644763578
 51
49.0852708968980025
  0
ARC
  5
E6BC
  8
0
 10
757.7640243630346504
 20
104.2719240619129977
 30
0.0
 40
0.0481515197156614
 50
49.0852708968971996
 51
54.0591017394276676
  0
ARC
  5
E6BD
  8
0
 10
757.7881189134028546
 20
104.3051594058487979
 30
0.0
 40
0.0071011184508354
 50
54.0591017394913678
 51
66.1310190635325341
  0
ARC
  5
E6BE
  8
0
 10
757.790860655339884
 20
104.3113555523891023
 30
0.0
 40
0.0003254722975166
 50
66.131019063019636
 51
122.2147083104491969
  0
ARC
  5
E6BF
  8
0
 10
757.790829794703086
 20
104.3115082262030029
 30
0.0
 40
0.0001881538474914
 50
139.300295340974003
 51
169.506468113092609
  0
ARC
  5
E6C0
  8
0
 10
757.791285341783464
 20
104.3115132002379966
 30
0.0
 40
0.0006412236066324
 50
177.3816119162158884
 51
208.158513160704814
  0
ARC
  5
E6C1
  8
0
 10
757.8050033265777756
 20
104.3187775552981975
 30
0.0
 40
0.0161639093224561
 50
207.9135632698533982
 51
219.5603786713527938
  0
ARC
  5
E6C2
  8
0
 10
757.9482144220015698
 20
104.4365726214472971
 30
0.0
 40
0.2015960611527888
 50
219.448030276733391
 51
225.3847002071719885
  0
ARC
  5
E6C3
  8
0
 10
757.9736863377380587
 20
104.4572227025488047
 30
0.0
 40
0.2342137179315194
 50
224.4970363476662953
 51
228.630817795651609
  0
ARC
  5
E6C4
  8
0
 10
757.8493018523702176
 20
104.3162072086824992
 30
0.0
 40
0.0461797888915376
 50
228.8145654567730958
 51
234.9970672804508922
  0
ARC
  5
E6C5
  8
0
 10
757.8237574282735523
 20
104.2793935142608035
 30
0.0
 40
0.0013856122598902
 50
226.9906370732014977
 51
274.8229501522952773
  0
ARC
  5
E6C6
  8
0
 10
757.8236993931529923
 20
104.2781682179875986
 30
0.0
 40
0.0002336965613697
 50
318.3171221184085766
 51
20.8942946068604094
  0
ARC
  5
E6C7
  8
0
 10
757.8099591756450764
 20
104.2714080048847052
 30
0.0
 40
0.0155459101473967
 50
26.1176694457307512
 51
40.8804524667486504
  0
ARC
  5
E6C8
  8
0
 10
757.6561223414206552
 20
104.1435127516422057
 30
0.0
 40
0.2156004583445092
 50
39.8213941835720178
 51
45.0035292901476467
  0
ARC
  5
E6C9
  8
0
 10
757.2404875216632263
 20
104.1043140543524999
 30
0.0
 40
0.5754752159633985
 50
44.7457620497444495
 51
48.7363462406586123
  0
ARC
  5
E6CA
  8
0
 10
757.4750084294234966
 20
104.3997489176389024
 30
0.0
 40
0.1995944934806548
 50
43.400393222099062
 51
52.6665169081055424
  0
ARC
  5
E6CB
  8
0
 10
757.5877047966548616
 20
104.5493936304097957
 30
0.0
 40
0.0123174160695262
 50
47.3305638895058891
 51
79.2196316442119439
  0
ARC
  5
E6CC
  8
0
 10
757.5897471717468079
 20
104.5601201018928066
 30
0.0
 40
0.0013982363158355
 50
79.2196316439467836
 51
163.4030414921855936
  0
ARC
  5
E6CD
  8
0
 10
757.5999539434958479
 20
104.562580946348703
 30
0.0
 40
0.011729328046824
 50
190.1224370811276003
 51
209.5462282978064081
  0
ARC
  5
E6CE
  8
0
 10
757.8210684409702935
 20
104.6914890375140033
 30
0.0
 40
0.267675599416682
 50
210.2113827182911905
 51
214.6249846502066987
  0
ARC
  5
E6CF
  8
0
 10
757.209790854117955
 20
104.0838827584890964
 30
0.0
 40
0.6117011841006882
 50
38.8213142735783023
 51
44.0808830201963673
  0
ARC
  5
E6D0
  8
0
 10
757.6319069656663032
 20
104.4210261552022985
 30
0.0
 40
0.0715020705897464
 50
25.0485613134795102
 51
40.3855836384738112
  0
ARC
  5
E6D1
  8
0
 10
757.6898661458104698
 20
104.4478830048549014
 30
0.0
 40
0.0076260146396362
 50
0.2300276044126591
 51
26.6128306782907096
  0
ARC
  5
E6D2
  8
0
 10
757.6926700257215543
 20
104.4478942617615047
 30
0.0
 40
0.0048221121313219
 50
341.3787173380235913
 51
0.2300276044094023
  0
ARC
  5
E6D3
  8
0
 10
757.6952241226533715
 20
104.4474774281861045
 30
0.0
 40
0.0023072718272709
 50
305.7356368083384268
 51
330.876875359852022
  0
ARC
  5
E6D4
  8
0
 10
757.6962758968909384
 20
104.4466911618298042
 30
0.0
 40
0.0011261306639196
 50
252.786970656011988
 51
285.2274085407070174
  0
ARC
  5
E6D5
  8
0
 10
757.766644151668288
 20
104.568846373258495
 30
0.0
 40
0.142072370769341
 50
231.1248763039118899
 51
240.1557299509379959
  0
LINE
  5
E6D6
  8
0
 10
757.6863202671289628
 20
104.4674164326167016
 30
0.0
 11
757.6499926772910385
 21
104.4297279143314938
 31
0.0
  0
LINE
  5
E6D7
  8
0
 10
757.6085879748218304
 20
104.5480542340607002
 30
0.0
 11
757.5719800192915727
 21
104.5073447426315028
 31
0.0
  0
ARC
  5
E6D8
  8
0
 10
757.5832324086502467
 20
104.4980319355468055
 30
0.0
 40
0.0146063219902665
 50
140.3878465221065142
 51
162.4155321368637885
  0
ARC
  5
E6D9
  8
0
 10
757.5822506987093448
 20
104.499214238006104
 30
0.0
 40
0.0133391744862587
 50
165.9849627959268048
 51
206.0614384293168939
  0
ARC
  5
E6DA
  8
0
 10
757.6396772839314053
 20
104.5342205958997965
 30
0.0
 40
0.080546660450082
 50
210.488607434579194
 51
222.9728713956893955
  0
ARC
  5
E6DB
  8
0
 10
757.9470314897014305
 20
104.8018789154756973
 30
0.0
 40
0.4880718031401407
 50
221.3679938748717859
 51
224.8604669944344892
  0
ARC
  5
E6DC
  8
0
 10
757.9431718582043231
 20
104.7942879248505932
 30
0.0
 40
0.4799888006447149
 50
224.5431611340059135
 51
228.0040216486414977
  0
ARC
  5
E6DD
  8
0
 10
757.68822246312061
 20
104.5091452968268015
 30
0.0
 40
0.0975007498520389
 50
227.2362481591609082
 51
235.740361874696589
  0
ARC
  5
E6DE
  8
0
 10
757.6413593167787894
 20
104.4402415645058966
 30
0.0
 40
0.0141709434811737
 50
235.5107841478186117
 51
271.5706643364143815
  0
ARC
  5
E6DF
  8
0
 10
757.6411508495508542
 20
104.4385566806870003
 30
0.0
 40
0.012495000326272
 50
272.738080820570417
 51
315.0423507038619846
  0
ARC
  5
E6E0
  8
0
 10
757.3935033609838001
 20
104.2533160115573025
 30
0.0
 40
0.2960478481578904
 50
44.5862267476897074
 51
46.7795886447694329
  0
ARC
  5
E6E1
  8
0
 10
757.4839790966696
 20
104.3495941283402999
 30
0.0
 40
0.1639292101115727
 50
46.779588644763578
 51
49.0852708968980025
  0
ARC
  5
E6E2
  8
0
 10
757.5598059699466376
 20
104.4370856072530955
 30
0.0
 40
0.0481515197156614
 50
49.0852708968971996
 51
54.0591017394276676
  0
ARC
  5
E6E3
  8
0
 10
757.5839005203158649
 20
104.4703209511889952
 30
0.0
 40
0.0071011184508354
 50
54.0591017394913678
 51
66.1310190635325341
  0
ARC
  5
E6E4
  8
0
 10
757.5866422622517575
 20
104.4765170977292996
 30
0.0
 40
0.0003254722975166
 50
66.131019063019636
 51
122.2147083104491969
  0
ARC
  5
E6E5
  8
0
 10
757.586611401615869
 20
104.4766697715432002
 30
0.0
 40
0.0001881538474914
 50
139.300295340974003
 51
169.506468113092609
  0
ARC
  5
E6E6
  8
0
 10
757.5870669486963607
 20
104.4766747455781939
 30
0.0
 40
0.0006412236066324
 50
177.3816119162158884
 51
208.158513160704814
  0
ARC
  5
E6E7
  8
0
 10
757.6007849334906723
 20
104.4839391006383948
 30
0.0
 40
0.0161639093224561
 50
207.9135632698533982
 51
219.5603786713527938
  0
ARC
  5
E6E8
  8
0
 10
757.7439960289145802
 20
104.6017341667874945
 30
0.0
 40
0.2015960611527888
 50
219.448030276733391
 51
225.3847002071719885
  0
ARC
  5
E6E9
  8
0
 10
757.7694679446509554
 20
104.622384247889002
 30
0.0
 40
0.2342137179315194
 50
224.4970363476662953
 51
228.630817795651609
  0
ARC
  5
E6EA
  8
0
 10
757.6450834592831143
 20
104.4813687540226965
 30
0.0
 40
0.0461797888915376
 50
228.8145654567730958
 51
234.9970672804508922
  0
ARC
  5
E6EB
  8
0
 10
757.6195390351864489
 20
104.4445550596010008
 30
0.0
 40
0.0013856122598902
 50
226.9906370732014977
 51
274.8229501522952773
  0
ARC
  5
E6EC
  8
0
 10
757.6194810000657753
 20
104.4433297633277959
 30
0.0
 40
0.0002336965613697
 50
318.3171221184085766
 51
20.8942946068604094
  0
ARC
  5
E6ED
  8
0
 10
757.605740782557973
 20
104.436569550224803
 30
0.0
 40
0.0155459101473967
 50
26.1176694457307512
 51
40.8804524667486504
  0
ARC
  5
E6EE
  8
0
 10
757.4519039483336655
 20
104.308674296982403
 30
0.0
 40
0.2156004583445092
 50
39.8213941835720178
 51
45.0035292901476467
  0
ARC
  5
E6EF
  8
0
 10
757.8096635116269226
 20
103.5852506717722008
 30
0.0
 40
0.5754752159633985
 50
44.7457620497444495
 51
48.7363462406586123
  0
ARC
  5
E6F0
  8
0
 10
758.0441844193870793
 20
103.8806855350586034
 30
0.0
 40
0.1995944934806548
 50
43.400393222099062
 51
52.6665169081055424
  0
ARC
  5
E6F1
  8
0
 10
758.1568807866176485
 20
104.0303302478294967
 30
0.0
 40
0.0123174160695262
 50
47.3305638895058891
 51
79.2196316442119439
  0
ARC
  5
E6F2
  8
0
 10
758.1589231617106179
 20
104.041056719312607
 30
0.0
 40
0.0013982363158355
 50
79.2196316439467836
 51
163.4030414921855936
  0
ARC
  5
E6F3
  8
0
 10
758.1691299334595442
 20
104.043517563768404
 30
0.0
 40
0.011729328046824
 50
190.1224370811276003
 51
209.5462282978064081
  0
ARC
  5
E6F4
  8
0
 10
758.3902444309338762
 20
104.1724256549337042
 30
0.0
 40
0.267675599416682
 50
210.2113827182911905
 51
214.6249846502047092
  0
ARC
  5
E6F5
  8
0
 10
757.7789668440816513
 20
103.5648193759087974
 30
0.0
 40
0.6117011841006882
 50
38.8213142735783023
 51
44.0808830201963673
  0
ARC
  5
E6F6
  8
0
 10
758.2010829556289764
 20
103.9019627726219994
 30
0.0
 40
0.0715020705897464
 50
25.0485613134795102
 51
40.3855836384738112
  0
ARC
  5
E6F7
  8
0
 10
758.2590421357742798
 20
103.9288196222746024
 30
0.0
 40
0.0076260146396362
 50
0.2300276044126591
 51
26.6128306782907096
  0
ARC
  5
E6F8
  8
0
 10
758.2618460156852507
 20
103.9288308791813051
 30
0.0
 40
0.0048221121313219
 50
341.3787173380235913
 51
0.2300276044094023
  0
ARC
  5
E6F9
  8
0
 10
758.2644001126169542
 20
103.9284140456058054
 30
0.0
 40
0.0023072718272709
 50
305.7356368083384268
 51
330.876875359852022
  0
ARC
  5
E6FA
  8
0
 10
758.2654518868546347
 20
103.9276277792495051
 30
0.0
 40
0.0011261306639196
 50
252.786970656011988
 51
285.2274085407070174
  0
ARC
  5
E6FB
  8
0
 10
758.3358201416318707
 20
104.0497829906781959
 30
0.0
 40
0.142072370769341
 50
231.1248763039116056
 51
240.1557299509379959
  0
LINE
  5
E6FC
  8
0
 10
758.255496244499227
 20
103.9483530369710991
 30
0.0
 11
758.2191686672547348
 21
103.9106645317511948
 31
0.0
  0
LINE
  5
E6FD
  8
0
 10
758.1777639647855267
 20
104.0289908514804011
 30
0.0
 11
758.1411560092552691
 21
103.9882813600512037
 31
0.0
  0
ARC
  5
E6FE
  8
0
 10
758.1524083986139431
 20
103.9789685529665064
 30
0.0
 40
0.0146063219902665
 50
140.3878465221065142
 51
162.4155321368637885
  0
ARC
  5
E6FF
  8
0
 10
758.1514266886731548
 20
103.9801508554258049
 30
0.0
 40
0.0133391744862587
 50
165.9849627959268048
 51
206.0614384293168939
  0
ARC
  5
E700
  8
0
 10
758.2088532738951017
 20
104.0151572133194975
 30
0.0
 40
0.080546660450082
 50
210.488607434579194
 51
222.9728713956893955
  0
ARC
  5
E701
  8
0
 10
758.5162074796651268
 20
104.2828155328953983
 30
0.0
 40
0.4880718031401407
 50
221.3679938748717859
 51
224.8604669944344892
  0
ARC
  5
E702
  8
0
 10
758.5123478481680195
 20
104.2752245422702941
 30
0.0
 40
0.4799888006447149
 50
224.5431611340059135
 51
228.0040216486414977
  0
ARC
  5
E703
  8
0
 10
758.2573984530832831
 20
103.9900819142465025
 30
0.0
 40
0.0975007498520389
 50
227.2362481591609082
 51
235.740361874696589
  0
ARC
  5
E704
  8
0
 10
758.2105353067424858
 20
103.9211781819255975
 30
0.0
 40
0.0141709434811737
 50
235.5107841478186117
 51
271.5706643364143815
  0
ARC
  5
E705
  8
0
 10
758.2103268395146642
 20
103.9194932981068007
 30
0.0
 40
0.012495000326272
 50
272.738080820570417
 51
315.0423507038619846
  0
ARC
  5
E706
  8
0
 10
757.9626793509467007
 20
103.7342526289770035
 30
0.0
 40
0.2960478481578904
 50
44.5862267476897074
 51
46.7795886447694329
  0
ARC
  5
E707
  8
0
 10
758.0531550866331827
 20
103.8305307457600009
 30
0.0
 40
0.1639292101115727
 50
46.779588644763578
 51
49.0852708968980025
  0
ARC
  5
E708
  8
0
 10
758.1289819599103339
 20
103.918022224672896
 30
0.0
 40
0.0481515197156614
 50
49.0852708968971996
 51
54.0591017394276676
  0
ARC
  5
E709
  8
0
 10
758.1530765102795613
 20
103.9512575686086961
 30
0.0
 40
0.0071011184508354
 50
54.0591017394913678
 51
66.1310190635325341
  0
ARC
  5
E70A
  8
0
 10
758.1558182522154539
 20
103.9574537151490006
 30
0.0
 40
0.0003254722975166
 50
66.131019063019636
 51
122.2147083104491969
  0
ARC
  5
E70B
  8
0
 10
758.1557873915795653
 20
103.9576063889629012
 30
0.0
 40
0.0001881538474914
 50
139.300295340974003
 51
169.506468113092609
  0
ARC
  5
E70C
  8
0
 10
758.1562429386591475
 20
103.9576113629978948
 30
0.0
 40
0.0006412236066324
 50
177.3816119162158884
 51
208.158513160704814
  0
ARC
  5
E70D
  8
0
 10
758.1699609234544823
 20
103.9648757180580958
 30
0.0
 40
0.0161639093224561
 50
207.9135632698533982
 51
219.5603786713527938
  0
ARC
  5
E70E
  8
0
 10
758.3131720188782765
 20
104.0826707842071954
 30
0.0
 40
0.2015960611527888
 50
219.448030276733391
 51
225.3847002071719885
  0
ARC
  5
E70F
  8
0
 10
758.3386439346146517
 20
104.103320865308703
 30
0.0
 40
0.2342137179315194
 50
224.4970363476662953
 51
228.630817795651609
  0
ARC
  5
E710
  8
0
 10
758.2142594492466969
 20
103.9623053714423975
 30
0.0
 40
0.0461797888915376
 50
228.8145654567730958
 51
234.9970672804508922
  0
ARC
  5
E711
  8
0
 10
758.1887150251501453
 20
103.9254916770207018
 30
0.0
 40
0.0013856122598902
 50
226.9906370732014977
 51
274.8229501522952773
  0
ARC
  5
E712
  8
0
 10
758.1886569900294717
 20
103.9242663807474969
 30
0.0
 40
0.0002336965613697
 50
318.3171221184085766
 51
20.8942946068604094
  0
ARC
  5
E713
  8
0
 10
758.1749167725217831
 20
103.9175061676446035
 30
0.0
 40
0.0155459101473967
 50
26.1176694457307512
 51
40.8804524667486504
  0
ARC
  5
E714
  8
0
 10
758.0210799382973619
 20
103.789610914402104
 30
0.0
 40
0.2156004583445092
 50
39.8213941835720178
 51
45.0035292901476467
  0
ARC
  5
E715
  8
0
 10
756.8177950536835397
 20
105.4912001099994967
 30
0.0
 40
0.018755716802734
 50
175.7872445620735959
 51
210.2876515080313879
  0
LINE
  5
E716
  8
0
 10
756.8015994121885797
 20
105.481740823062907
 30
0.0
 11
756.9166447411578247
 21
105.3445793685097982
 31
0.0
  0
LINE
  5
E717
  8
0
 10
757.0960328788529523
 20
105.1386751180351951
 30
0.0
 11
757.017966661538253
 21
105.2334548601051978
 31
0.0
  0
LINE
  5
E718
  8
0
 10
757.1911260298127218
 20
105.0395138499316943
 30
0.0
 11
757.2727504755036989
 21
104.9462849514449942
 31
0.0
  0
LINE
  5
E719
  8
0
 10
757.0740781125083458
 20
105.1018805295784944
 30
0.0
 11
757.060376820614465
 21
105.0866456710359955
 31
0.0
  0
ARC
  5
E71A
  8
0
 10
757.0691584366784355
 20
105.0787480273095014
 30
0.0
 40
0.0118105697207404
 50
138.0337403633213
 51
222.2373992179369111
  0
LINE
  5
E71B
  8
0
 10
757.0604142926538316
 20
105.0708089151173965
 30
0.0
 11
757.1186826558057419
 21
105.0066320969565936
 31
0.0
  0
ARC
  5
E71C
  8
0
 10
757.1274224229289302
 20
105.0145672352069965
 30
0.0
 40
0.0118046579116614
 50
222.2373992179298057
 51
316.0426830074561053
  0
LINE
  5
E71D
  8
0
 10
757.1359200896538368
 20
105.0063733589174007
 30
0.0
 11
757.15175991301453
 21
105.0227938895379936
 31
0.0
  0
LINE
  5
E71E
  8
0
 10
757.2726101803325491
 20
104.9346153427323003
 30
0.0
 11
757.2333667374530251
 21
104.8963913739173961
 31
0.0
  0
ARC
  5
E71F
  8
0
 10
757.2425429935453849
 20
104.8882426350899948
 30
0.0
 40
0.0122721481555543
 50
138.3941435877335948
 51
221.2723127442110922
  0
ARC
  5
E720
  8
0
 10
757.9456846453300614
 20
105.4755661920176948
 30
0.0
 40
0.9284328936067113
 50
219.8900099402563058
 51
225.3816823849597029
  0
ARC
  5
E721
  8
0
 10
757.3011812493602974
 20
104.8237919117849941
 30
0.0
 40
0.0118486716704183
 50
230.2551300317061873
 51
318.556899614552492
  0
LINE
  5
E722
  8
0
 10
757.310063172296168
 20
104.8159495610326957
 30
0.0
 11
757.3500224477973006
 21
104.8612057879954023
 31
0.0
  0
LINE
  5
E723
  8
0
 10
757.417320289776967
 20
104.7143687215847052
 30
0.0
 11
757.3995843541539443
 21
104.6951851393374966
 31
0.0
  0
ARC
  5
E724
  8
0
 10
757.4106359031409283
 20
104.6868374444590017
 30
0.0
 40
0.0138499366354074
 50
142.934730704081602
 51
207.414287348145109
  0
LINE
  5
E725
  8
0
 10
757.3983413060584553
 20
104.6804606406056024
 30
0.0
 11
757.4597857513532517
 21
104.6180088098173968
 31
0.0
  0
ARC
  5
E726
  8
0
 10
757.4682051455063174
 20
104.626292877221104
 30
0.0
 40
0.0118113220729689
 50
224.5358541842356033
 51
316.5316086881479123
  0
LINE
  5
E727
  8
0
 10
757.4767772598531792
 20
104.6181672274174019
 30
0.0
 11
757.4980038208766473
 21
104.641652313184693
 31
0.0
  0
LINE
  5
E728
  8
0
 10
757.6974301663027518
 20
104.447123660010007
 30
0.0
 11
757.7845966425971937
 21
104.3515223607640934
 31
0.0
  0
LINE
  5
E729
  8
0
 10
757.749044064380314
 20
104.3905152490119974
 30
0.0
 11
757.7174359288488859
 21
104.3556405940640985
 31
0.0
  0
ARC
  5
E72A
  8
0
 10
757.7272578517520287
 20
104.3476851994659995
 30
0.0
 40
0.0126395598315314
 50
140.9938059443348948
 51
230.5747224193831073
  0
LINE
  5
E72B
  8
0
 10
757.7192308292530925
 20
104.3379217276173989
 30
0.0
 11
757.9386721228718216
 21
104.1250371676343036
 31
0.0
  0
ARC
  5
E72C
  8
0
 10
757.949307675933369
 20
104.1353344442078992
 30
0.0
 40
0.0148178885612018
 50
223.587432840544011
 51
266.0626140550181731
  0
LINE
  5
E72D
  8
0
 10
757.8794310513717392
 20
104.2662626131795065
 30
0.0
 11
757.8467255596584664
 21
104.2311480437567042
 31
0.0
  0
ARC
  5
E72E
  8
0
 10
757.8563690942517042
 20
104.2221661155742964
 30
0.0
 40
0.0131784973846382
 50
137.0343829269239961
 51
206.1580973075508894
  0
LINE
  5
E72F
  8
0
 10
757.8203293329595454
 20
104.2778139765914034
 30
0.0
 11
757.8093168332039795
 21
104.265990299070296
 31
0.0
  0
ARC
  5
E730
  8
0
 10
757.817607590821126
 20
104.2582683389550056
 30
0.0
 40
0.0113298424477255
 50
137.0343829268630884
 51
225.1321780903849117
  0
LINE
  5
E731
  8
0
 10
757.7735269951788268
 20
104.3372831277912951
 30
0.0
 11
757.7554666915664257
 21
104.3176958020249003
 31
0.0
  0
ARC
  5
E732
  8
0
 10
757.7661870318477213
 20
104.3093504844876946
 30
0.0
 40
0.0135856549543153
 50
142.1007976030969076
 51
199.6585811155983947
  0
LINE
  5
E733
  8
0
 10
757.8676581260331204
 20
104.2785171872309036
 30
0.0
 11
757.9328660309060979
 21
104.2106415254030054
 31
0.0
  0
ARC
  5
E734
  8
0
 10
757.530954113527514
 20
103.7173821432926957
 30
0.0
 40
0.6405635146913692
 50
44.8569199447642575
 51
51.7946938970337101
  0
ARC
  5
E735
  8
0
 10
757.7338317367273248
 20
103.9649643507768957
 30
0.0
 40
0.3205993519425521
 50
52.9199936028188134
 51
54.0290012013541201
  0
ARC
  5
E736
  8
0
 10
757.9192134028251076
 20
104.2203921093734067
 30
0.0
 40
0.0049893045948908
 50
54.029001201290427
 51
79.0192351182688952
  0
ARC
  5
E737
  8
0
 10
757.920048615771293
 20
104.2246966222487004
 30
0.0
 40
0.0006045113547757
 50
79.0192351180035075
 51
188.6840013018851892
  0
LINE
  5
E738
  8
0
 10
757.935766271170678
 20
104.2138181747993002
 30
0.0
 11
757.9047790003530736
 21
104.1798776436174023
 31
0.0
  0
ARC
  5
E739
  8
0
 10
757.9149512481424154
 20
104.1719668884953052
 30
0.0
 40
0.0128862202249832
 50
142.1285020205081082
 51
228.974442874673997
  0
LINE
  5
E73A
  8
0
 10
757.9064927898031101
 20
104.1622453066173932
 30
0.0
 11
757.9482901867529563
 21
104.1205515305174032
 31
0.0
  0
LINE
  5
E73B
  8
0
 10
757.9482901867529563
 20
104.1205515305174032
 30
0.0
 11
758.0353142625533565
 21
104.0397116838174014
 31
0.0
  0
ARC
  5
E73C
  8
0
 10
758.0448225489950573
 20
104.0499473519168987
 30
0.0
 40
0.0139705551965719
 50
227.1098640403907041
 51
307.5547602385473738
  0
LINE
  5
E73D
  8
0
 10
758.0533378733531436
 20
104.038871898717403
 30
0.0
 11
758.0877092851253565
 21
104.0652982412440934
 31
0.0
  0
ARC
  5
E73E
  8
0
 10
767.9191123602774951
 20
113.6466054148421989
 30
0.0
 40
13.7274920872870307
 50
223.8849317865183934
 51
224.2236458297143997
  0
ARC
  5
E73F
  8
0
 10
757.9214115422053055
 20
103.9264082846070067
 30
0.0
 40
0.2166687779883391
 50
36.9205625242225324
 51
42.2954230233830302
  0
ARC
  5
E740
  8
0
 10
758.0929868475166131
 20
104.0551521770818937
 30
0.0
 40
0.0021667494745095
 50
350.9611781498931009
 51
40.6185847730518219
  0
ARC
  5
E741
  8
0
 10
758.1203749262319889
 20
104.0857459804686016
 30
0.0
 40
0.0399299212107109
 50
223.4884735957487862
 51
230.7789708451803108
  0
LINE
  5
E742
  8
0
 10
758.0914052558862295
 20
104.0582658638759028
 30
0.0
 11
758.0855978347315158
 21
104.0636748598220009
 31
0.0
  0
LINE
  5
E743
  8
0
 10
757.346084324130743
 20
104.8567456315930002
 30
0.0
 11
757.4418946671328285
 21
104.7436257472659946
 31
0.0
  0
LINE
  5
E744
  8
0
 10
757.516168159895642
 20
104.6604962219271044
 30
0.0
 11
757.593244027821811
 21
104.5603952510499965
 31
0.0
  0
LINE
  5
E745
  8
0
 10
758.0951266905537977
 20
104.054811772817402
 30
0.0
 11
758.1503367859147602
 21
103.998490746052795
 31
0.0
  0
ARC
  5
E746
  8
0
 10
758.9421938086568389
 20
104.0202564306601971
 30
0.0
 40
0.4760028772711134
 50
227.588250414592892
 51
232.0493754263679875
  0
ARC
  5
E747
  8
0
 10
758.7440976693585526
 20
103.7662540561332065
 30
0.0
 40
0.1538859937173968
 50
232.0493754263679875
 51
242.1426514691900991
  0
ARC
  5
E748
  8
0
 10
758.6795618916410149
 20
103.6441474663005948
 30
0.0
 40
0.0157741336685405
 50
242.1426514691900991
 51
269.6937757328893781
  0
ARC
  5
E749
  8
0
 10
758.67955657599191
 20
103.6431528966981972
 30
0.0
 40
0.0147795498609997
 50
269.6937757328893781
 51
313.506463979762998
  0
LINE
  5
E74A
  8
0
 10
758.6897313561863712
 20
103.6324333378413058
 30
0.0
 11
758.7288768351870658
 21
103.6738434183403967
 31
0.0
  0
ARC
  5
E74B
  8
0
 10
758.4986010766076561
 20
103.5314600454995997
 30
0.0
 40
0.2655356843020728
 50
37.7226767959405294
 51
47.9725342663507206
  0
ARC
  5
E74C
  8
0
 10
758.4964643534101469
 20
103.4598224992728035
 30
0.0
 40
0.3159438486253768
 50
42.6409395171190511
 51
47.8135769375545294
  0
ARC
  5
E74D
  8
0
 10
758.6909591015235037
 20
103.6378465465352008
 30
0.0
 40
0.0522831646512264
 50
26.5457897977000385
 51
43.5113563015295028
  0
ARC
  5
E74E
  8
0
 10
758.7311362554444258
 20
103.6580766387905044
 30
0.0
 40
0.0073018735138627
 50
357.1775918073328739
 51
25.4338616225826684
  0
ARC
  5
E74F
  8
0
 10
758.7364825864431168
 20
103.6580805685092059
 30
0.0
 40
0.0019803277503879
 50
295.1626484094024931
 51
349.4237559729991176
  0
ARC
  5
E750
  8
0
 10
758.7429399229129103
 20
103.6985804657331016
 30
0.0
 40
0.0426634566966164
 50
235.7457903378372066
 51
262.4368408677478897
  0
ARC
  5
E751
  8
0
 10
758.5347681922564789
 20
103.5724256633321971
 30
0.0
 40
0.1399908709702604
 50
40.5682159102070514
 51
48.0724183667505471
  0
ARC
  5
E752
  8
0
 10
758.6240968493990522
 20
103.6489039904408003
 30
0.0
 40
0.0223960432619965
 50
30.4459704512314104
 51
40.5675848386282425
  0
ARC
  5
E753
  8
0
 10
758.6385879663090464
 20
103.6574215144125048
 30
0.0
 40
0.0055870967181137
 50
17.7548016560916793
 51
30.4459704512125207
  0
ARC
  5
E754
  8
0
 10
758.6432256165287527
 20
103.658906466444293
 30
0.0
 40
0.0007175092511611
 50
323.4522643183387913
 51
17.7548016562533491
  0
ARC
  5
E755
  8
0
 10
758.6434456672438955
 20
103.6589538689386956
 30
0.0
 40
0.0005935600035988
 50
262.682274227578489
 51
306.8979249738246722
  0
ARC
  5
E756
  8
0
 10
758.6455432986309688
 20
103.667471239365895
 30
0.0
 40
0.0093618336440673
 50
235.7902484882156955
 51
256.577043534472125
  0
ARC
  5
E757
  8
0
 10
758.7087328049208281
 20
103.7621591129557004
 30
0.0
 40
0.1231978308978852
 50
226.8049382042271134
 51
236.2455769334810896
  0
ARC
  5
E758
  8
0
 10
758.9454376867504379
 20
104.0172654443628062
 30
0.0
 40
0.4760028772711134
 50
222.5960165039504943
 51
227.0571415157438935
  0
ARC
  5
E759
  8
0
 10
758.7083132288441902
 20
103.799248752035993
 30
0.0
 40
0.1538859937173968
 50
212.5027404611732038
 51
222.596016503951688
  0
ARC
  5
E75A
  8
0
 10
758.5918344169947432
 20
103.7250357324491006
 30
0.0
 40
0.0157741336685405
 50
184.9516161974630108
 51
212.5027404611732038
  0
ARC
  5
E75B
  8
0
 10
758.5908435450306797
 20
103.7249498854763061
 30
0.0
 40
0.0147795498609997
 50
141.138927950577596
 51
184.9516161974569002
  0
LINE
  5
E75C
  8
0
 10
758.5793351585558639
 20
103.7342230799002039
 30
0.0
 11
758.617438871154036
 21
103.7765937109946037
 31
0.0
  0
ARC
  5
E75D
  8
0
 10
758.4941729316049077
 20
103.5355429736013946
 30
0.0
 40
0.2655356843020728
 50
46.6728576640202206
 51
56.9227151344076532
  0
ARC
  5
E75E
  8
0
 10
758.4229437628325741
 20
103.5276114459172021
 30
0.0
 40
0.3159438486253768
 50
46.8318149927803091
 51
52.0044524131906201
  0
ARC
  5
E75F
  8
0
 10
758.5846311516568221
 20
103.735885200246301
 30
0.0
 40
0.0522831646512264
 50
51.1340356287887872
 51
68.0996021326317731
  0
ARC
  5
E760
  8
0
 10
758.6015408977671086
 20
103.7775687799428965
 30
0.0
 40
0.0073018735138627
 50
69.2115303077374904
 51
97.4678001230329869
  0
ARC
  5
E761
  8
0
 10
758.6011118227894485
 20
103.7828978666617985
 30
0.0
 40
0.0019803277503879
 50
105.2216359573417037
 51
159.4827435209332975
  0
ARC
  5
E762
  8
0
 10
758.6409557084759854
 20
103.7926140203706069
 30
0.0
 40
0.0426634566966164
 50
192.2085510625709048
 51
218.8996015922934077
  0
ARC
  5
E763
  8
0
 10
758.5320748549227119
 20
103.5749090286540053
 30
0.0
 40
0.1399908711282218
 50
46.5729735487109977
 51
54.0771760180008627
  0
ARC
  5
E764
  8
0
 10
758.60106735142449
 20
103.6701381154279034
 30
0.0
 40
0.0223960432619965
 50
54.0778070916717724
 51
64.1994214790827158
  0
ARC
  5
E765
  8
0
 10
758.6083832805113616
 20
103.6852714516600003
 30
0.0
 40
0.0055870967181137
 50
64.1994214791402555
 51
76.8905902742296234
  0
ARC
  5
E766
  8
0
 10
758.6094877577850184
 20
103.6900141314983017
 30
0.0
 40
0.0007175092511611
 50
76.8905902740691687
 51
131.1931276119975962
  0
ARC
  5
E767
  8
0
 10
758.6095171829681476
 20
103.6902372984138054
 30
0.0
 40
0.0005935600035988
 50
147.7474669565010004
 51
191.9631177027733884
  0
ARC
  5
E768
  8
0
 10
758.6178366898800505
 20
103.6930178489287044
 30
0.0
 40
0.0093618336440673
 50
198.0683483958632962
 51
218.8551434421216868
  0
ARC
  5
E769
  8
0
 10
758.7070958877944804
 20
103.7636684164971967
 30
0.0
 40
0.1231978308978852
 50
218.3998149968450093
 51
227.8404537261272083
  0
ARC
  5
E76A
  8
0
 10
758.7094957369814665
 20
104.1464700663816956
 30
0.0
 40
0.4760028772711134
 50
227.588250414592892
 51
232.0493754263679875
  0
ARC
  5
E76B
  8
0
 10
758.5113995976832939
 20
103.8924676918546055
 30
0.0
 40
0.1538859937173968
 50
232.0493754263679875
 51
242.1426514691900991
  0
ARC
  5
E76C
  8
0
 10
758.4468638199657562
 20
103.7703611020219938
 30
0.0
 40
0.0157741336685405
 50
242.1426514691900991
 51
269.6937757328893781
  0
ARC
  5
E76D
  8
0
 10
758.4468585043166513
 20
103.7693665324195962
 30
0.0
 40
0.0147795498609997
 50
269.6937757328893781
 51
313.506463979762998
  0
LINE
  5
E76E
  8
0
 10
758.4570332845112262
 20
103.7586469735627048
 30
0.0
 11
758.4961787635127166
 21
103.8000570540618952
 31
0.0
  0
ARC
  5
E76F
  8
0
 10
758.2659030049333069
 20
103.6576736812210981
 30
0.0
 40
0.2655356843020728
 50
37.7226767959405294
 51
47.9725342663507206
  0
ARC
  5
E770
  8
0
 10
758.2637662817357977
 20
103.586036134994302
 30
0.0
 40
0.3159438486253768
 50
42.6409395171190511
 51
47.8135769375545294
  0
ARC
  5
E771
  8
0
 10
758.458261029848245
 20
103.7640601822565998
 30
0.0
 40
0.0522831646512264
 50
26.5457897977000385
 51
43.5113563015295028
  0
ARC
  5
E772
  8
0
 10
758.4984381837690535
 20
103.7842902745120028
 30
0.0
 40
0.0073018735138627
 50
357.1775918073328739
 51
25.4338616225826684
  0
ARC
  5
E773
  8
0
 10
758.5037845147677444
 20
103.7842942042307044
 30
0.0
 40
0.0019803277503879
 50
295.1626484094024931
 51
349.4237559729991176
  0
ARC
  5
E774
  8
0
 10
758.5102418512384475
 20
103.8247941014545006
 30
0.0
 40
0.0426634566966164
 50
235.8195115906378874
 51
262.4368408677478897
  0
ARC
  5
E775
  8
0
 10
758.3020701205821297
 20
103.6986392990535961
 30
0.0
 40
0.1399908709702604
 50
40.5682159102070514
 51
48.0724183667505471
  0
ARC
  5
E776
  8
0
 10
758.3913987777239072
 20
103.7751176261622987
 30
0.0
 40
0.0223960432619965
 50
30.4459704512314104
 51
40.5675848386282425
  0
ARC
  5
E777
  8
0
 10
758.4058898946339013
 20
103.7836351501340033
 30
0.0
 40
0.0055870967181137
 50
17.7548016560916793
 51
30.4459704512125207
  0
ARC
  5
E778
  8
0
 10
758.4105275448544035
 20
103.7851201021658056
 30
0.0
 40
0.0007175092511611
 50
323.4522643183387913
 51
17.7548016562533491
  0
ARC
  5
E779
  8
0
 10
758.4107475955686368
 20
103.7851675046600946
 30
0.0
 40
0.0005935600035988
 50
262.682274227578489
 51
306.8979249738246722
  0
ARC
  5
E77A
  8
0
 10
758.4128452269567333
 20
103.7936848750873935
 30
0.0
 40
0.0093618336440673
 50
235.7902484882156955
 51
256.577043534472125
  0
ARC
  5
E77B
  8
0
 10
758.4760347332464789
 20
103.8883727486770994
 30
0.0
 40
0.1231978308978852
 50
226.8049382042271134
 51
236.2455769334810896
  0
ARC
  5
E77C
  8
0
 10
758.7127396150750656
 20
104.1434790800842052
 30
0.0
 40
0.4760028772711134
 50
222.5960165039504943
 51
227.0571415157438935
  0
ARC
  5
E77D
  8
0
 10
758.475615157169841
 20
103.9254623877575057
 30
0.0
 40
0.1538859937173968
 50
212.5027404611732038
 51
222.596016503951688
  0
ARC
  5
E77E
  8
0
 10
758.3591363453193708
 20
103.8512493681704996
 30
0.0
 40
0.0157741336685405
 50
184.9516161974630108
 51
212.5027404611732038
  0
ARC
  5
E77F
  8
0
 10
758.3581454733564442
 20
103.8511635211978046
 30
0.0
 40
0.0147795498609997
 50
141.138927950577596
 51
184.9516161974569002
  0
LINE
  5
E780
  8
0
 10
758.3466370868807189
 20
103.8604367156217023
 30
0.0
 11
758.3847407994795731
 21
103.9028073467161022
 31
0.0
  0
ARC
  5
E781
  8
0
 10
758.2614748599304448
 20
103.6617566093227936
 30
0.0
 40
0.2655356843020728
 50
46.6728576640202206
 51
56.9227151344076532
  0
ARC
  5
E782
  8
0
 10
758.1902456911572017
 20
103.6538250816387006
 30
0.0
 40
0.3159438486253768
 50
46.8318149927803091
 51
52.0044524131906201
  0
ARC
  5
E783
  8
0
 10
758.3519330799823592
 20
103.8620988359677995
 30
0.0
 40
0.0522831646512264
 50
51.1340356287887872
 51
68.0996021326317731
  0
ARC
  5
E784
  8
0
 10
758.3688428260926457
 20
103.903782415664395
 30
0.0
 40
0.0073018735138627
 50
69.2115303077374904
 51
97.4678001230329869
  0
ARC
  5
E785
  8
0
 10
758.368413751115213
 20
103.9091115023831975
 30
0.0
 40
0.0019803277503879
 50
105.2216359573417037
 51
159.4827435209332975
  0
ARC
  5
E786
  8
0
 10
758.4082576368007267
 20
103.9188276560921054
 30
0.0
 40
0.0426634566966164
 50
192.2085510625709048
 51
218.8258803396848862
  0
ARC
  5
E787
  8
0
 10
758.299376783248249
 20
103.7011226643754043
 30
0.0
 40
0.1399908711282218
 50
46.5729735487109977
 51
54.0771760180008627
  0
ARC
  5
E788
  8
0
 10
758.3683692797492313
 20
103.7963517511494018
 30
0.0
 40
0.0223960432619965
 50
54.0778070916717724
 51
64.1994214790827158
  0
ARC
  5
E789
  8
0
 10
758.3756852088359892
 20
103.8114850873813992
 30
0.0
 40
0.0055870967181137
 50
64.1994214791402555
 51
76.8905902742296234
  0
ARC
  5
E78A
  8
0
 10
758.3767896861106692
 20
103.8162277672197007
 30
0.0
 40
0.0007175092511611
 50
76.8905902740691687
 51
131.1931276119975962
  0
ARC
  5
E78B
  8
0
 10
758.3768191112928889
 20
103.8164509341353039
 30
0.0
 40
0.0005935600035988
 50
147.7474669565010004
 51
191.9631177027733884
  0
ARC
  5
E78C
  8
0
 10
758.3851386182057013
 20
103.8192314846502029
 30
0.0
 40
0.0093618336440673
 50
198.0683483958632962
 51
218.8551434421216868
  0
ARC
  5
E78D
  8
0
 10
758.4743978161202449
 20
103.8898820522185957
 30
0.0
 40
0.1231978308978852
 50
218.3998149968450093
 51
227.8404537261272083
  0
ARC
  5
E78E
  8
0
 10
758.4612065523176625
 20
103.078602579244702
 30
0.0
 40
0.5754752159633985
 50
45.9090454188812984
 51
49.8996296098022825
  0
ARC
  5
E78F
  8
0
 10
758.7366774051886296
 20
103.3362799430930039
 30
0.0
 40
0.1995944934806548
 50
41.9788747514686378
 51
51.2449984374459717
  0
ARC
  5
E790
  8
0
 10
758.8767034205917525
 20
103.4607256190229947
 30
0.0
 40
0.0123174160695262
 50
15.4257600153252596
 51
47.3148277700858131
  0
ARC
  5
E791
  8
0
 10
758.8872292468701062
 20
103.4636300066786987
 30
0.0
 40
0.0013982363158355
 50
291.2423501673833925
 51
15.4257600156313597
  0
ARC
  5
E792
  8
0
 10
758.8888553755630255
 20
103.4740025497834068
 30
0.0
 40
0.011729328046824
 50
245.0991633617059904
 51
264.5229545784043239
  0
ARC
  5
E793
  8
0
 10
758.9994322580193966
 20
103.7048307760193069
 30
0.0
 40
0.267675599416682
 50
240.0204070092580935
 51
244.4340089412802968
  0
ARC
  5
E794
  8
0
 10
758.4433284522108352
 20
103.0463520476886004
 30
0.0
 40
0.6117011841006882
 50
50.5645086393561769
 51
55.8240773859856674
  0
ARC
  5
E795
  8
0
 10
758.7451777578231713
 20
103.4943862855289041
 30
0.0
 40
0.0715020705897464
 50
54.259808021098948
 51
69.5968303460410738
  0
ARC
  5
E796
  8
0
 10
758.7672523517510399
 20
103.5543301696140048
 30
0.0
 40
0.0076260146396362
 50
68.0325609812828844
 51
94.4153640551473501
  0
ARC
  5
E797
  8
0
 10
758.7670364894225941
 20
103.557125750543193
 30
0.0
 40
0.0048221121313219
 50
94.4153640551473501
 51
113.2666743215181953
  0
ARC
  5
E798
  8
0
 10
758.7664141724468436
 20
103.5596376985813976
 30
0.0
 40
0.0023072718272709
 50
123.7685162996896935
 51
148.9097548512102946
  0
ARC
  5
E799
  8
0
 10
758.7655453072500222
 20
103.5606223391749978
 30
0.0
 40
0.0011261306639196
 50
169.4179831188565117
 51
201.8584210035571971
  0
ARC
  5
E79A
  8
0
 10
758.8816002172841308
 20
103.6406526135496051
 30
0.0
 40
0.142072370769341
 50
214.4896617086104982
 51
223.5205153559317068
  0
LINE
  5
E79B
  8
0
 10
758.7870087884590475
 20
103.5523779236386019
 30
0.0
 11
758.7523861958059115
 21
103.5131173292476063
 31
0.0
  0
LINE
  5
E79C
  8
0
 10
758.8736771251517439
 20
103.4814317207527949
 30
0.0
 11
758.8360661895827661
 21
103.441647017333807
 31
0.0
  0
ARC
  5
E79D
  8
0
 10
758.8258726597475743
 20
103.4521082118919963
 30
0.0
 40
0.0146063219902665
 50
292.2298595227055102
 51
314.257545137419072
  0
ARC
  5
E79E
  8
0
 10
758.8271305856740128
 20
103.4512254798382003
 30
0.0
 40
0.0133391744862587
 50
248.5839532301897918
 51
288.6604288636165734
  0
ARC
  5
E79F
  8
0
 10
758.8573710510543151
 20
103.5112985356683026
 30
0.0
 40
0.080546660450082
 50
231.6725202638731105
 51
244.1567842249880016
  0
ARC
  5
E7A0
  8
0
 10
759.09925793988225
 20
103.8393203594178971
 30
0.0
 40
0.4880718031401407
 50
229.7849246651013004
 51
233.2773977846678974
  0
ARC
  5
E7A1
  8
0
 10
759.0920044715173844
 20
103.8348586231362987
 30
0.0
 40
0.4799888006447149
 50
226.6413700108861917
 51
230.1022305255038134
  0
ARC
  5
E7A2
  8
0
 10
758.8284465184202645
 20
103.5576534324757034
 30
0.0
 40
0.0975007498520389
 50
218.9050297848839932
 51
227.4091435004029051
  0
ARC
  5
E7A3
  8
0
 10
758.7635645125661767
 20
103.5053638146805071
 30
0.0
 40
0.0141709434811737
 50
183.0747273231100962
 51
219.134607511701887
  0
ARC
  5
E7A4
  8
0
 10
758.7619020470062878
 20
103.5050195759118026
 30
0.0
 40
0.012495000326272
 50
139.603040955667808
 51
181.9073108389540039
  0
ARC
  5
E7A5
  8
0
 10
758.5973265067519833
 20
103.2431832231197006
 30
0.0
 40
0.2960478481578904
 50
47.8658030148194484
 51
50.0591649118674908
  0
ARC
  5
E7A6
  8
0
 10
758.6859608512893374
 20
103.3411591767393958
 30
0.0
 40
0.1639292101115727
 50
45.5601207626069069
 51
47.8658030148194484
  0
ARC
  5
E7A7
  8
0
 10
758.7670238123853323
 20
103.4238227717000029
 30
0.0
 40
0.0481515197156614
 50
40.5862899200976415
 51
45.5601207626077667
  0
ARC
  5
E7A8
  8
0
 10
758.7981985957446796
 20
103.4505298555259003
 30
0.0
 40
0.0071011184508354
 50
28.5143725960225112
 51
40.5862899200290315
  0
ARC
  5
E7A9
  8
0
 10
758.8041523383360527
 20
103.4537644080373013
 30
0.0
 40
0.0003254722975166
 50
332.4306833491297084
 51
28.5143725965363188
  0
ARC
  5
E7AA
  8
0
 10
758.8043070099799934
 20
103.4537460136129994
 30
0.0
 40
0.0001881538474914
 50
285.1389235464582157
 51
315.3450963185862861
  0
ARC
  5
E7AB
  8
0
 10
758.8042750735636446
 20
103.4542004670741022
 30
0.0
 40
0.0006412236066324
 50
246.4868784988246091
 51
277.2637797433067135
  0
ARC
  5
E7AC
  8
0
 10
758.8104045653069534
 20
103.468461718500393
 30
0.0
 40
0.0161639093224561
 50
235.0850129881424095
 51
246.7318283896725859
  0
ARC
  5
E7AD
  8
0
 10
758.9162142147031318
 20
103.6207424249473945
 30
0.0
 40
0.2015960611527888
 50
229.2606914523580883
 51
235.1973613828261023
  0
ARC
  5
E7AE
  8
0
 10
758.9347335265807715
 20
103.6478030869570972
 30
0.0
 40
0.2342137179315194
 50
226.0145738639021999
 51
230.1483553118549992
  0
ARC
  5
E7AF
  8
0
 10
758.8042549874550105
 20
103.5124065562106068
 30
0.0
 40
0.0461797888915376
 50
219.6483243790806057
 51
225.8308262027603917
  0
ARC
  5
E7B0
  8
0
 10
758.7696310316021027
 20
103.4839645559207071
 30
0.0
 40
0.0013856122598902
 50
179.8224415072810984
 51
227.6547545863224116
  0
ARC
  5
E7B1
  8
0
 10
758.7684144605733536
 20
103.4838074764365956
 30
0.0
 40
0.0002336965613697
 50
73.7510970527143712
 51
136.3282695411604948
  0
ARC
  5
E7B2
  8
0
 10
758.7627892552925459
 20
103.4695648950735034
 30
0.0
 40
0.0155459101473967
 50
53.764939192792653
 51
68.5277222137841306
  0
ARC
  5
E7B3
  8
0
 10
758.6477731611290665
 20
103.3058753552436002
 30
0.0
 40
0.2156004583445092
 50
49.641862369407157
 51
54.8239974759385191
  0
ARC
  5
E7B4
  8
0
 10
758.6359299068996052
 20
102.8894446471872044
 30
0.0
 40
0.5754752159633985
 50
45.9090454188812984
 51
49.8996296098022825
  0
ARC
  5
E7B5
  8
0
 10
758.9114007597705722
 20
103.1471220110355063
 30
0.0
 40
0.1995944934806548
 50
41.9788747514686378
 51
51.2449984374459717
  0
ARC
  5
E7B6
  8
0
 10
759.0514267751739226
 20
103.271567686965497
 30
0.0
 40
0.0123174160695262
 50
15.4257600153252596
 51
47.3148277700858131
  0
ARC
  5
E7B7
  8
0
 10
759.0619526014521625
 20
103.2744720746213005
 30
0.0
 40
0.0013982363158355
 50
291.2423501673833925
 51
15.4257600156313597
  0
ARC
  5
E7B8
  8
0
 10
759.0635787301450819
 20
103.284844617725895
 30
0.0
 40
0.011729328046824
 50
245.0991633617059904
 51
264.5229545784043239
  0
ARC
  5
E7B9
  8
0
 10
759.1741556126005435
 20
103.5156728439618945
 30
0.0
 40
0.267675599416682
 50
240.0204070094011968
 51
244.4340089412802968
  0
ARC
  5
E7BA
  8
0
 10
758.6180518067927778
 20
102.8571941156311027
 30
0.0
 40
0.6117011841006882
 50
50.5645086393561769
 51
55.8240773859856674
  0
ARC
  5
E7BB
  8
0
 10
758.9199011124053413
 20
103.3052283534714064
 30
0.0
 40
0.0715020705897464
 50
54.259808021098948
 51
69.5968303460410738
  0
ARC
  5
E7BC
  8
0
 10
758.9419757063330962
 20
103.365172237556493
 30
0.0
 40
0.0076260146396362
 50
68.0325609812828844
 51
94.4153640551473501
  0
ARC
  5
E7BD
  8
0
 10
758.9417598440046504
 20
103.3679678184856954
 30
0.0
 40
0.0048221121313219
 50
94.4153640551473501
 51
113.2666743215181953
  0
ARC
  5
E7BE
  8
0
 10
758.9411375270290137
 20
103.3704797665238999
 30
0.0
 40
0.0023072718272709
 50
123.7685162996896935
 51
148.9097548512102946
  0
ARC
  5
E7BF
  8
0
 10
758.9402686618320786
 20
103.3714644071175002
 30
0.0
 40
0.0011261306639196
 50
169.4179831188565117
 51
201.8584210035571971
  0
ARC
  5
E7C0
  8
0
 10
759.0563235718660735
 20
103.451494681492207
 30
0.0
 40
0.142072370769341
 50
214.4896617086104982
 51
223.5205153559317068
  0
LINE
  5
E7C1
  8
0
 10
758.9617321430412176
 20
103.3632199915811043
 30
0.0
 11
758.9271095503878541
 21
103.323959397190194
 31
0.0
  0
LINE
  5
E7C2
  8
0
 10
759.0484004797339139
 20
103.2922737886952973
 30
0.0
 11
759.0107895441649362
 21
103.2524890852762951
 31
0.0
  0
ARC
  5
E7C3
  8
0
 10
759.0005960143296306
 20
103.2629502798344987
 30
0.0
 40
0.0146063219902665
 50
292.2298595227055102
 51
314.257545137419072
  0
ARC
  5
E7C4
  8
0
 10
759.0018539402559554
 20
103.2620675477808021
 30
0.0
 40
0.0133391744862587
 50
248.5839532301897918
 51
288.6604288636165734
  0
ARC
  5
E7C5
  8
0
 10
759.0320944056362578
 20
103.322140603610805
 30
0.0
 40
0.080546660450082
 50
231.6725202638731105
 51
244.1567842249880016
  0
ARC
  5
E7C6
  8
0
 10
759.2739812944643063
 20
103.6501624273603994
 30
0.0
 40
0.4880718031401407
 50
229.7849246651013004
 51
233.2773977846678974
  0
ARC
  5
E7C7
  8
0
 10
759.2667278260994408
 20
103.645700691078801
 30
0.0
 40
0.4799888006447149
 50
226.6413700108861917
 51
230.1022305255038134
  0
ARC
  5
E7C8
  8
0
 10
759.0031698730024345
 20
103.3684955004182058
 30
0.0
 40
0.0975007498520389
 50
218.9050297848839932
 51
227.4091435004029051
  0
ARC
  5
E7C9
  8
0
 10
758.9382878671483468
 20
103.3162058826229952
 30
0.0
 40
0.0141709434811737
 50
183.0747273231100962
 51
219.134607511701887
  0
ARC
  5
E7CA
  8
0
 10
758.9366254015883442
 20
103.3158616438543049
 30
0.0
 40
0.012495000326272
 50
139.603040955667808
 51
181.9073108389540039
  0
ARC
  5
E7CB
  8
0
 10
758.7720498613341533
 20
103.054025291062203
 30
0.0
 40
0.2960478481578904
 50
47.8658030148194484
 51
50.0591649118674908
  0
ARC
  5
E7CC
  8
0
 10
758.86068420587128
 20
103.1520012446819976
 30
0.0
 40
0.1639292101115727
 50
45.5601207626069069
 51
47.8658030148194484
  0
ARC
  5
E7CD
  8
0
 10
758.9417471669673887
 20
103.2346648396425053
 30
0.0
 40
0.0481515197156614
 50
40.5862899200976415
 51
45.5601207626077667
  0
ARC
  5
E7CE
  8
0
 10
758.9729219503267359
 20
103.2613719234684027
 30
0.0
 40
0.0071011184508354
 50
28.5143725960225112
 51
40.5862899200290315
  0
ARC
  5
E7CF
  8
0
 10
758.9788756929181091
 20
103.2646064759797042
 30
0.0
 40
0.0003254722975166
 50
332.4306833491297084
 51
28.5143725965363188
  0
ARC
  5
E7D0
  8
0
 10
758.9790303645620497
 20
103.2645880815555017
 30
0.0
 40
0.0001881538474914
 50
285.1389235464582157
 51
315.3450963185862861
  0
ARC
  5
E7D1
  8
0
 10
758.9789984281458146
 20
103.2650425350166046
 30
0.0
 40
0.0006412236066324
 50
246.4868784988246091
 51
277.2637797433067135
  0
ARC
  5
E7D2
  8
0
 10
758.9851279198890097
 20
103.2793037864428953
 30
0.0
 40
0.0161639093224561
 50
235.0850129881424095
 51
246.7318283896725859
  0
ARC
  5
E7D3
  8
0
 10
759.0909375692850745
 20
103.4315844928899963
 30
0.0
 40
0.2015960611527888
 50
229.2606914523580883
 51
235.1973613828261023
  0
ARC
  5
E7D4
  8
0
 10
759.1094568811629415
 20
103.4586451548995996
 30
0.0
 40
0.2342137179315194
 50
226.0145738639021999
 51
230.1483553118549992
  0
ARC
  5
E7D5
  8
0
 10
758.9789783420370668
 20
103.323248624153095
 30
0.0
 40
0.0461797888915376
 50
219.6483243790806057
 51
225.8308262027603917
  0
ARC
  5
E7D6
  8
0
 10
758.9443543861840453
 20
103.2948066238632947
 30
0.0
 40
0.0013856122598902
 50
179.8224415072810984
 51
227.6547545863224116
  0
ARC
  5
E7D7
  8
0
 10
758.9431378151555236
 20
103.294649544379098
 30
0.0
 40
0.0002336965613697
 50
73.7510970527143712
 51
136.3282695411604948
  0
ARC
  5
E7D8
  8
0
 10
758.9375126098736928
 20
103.2804069630160058
 30
0.0
 40
0.0155459101473967
 50
53.764939192792653
 51
68.5277222137841306
  0
ARC
  5
E7D9
  8
0
 10
758.8224965157112365
 20
103.1167174231861026
 30
0.0
 40
0.2156004583445092
 50
49.641862369407157
 51
54.8239974759385191
  0
ARC
  5
E7DA
  8
0
 10
758.8763115093013312
 20
102.7628275660504045
 30
0.0
 40
0.5754752159633985
 50
45.9090454188812984
 51
49.8996296098022825
  0
ARC
  5
E7DB
  8
0
 10
759.1517823621722982
 20
103.0205049298987063
 30
0.0
 40
0.1995944934806548
 50
41.9788747514686378
 51
51.2449984374459717
  0
ARC
  5
E7DC
  8
0
 10
759.2918083775755349
 20
103.1449506058287966
 30
0.0
 40
0.0123174160695262
 50
15.4257600153252596
 51
47.3148277700858131
  0
ARC
  5
E7DD
  8
0
 10
759.3023342038538885
 20
103.1478549934844011
 30
0.0
 40
0.0013982363158355
 50
291.2423501673833925
 51
15.4257600156313597
  0
ARC
  5
E7DE
  8
0
 10
759.3039603325466942
 20
103.1582275365890951
 30
0.0
 40
0.011729328046824
 50
245.0991633617059904
 51
264.5229545784043239
  0
ARC
  5
E7DF
  8
0
 10
759.4145372150021558
 20
103.3890557628250946
 30
0.0
 40
0.267675599416682
 50
240.0204070094015947
 51
244.4340089412802968
  0
ARC
  5
E7E0
  8
0
 10
758.7188954158015122
 20
102.5711073684152979
 30
0.0
 40
0.8235272715007491
 50
50.1140681590725734
 51
54.6469144959360804
  0
ARC
  5
E7E1
  8
0
 10
759.1536343202067201
 20
103.1847413600472976
 30
0.0
 40
0.0715020705897464
 50
54.259808021098948
 51
69.5968303460410738
  0
ARC
  5
E7E2
  8
0
 10
759.175708914134475
 20
103.2446852441323983
 30
0.0
 40
0.0076260146396362
 50
68.0325609812828844
 51
94.4153640551473501
  0
ARC
  5
E7E3
  8
0
 10
759.1754930518070523
 20
103.2474808250616007
 30
0.0
 40
0.0048221121313219
 50
94.4153640551473501
 51
113.2666743215181953
  0
ARC
  5
E7E4
  8
0
 10
759.1748707348313019
 20
103.2499927730998053
 30
0.0
 40
0.0023072718272709
 50
123.7685162996896935
 51
148.9097548512102946
  0
ARC
  5
E7E5
  8
0
 10
759.1740018696333436
 20
103.2509774136934055
 30
0.0
 40
0.0011261306639196
 50
169.4179831188565117
 51
201.8584210035571971
  0
ARC
  5
E7E6
  8
0
 10
759.2900567796683617
 20
103.3310076880679986
 30
0.0
 40
0.142072370769341
 50
214.4896617086104982
 51
223.5205153557228925
  0
LINE
  5
E7E7
  8
0
 10
759.1954653508425963
 20
103.2427329981569954
 30
0.0
 11
759.1608427581902561
 21
103.2034724037659998
 31
0.0
  0
LINE
  5
E7E8
  8
0
 10
759.2887820821355263
 20
103.1656567075584974
 30
0.0
 11
759.2511711465665485
 21
103.1258720041393957
 31
0.0
  0
ARC
  5
E7E9
  8
0
 10
759.2409776167321525
 20
103.1363331986976988
 30
0.0
 40
0.0146063219902665
 50
292.2298595227055102
 51
314.257545137419072
  0
ARC
  5
E7EA
  8
0
 10
759.2422355426576814
 20
103.1354504666439027
 30
0.0
 40
0.0133391744862587
 50
248.5839532301897918
 51
288.6604288636165734
  0
ARC
  5
E7EB
  8
0
 10
759.2724760080378701
 20
103.1955235224740051
 30
0.0
 40
0.080546660450082
 50
231.6725202638731105
 51
244.1567842249880016
  0
ARC
  5
E7EC
  8
0
 10
759.5143628968660323
 20
103.5235453462235995
 30
0.0
 40
0.4880718031401407
 50
229.7849246651013004
 51
233.2773977846678974
  0
ARC
  5
E7ED
  8
0
 10
759.7363489631430866
 20
103.7784195976291954
 30
0.0
 40
0.8260425190477562
 50
226.8032990711382126
 51
229.4414007590141864
  0
ARC
  5
E7EE
  8
0
 10
759.2369030808047228
 20
103.2480085069940969
 30
0.0
 40
0.0975007498520389
 50
218.9050297848839932
 51
227.4091435004029051
  0
ARC
  5
E7EF
  8
0
 10
759.172021074950635
 20
103.1957188891988011
 30
0.0
 40
0.0141709434811737
 50
183.0747273231100962
 51
219.134607511701887
  0
ARC
  5
E7F0
  8
0
 10
759.1703586093906324
 20
103.1953746504301961
 30
0.0
 40
0.012495000326272
 50
139.603040955667808
 51
181.9073108389540039
  0
ARC
  5
E7F1
  8
0
 10
759.012431463735652
 20
102.9274082099254031
 30
0.0
 40
0.2960478481578904
 50
47.8658030148194484
 51
50.0591649118674908
  0
ARC
  5
E7F2
  8
0
 10
759.101065808273006
 20
103.0253841635450982
 30
0.0
 40
0.1639292101115727
 50
45.5601207626069069
 51
47.8658030148194484
  0
ARC
  5
E7F3
  8
0
 10
759.182128769369001
 20
103.1080477585057054
 30
0.0
 40
0.0481515197156614
 50
40.5862899200976415
 51
45.5601207626077667
  0
ARC
  5
E7F4
  8
0
 10
759.2133035527283482
 20
103.1347548423316027
 30
0.0
 40
0.0071011184508354
 50
28.5143725960225112
 51
40.5862899200290315
  0
ARC
  5
E7F5
  8
0
 10
759.2192572953197214
 20
103.1379893948429043
 30
0.0
 40
0.0003254722975166
 50
332.4306833491297084
 51
28.5143725965363188
  0
ARC
  5
E7F6
  8
0
 10
759.2194119669635484
 20
103.1379710004187018
 30
0.0
 40
0.0001881538474914
 50
285.1389235464582157
 51
315.3450963185862861
  0
ARC
  5
E7F7
  8
0
 10
759.2193800305474269
 20
103.1384254538798046
 30
0.0
 40
0.0006412236066324
 50
246.4868784988246091
 51
277.2637797433067135
  0
ARC
  5
E7F8
  8
0
 10
759.225509522290622
 20
103.1526867053060954
 30
0.0
 40
0.0161639093224561
 50
235.0850129881424095
 51
246.7318283896725859
  0
ARC
  5
E7F9
  8
0
 10
759.3313191716868005
 20
103.3049674117531964
 30
0.0
 40
0.2015960611527888
 50
229.2606914523580883
 51
235.1973613828261023
  0
ARC
  5
E7FA
  8
0
 10
759.5606663086480239
 20
103.5698007258908007
 30
0.0
 40
0.5519337154265749
 50
226.4705432753816865
 51
229.1632971369274969
  0
ARC
  5
E7FB
  8
0
 10
759.212711549839355
 20
103.2027616307290003
 30
0.0
 40
0.0461797888915376
 50
219.6483243790806057
 51
225.8308262027603917
  0
ARC
  5
E7FC
  8
0
 10
759.1780875939864472
 20
103.1743196304391006
 30
0.0
 40
0.0013856122598902
 50
179.8224415072810984
 51
227.6547545863224116
  0
ARC
  5
E7FD
  8
0
 10
759.1768710229569024
 20
103.1741625509550033
 30
0.0
 40
0.0002336965613697
 50
73.7510970527143712
 51
136.3282695411604948
  0
ARC
  5
E7FE
  8
0
 10
759.1712458176758673
 20
103.1599199695918969
 30
0.0
 40
0.0155459101473967
 50
53.764939192792653
 51
68.5277222137841306
  0
ARC
  5
E7FF
  8
0
 10
758.8993608565567683
 20
102.8068320192297023
 30
0.0
 40
0.4611788874187221
 50
48.9058317702043794
 51
52.4488970521801008
  0
ARC
  5
E800
  8
0
 10
759.0592909340508641
 20
102.5784044079172048
 30
0.0
 40
0.5754752159633985
 50
45.9090454188812984
 51
49.8996296098022825
  0
ARC
  5
E801
  8
0
 10
759.3347617869228543
 20
102.8360817717655067
 30
0.0
 40
0.1995944934806548
 50
41.9788747514686378
 51
51.2449984374459717
  0
ARC
  5
E802
  8
0
 10
759.474787802326091
 20
102.9605274476955969
 30
0.0
 40
0.0123174160695262
 50
15.4257600153252596
 51
47.3148277700858131
  0
ARC
  5
E803
  8
0
 10
759.4853136286044446
 20
102.9634318353513009
 30
0.0
 40
0.0013982363158355
 50
291.2423501673833925
 51
15.4257600156313597
  0
ARC
  5
E804
  8
0
 10
759.4869397572963408
 20
102.9738043784558954
 30
0.0
 40
0.011729328046824
 50
245.0991633617059904
 51
264.5229545784043239
  0
ARC
  5
E805
  8
0
 10
759.5975166397527119
 20
103.2046326046918949
 30
0.0
 40
0.267675599416682
 50
240.02040700928859
 51
244.4340089412802968
  0
ARC
  5
E806
  8
0
 10
758.5779804560731918
 20
102.019934174559296
 30
0.0
 40
1.3127116629978619
 50
49.5314199360109626
 51
53.1215878819539
  0
ARC
  5
E807
  8
0
 10
759.3239983795417629
 20
103.0119500771535996
 30
0.0
 40
0.0715020705897464
 50
54.259808021098948
 51
69.5968303460410738
  0
ARC
  5
E808
  8
0
 10
759.3460729734686083
 20
103.0718939612387004
 30
0.0
 40
0.0076260146396362
 50
68.0325609812828844
 51
94.4153640551473501
  0
ARC
  5
E809
  8
0
 10
759.3458571111411857
 20
103.0746895421679028
 30
0.0
 40
0.0048221121313219
 50
94.4153640551473501
 51
113.2666743215181953
  0
ARC
  5
E80A
  8
0
 10
759.3452347941654352
 20
103.0772014902059937
 30
0.0
 40
0.0023072718272709
 50
123.7685162996896935
 51
148.9097548512102946
  0
ARC
  5
E80B
  8
0
 10
759.344365928967477
 20
103.0781861307996934
 30
0.0
 40
0.0011261306639196
 50
169.4179831188565117
 51
201.8584210035571971
  0
ARC
  5
E80C
  8
0
 10
759.4604208390026088
 20
103.1582164051743007
 30
0.0
 40
0.142072370769341
 50
214.4896617086104982
 51
223.5205153557232052
  0
LINE
  5
E80D
  8
0
 10
759.3658294101767297
 20
103.0699417152632975
 30
0.0
 11
759.3312068175243894
 21
103.0306811208723019
 31
0.0
  0
LINE
  5
E80E
  8
0
 10
759.4717615068856276
 20
102.9812335494257951
 30
0.0
 11
759.4341505713169909
 21
102.9414488460062955
 31
0.0
  0
ARC
  5
E80F
  8
0
 10
759.423957041481799
 20
102.9519100405645986
 30
0.0
 40
0.0146063219902665
 50
292.2298595227055102
 51
314.257545137419072
  0
ARC
  5
E810
  8
0
 10
759.425214967407328
 20
102.9510273085108025
 30
0.0
 40
0.0133391744862587
 50
248.5839532301897918
 51
288.6604288636165734
  0
ARC
  5
E811
  8
0
 10
759.4554554327876303
 20
103.0111003643408054
 30
0.0
 40
0.080546660450082
 50
231.6725202638731105
 51
244.1567842249880016
  0
ARC
  5
E812
  8
0
 10
759.6973423216155652
 20
103.3391221880903998
 30
0.0
 40
0.4880718031401407
 50
229.7849246651013004
 51
233.2773977846678974
  0
ARC
  5
E813
  8
0
 10
760.5283618334067341
 20
104.2748540706688942
 30
0.0
 40
1.7394421837757781
 50
226.9647499997007003
 51
228.7827031944455882
  0
ARC
  5
E814
  8
0
 10
759.4072671401388561
 20
103.075217224100399
 30
0.0
 40
0.0975007498520389
 50
218.9050297848839932
 51
227.4091435004029051
  0
ARC
  5
E815
  8
0
 10
759.3423851342847684
 20
103.0229276063051032
 30
0.0
 40
0.0141709434811737
 50
183.0747273231100962
 51
219.134607511701887
  0
ARC
  5
E816
  8
0
 10
759.3407226687246521
 20
103.0225833675364981
 30
0.0
 40
0.012495000326272
 50
139.603040955667808
 51
181.9073108389540039
  0
ARC
  5
E817
  8
0
 10
759.1954108884863217
 20
102.7429850517922034
 30
0.0
 40
0.2960478481578904
 50
47.8658030148194484
 51
50.0591649118674908
  0
ARC
  5
E818
  8
0
 10
759.2840452330226526
 20
102.840961005411998
 30
0.0
 40
0.1639292101115727
 50
45.5601207626069069
 51
47.8658030148194484
  0
ARC
  5
E819
  8
0
 10
759.3651081941186476
 20
102.9236246003725057
 30
0.0
 40
0.0481515197156614
 50
40.5862899200976415
 51
45.5601207626077667
  0
ARC
  5
E81A
  8
0
 10
759.3962829774787906
 20
102.9503316841985026
 30
0.0
 40
0.0071011184508354
 50
28.5143725960225112
 51
40.5862899200290315
  0
ARC
  5
E81B
  8
0
 10
759.4022367200701638
 20
102.9535662367098041
 30
0.0
 40
0.0003254722975166
 50
332.4306833491297084
 51
28.5143725965363188
  0
ARC
  5
E81C
  8
0
 10
759.4023913917141044
 20
102.9535478422855022
 30
0.0
 40
0.0001881538474914
 50
285.1389235464582157
 51
315.3450963185862861
  0
ARC
  5
E81D
  8
0
 10
759.402359455297983
 20
102.9540022957467045
 30
0.0
 40
0.0006412236066324
 50
246.4868784988246091
 51
277.2637797433067135
  0
ARC
  5
E81E
  8
0
 10
759.4084889470401549
 20
102.9682635471729952
 30
0.0
 40
0.0161639093224561
 50
235.0850129881424095
 51
246.7318283896725859
  0
ARC
  5
E81F
  8
0
 10
759.5142985964373565
 20
103.1205442536199968
 30
0.0
 40
0.2015960611527888
 50
229.2606914523580883
 51
235.1973613828261023
  0
ARC
  5
E820
  8
0
 10
760.393716080946092
 20
104.1077152383640936
 30
0.0
 40
1.5236464283916309
 50
226.8098087903042881
 51
228.4304677993681025
  0
ARC
  5
E821
  8
0
 10
759.3830756091736021
 20
103.0299703478353024
 30
0.0
 40
0.0461797888915376
 50
219.6483243790806057
 51
225.8308262027603917
  0
ARC
  5
E822
  8
0
 10
759.3484516533204669
 20
103.0015283475454027
 30
0.0
 40
0.0013856122598902
 50
179.8224415072810984
 51
227.6547545863224116
  0
ARC
  5
E823
  8
0
 10
759.3472350822919452
 20
103.0013712680613054
 30
0.0
 40
0.0002336965613697
 50
73.7510970527143712
 51
136.3282695411604948
  0
ARC
  5
E824
  8
0
 10
759.3416098770100007
 20
102.987128686698199
 30
0.0
 40
0.0155459101473967
 50
53.764939192792653
 51
68.5277222137841306
  0
ARC
  5
E825
  8
0
 10
758.5992394327702186
 20
102.0871879458252067
 30
0.0
 40
1.182142847318191
 50
48.3106611297375892
 51
50.5235944740699807
  0
ARC
  5
E826
  8
0
 10
759.2482820566790451
 20
102.4177144233503043
 30
0.0
 40
0.5754752159633985
 50
45.9090454188812984
 51
49.8996296098022825
  0
ARC
  5
E827
  8
0
 10
759.5237529095509217
 20
102.6753917871986062
 30
0.0
 40
0.1995944934806548
 50
41.9788747514686378
 51
51.2449984374459717
  0
ARC
  5
E828
  8
0
 10
759.6637789249532489
 20
102.7998374631286964
 30
0.0
 40
0.0123174160695262
 50
15.4257600153252596
 51
47.3148277700858131
  0
ARC
  5
E829
  8
0
 10
759.6743047512314888
 20
102.8027418507844004
 30
0.0
 40
0.0013982363158355
 50
291.2423501673833925
 51
15.4257600156313597
  0
ARC
  5
E82A
  8
0
 10
759.6759308799244081
 20
102.8131143938889949
 30
0.0
 40
0.011729328046824
 50
245.0991633617059904
 51
264.5229545784043239
  0
ARC
  5
E82B
  8
0
 10
759.7865077623807792
 20
103.0439426201249944
 30
0.0
 40
0.267675599416682
 50
240.0204070092580935
 51
244.4340089412802968
  0
ARC
  5
E82C
  8
0
 10
759.2304039565722178
 20
102.3854638917942026
 30
0.0
 40
0.6117011841006882
 50
50.5645086393561769
 51
55.8240773859856674
  0
ARC
  5
E82D
  8
0
 10
759.5322532621845539
 20
102.8334981296346058
 30
0.0
 40
0.0715020705897464
 50
54.259808021098948
 51
69.5968303460410738
  0
ARC
  5
E82E
  8
0
 10
759.5543278561124225
 20
102.8934420137197066
 30
0.0
 40
0.0076260146396362
 50
68.0325609812828844
 51
94.4153640551473501
  0
ARC
  5
E82F
  8
0
 10
759.5541119937848862
 20
102.8962375946487953
 30
0.0
 40
0.0048221121313219
 50
94.4153640551473501
 51
113.2666743215181953
  0
ARC
  5
E830
  8
0
 10
759.5534896768083399
 20
102.8987495426870993
 30
0.0
 40
0.0023072718272709
 50
123.7685162996896935
 51
148.9097548512102946
  0
ARC
  5
E831
  8
0
 10
759.5526208116114049
 20
102.8997341832806995
 30
0.0
 40
0.0011261306639196
 50
169.4179831188565117
 51
201.8584210035571971
  0
ARC
  5
E832
  8
0
 10
759.6686757216453998
 20
102.9797644576553068
 30
0.0
 40
0.142072370769341
 50
214.4896617086104982
 51
223.5205153559317068
  0
LINE
  5
E833
  8
0
 10
759.5740842928205439
 20
102.8914897677443037
 30
0.0
 11
759.5394617001672941
 21
102.8522291733532938
 31
0.0
  0
LINE
  5
E834
  8
0
 10
759.6607526295135813
 20
102.8205435648588946
 30
0.0
 11
759.6231416939441488
 21
102.780758861439395
 31
0.0
  0
ARC
  5
E835
  8
0
 10
759.6129481641097527
 20
102.7912200559976981
 30
0.0
 40
0.0146063219902665
 50
292.2298595227055102
 51
314.257545137419072
  0
ARC
  5
E836
  8
0
 10
759.6142060900353954
 20
102.790337323943902
 30
0.0
 40
0.0133391744862587
 50
248.5839532301897918
 51
288.6604288636165734
  0
ARC
  5
E837
  8
0
 10
759.644446555415584
 20
102.8504103797739049
 30
0.0
 40
0.080546660450082
 50
231.6725202638731105
 51
244.1567842249880016
  0
ARC
  5
E838
  8
0
 10
759.8863334442437463
 20
103.1784322035234993
 30
0.0
 40
0.4880718031401407
 50
229.7849246651013004
 51
233.2773977846678974
  0
ARC
  5
E839
  8
0
 10
759.8790799758787671
 20
103.1739704672419009
 30
0.0
 40
0.4799888006447149
 50
226.6413700108861917
 51
230.1022305255038134
  0
ARC
  5
E83A
  8
0
 10
759.6155220227816471
 20
102.8967652765814051
 30
0.0
 40
0.0975007498520389
 50
218.9050297848839932
 51
227.4091435004029051
  0
ARC
  5
E83B
  8
0
 10
759.5506400169275594
 20
102.8444756587860951
 30
0.0
 40
0.0141709434811737
 50
183.0747273231100962
 51
219.134607511701887
  0
ARC
  5
E83C
  8
0
 10
759.5489775513675568
 20
102.8441314200175043
 30
0.0
 40
0.012495000326272
 50
139.603040955667808
 51
181.9073108389540039
  0
ARC
  5
E83D
  8
0
 10
759.3844020111133659
 20
102.5822950672253029
 30
0.0
 40
0.2960478481578904
 50
47.8658030148194484
 51
50.0591649118674908
  0
ARC
  5
E83E
  8
0
 10
759.47303635565072
 20
102.6802710208450975
 30
0.0
 40
0.1639292101115727
 50
45.5601207626069069
 51
47.8658030148194484
  0
ARC
  5
E83F
  8
0
 10
759.554099316746715
 20
102.7629346158056052
 30
0.0
 40
0.0481515197156614
 50
40.5862899200976415
 51
45.5601207626077667
  0
ARC
  5
E840
  8
0
 10
759.5852741001059485
 20
102.789641699631602
 30
0.0
 40
0.0071011184508354
 50
28.5143725960225112
 51
40.5862899200290315
  0
ARC
  5
E841
  8
0
 10
759.5912278426974353
 20
102.7928762521429036
 30
0.0
 40
0.0003254722975166
 50
332.4306833491297084
 51
28.5143725965363188
  0
ARC
  5
E842
  8
0
 10
759.5913825143412623
 20
102.7928578577186016
 30
0.0
 40
0.0001881538474914
 50
285.1389235464582157
 51
315.3450963185862861
  0
ARC
  5
E843
  8
0
 10
759.5913505779251409
 20
102.7933123111798039
 30
0.0
 40
0.0006412236066324
 50
246.4868784988246091
 51
277.2637797433067135
  0
ARC
  5
E844
  8
0
 10
759.597480069668336
 20
102.8075735626060947
 30
0.0
 40
0.0161639093224561
 50
235.0850129881424095
 51
246.7318283896725859
  0
ARC
  5
E845
  8
0
 10
759.7032897190644007
 20
102.9598542690530962
 30
0.0
 40
0.2015960611527888
 50
229.2606914523580883
 51
235.1973613828261023
  0
ARC
  5
E846
  8
0
 10
759.7218090309421541
 20
102.9869149310626995
 30
0.0
 40
0.2342137179315194
 50
226.0145738639021999
 51
230.1483553118549992
  0
ARC
  5
E847
  8
0
 10
759.5913304918163931
 20
102.8515184003162943
 30
0.0
 40
0.0461797888915376
 50
219.6483243790806057
 51
225.8308262027603917
  0
ARC
  5
E848
  8
0
 10
759.5567065359633716
 20
102.8230764000263946
 30
0.0
 40
0.0013856122598902
 50
179.8224415072810984
 51
227.6547545863224116
  0
ARC
  5
E849
  8
0
 10
759.5554899649348499
 20
102.8229193205422973
 30
0.0
 40
0.0002336965613697
 50
73.7510970527143712
 51
136.3282695411604948
  0
ARC
  5
E84A
  8
0
 10
759.5498647596539286
 20
102.8086767391791057
 30
0.0
 40
0.0155459101473967
 50
53.764939192792653
 51
68.5277222137841306
  0
ARC
  5
E84B
  8
0
 10
759.4348486654904491
 20
102.6449871993492025
 30
0.0
 40
0.2156004583445092
 50
49.641862369407157
 51
54.8239974759385191
  0
ARC
  5
E84C
  8
0
 10
758.2312343525625238
 20
103.2139415968179037
 30
0.0
 40
0.5754752159633985
 50
45.9090454188812984
 51
49.8996296098022825
  0
ARC
  5
E84D
  8
0
 10
758.5067052054344003
 20
103.4716189606662056
 30
0.0
 40
0.1995944934806548
 50
41.9788747514686378
 51
51.2449984374459717
  0
ARC
  5
E84E
  8
0
 10
758.646731220837637
 20
103.5960646365961964
 30
0.0
 40
0.0123174160695262
 50
15.4257600153252596
 51
47.3148277700858131
  0
ARC
  5
E84F
  8
0
 10
758.6572570471159906
 20
103.5989690242519998
 30
0.0
 40
0.0013982363158355
 50
291.2423501673833925
 51
15.4257600156313597
  0
ARC
  5
E850
  8
0
 10
758.6588831758078868
 20
103.6093415673565943
 30
0.0
 40
0.011729328046824
 50
245.0991633617059904
 51
264.5229545784043239
  0
ARC
  5
E851
  8
0
 10
758.7694600582642579
 20
103.8401697935925938
 30
0.0
 40
0.267675599416682
 50
240.0204070092881921
 51
244.4340089412802968
  0
ARC
  5
E852
  8
0
 10
758.2133562524556964
 20
103.181691065261802
 30
0.0
 40
0.6117011841006882
 50
50.5645086393561769
 51
55.8240773859856674
  0
ARC
  5
E853
  8
0
 10
758.5152055580681463
 20
103.6297253031021057
 30
0.0
 40
0.0715020705897464
 50
54.259808021098948
 51
69.5968303460410738
  0
ARC
  5
E854
  8
0
 10
758.5372801519959012
 20
103.6896691871872065
 30
0.0
 40
0.0076260146396362
 50
68.0325609812828844
 51
94.4153640551473501
  0
ARC
  5
E855
  8
0
 10
758.5370642896683648
 20
103.6924647681163947
 30
0.0
 40
0.0048221121313219
 50
94.4153640551473501
 51
113.2666743215181953
  0
ARC
  5
E856
  8
0
 10
758.5364419726927281
 20
103.6949767161545992
 30
0.0
 40
0.0023072718272709
 50
123.7685162996896935
 51
148.9097548512102946
  0
ARC
  5
E857
  8
0
 10
758.5355731074947698
 20
103.6959613567481995
 30
0.0
 40
0.0011261306639196
 50
169.4179831188565117
 51
201.8584210035571971
  0
ARC
  5
E858
  8
0
 10
758.6516280175299016
 20
103.7759916311228068
 30
0.0
 40
0.142072370769341
 50
214.4896617086104982
 51
223.5205153557232052
  0
LINE
  5
E859
  8
0
 10
758.5570365887040225
 20
103.6877169412118036
 30
0.0
 11
758.5224139960516823
 21
103.6484563468207938
 31
0.0
  0
LINE
  5
E85A
  8
0
 10
758.6437049253970599
 20
103.6167707383263945
 30
0.0
 11
758.6060939898286506
 21
103.5769860349069944
 31
0.0
  0
ARC
  5
E85B
  8
0
 10
758.5959004599933451
 20
103.587447229465198
 30
0.0
 40
0.0146063219902665
 50
292.2298595227055102
 51
314.257545137419072
  0
ARC
  5
E85C
  8
0
 10
758.597158385918874
 20
103.5865644974115014
 30
0.0
 40
0.0133391744862587
 50
248.5839532301897918
 51
288.6604288636165734
  0
ARC
  5
E85D
  8
0
 10
758.6273988512990627
 20
103.6466375532415043
 30
0.0
 40
0.080546660450082
 50
231.6725202638731105
 51
244.1567842249880016
  0
ARC
  5
E85E
  8
0
 10
758.8692857401272249
 20
103.9746593769910987
 30
0.0
 40
0.4880718031401407
 50
229.7849246651013004
 51
233.2773977846678974
  0
ARC
  5
E85F
  8
0
 10
758.8620322717622457
 20
103.9701976407095003
 30
0.0
 40
0.4799888006447149
 50
226.6413700108861917
 51
230.1022305255038134
  0
ARC
  5
E860
  8
0
 10
758.5984743186652395
 20
103.6929924500489051
 30
0.0
 40
0.0975007498520389
 50
218.9050297848839932
 51
227.4091435004029051
  0
ARC
  5
E861
  8
0
 10
758.5335923128111517
 20
103.6407028322536945
 30
0.0
 40
0.0141709434811737
 50
183.0747273231100962
 51
219.134607511701887
  0
ARC
  5
E862
  8
0
 10
758.5319298472519449
 20
103.6403585934850042
 30
0.0
 40
0.012495000326272
 50
139.603040955667808
 51
181.9073108389540039
  0
ARC
  5
E863
  8
0
 10
758.3673543069977541
 20
103.3785222406929023
 30
0.0
 40
0.2960478481578904
 50
47.8658030148194484
 51
50.0591649118674908
  0
ARC
  5
E864
  8
0
 10
758.4559886515341987
 20
103.4764981943126969
 30
0.0
 40
0.1639292101115727
 50
45.5601207626069069
 51
47.8658030148194484
  0
ARC
  5
E865
  8
0
 10
758.5370516126300799
 20
103.5591617892732046
 30
0.0
 40
0.0481515197156614
 50
40.5862899200976415
 51
45.5601207626077667
  0
ARC
  5
E866
  8
0
 10
758.5682263959895408
 20
103.585868873099102
 30
0.0
 40
0.0071011184508354
 50
28.5143725960225112
 51
40.5862899200290315
  0
ARC
  5
E867
  8
0
 10
758.5741801385818235
 20
103.589103425610503
 30
0.0
 40
0.0003254722975166
 50
332.4306833491297084
 51
28.5143725965363188
  0
ARC
  5
E868
  8
0
 10
758.5743348102257642
 20
103.589085031186201
 30
0.0
 40
0.0001881538474914
 50
285.1389235464582157
 51
315.3450963185862861
  0
ARC
  5
E869
  8
0
 10
758.574302873809529
 20
103.5895394846473039
 30
0.0
 40
0.0006412236066324
 50
246.4868784988246091
 51
277.2637797433067135
  0
ARC
  5
E86A
  8
0
 10
758.580432365551701
 20
103.6038007360735946
 30
0.0
 40
0.0161639093224561
 50
235.0850129881424095
 51
246.7318283896725859
  0
ARC
  5
E86B
  8
0
 10
758.6862420149489026
 20
103.7560814425206956
 30
0.0
 40
0.2015960611527888
 50
229.2606914523580883
 51
235.1973613828261023
  0
ARC
  5
E86C
  8
0
 10
758.7047613268266559
 20
103.7831421045302989
 30
0.0
 40
0.2342137179315194
 50
226.0145738639021999
 51
230.1483553118549992
  0
ARC
  5
E86D
  8
0
 10
758.5742827877008949
 20
103.6477455737837943
 30
0.0
 40
0.0461797888915376
 50
219.6483243790806057
 51
225.8308262027603917
  0
ARC
  5
E86E
  8
0
 10
758.5396588318468503
 20
103.6193035734938945
 30
0.0
 40
0.0013856122598902
 50
179.8224415072810984
 51
227.6547545863224116
  0
ARC
  5
E86F
  8
0
 10
758.5384422608183286
 20
103.6191464940097973
 30
0.0
 40
0.0002336965613697
 50
73.7510970527143712
 51
136.3282695411604948
  0
ARC
  5
E870
  8
0
 10
758.5328170555372935
 20
103.6049039126467051
 30
0.0
 40
0.0155459101473967
 50
53.764939192792653
 51
68.5277222137841306
  0
ARC
  5
E871
  8
0
 10
758.4178009613740414
 20
103.4412143728168019
 30
0.0
 40
0.2156004583445092
 50
49.641862369407157
 51
54.8239974759385191
  0
ARC
  5
E872
  8
0
 10
758.4123927049665781
 20
103.0237702543692961
 30
0.0
 40
0.5754752159633985
 50
45.9090454188812984
 51
49.8996296098022825
  0
ARC
  5
E873
  8
0
 10
758.6878635578375452
 20
103.281447618217598
 30
0.0
 40
0.1995944934806548
 50
41.9788747514686378
 51
51.2449984374459717
  0
ARC
  5
E874
  8
0
 10
758.8278895732407818
 20
103.4058932941477025
 30
0.0
 40
0.0123174160695262
 50
15.4257600153252596
 51
47.3148277700858131
  0
ARC
  5
E875
  8
0
 10
758.8384153995191355
 20
103.4087976818034065
 30
0.0
 40
0.0013982363158355
 50
291.2423501673833925
 51
15.4257600156313597
  0
ARC
  5
E876
  8
0
 10
758.8400415282110316
 20
103.4191702249080009
 30
0.0
 40
0.011729328046824
 50
245.0991633617059904
 51
264.5229545784043239
  0
ARC
  5
E877
  8
0
 10
758.950618410667289
 20
103.6499984511440005
 30
0.0
 40
0.267675599416682
 50
240.0204070092881921
 51
244.4340089412802968
  0
ARC
  5
E878
  8
0
 10
758.3945146048597508
 20
102.9915197228131944
 30
0.0
 40
0.6117011841006882
 50
50.5645086393561769
 51
55.8240773859856674
  0
ARC
  5
E879
  8
0
 10
758.6963639104720869
 20
103.4395539606535976
 30
0.0
 40
0.0715020705897464
 50
54.259808021098948
 51
69.5968303460410738
  0
ARC
  5
E87A
  8
0
 10
758.718438504399046
 20
103.4994978447386984
 30
0.0
 40
0.0076260146396362
 50
68.0325609812828844
 51
94.4153640551473501
  0
ARC
  5
E87B
  8
0
 10
758.7182226420716233
 20
103.5022934256679008
 30
0.0
 40
0.0048221121313219
 50
94.4153640551473501
 51
113.2666743215181953
  0
ARC
  5
E87C
  8
0
 10
758.7176003250957592
 20
103.5048053737061053
 30
0.0
 40
0.0023072718272709
 50
123.7685162996896935
 51
148.9097548512102946
  0
ARC
  5
E87D
  8
0
 10
758.7167314598980283
 20
103.5057900142997056
 30
0.0
 40
0.0011261306639196
 50
169.4179831188565117
 51
201.8584210035571971
  0
ARC
  5
E87E
  8
0
 10
758.8327863699330464
 20
103.5858202886742987
 30
0.0
 40
0.142072370769341
 50
214.4896617086104982
 51
223.5205153557232052
  0
LINE
  5
E87F
  8
0
 10
758.7381949411071673
 20
103.4975455987632955
 30
0.0
 11
758.7035723484548271
 21
103.4582850043722999
 31
0.0
  0
LINE
  5
E880
  8
0
 10
758.8248632778003184
 20
103.4265993958779006
 30
0.0
 11
758.7872523422316817
 21
103.3868146924584011
 31
0.0
  0
ARC
  5
E881
  8
0
 10
758.7770588123964899
 20
103.3972758870167041
 30
0.0
 40
0.0146063219902665
 50
292.2298595227055102
 51
314.257545137419072
  0
ARC
  5
E882
  8
0
 10
758.7783167383220189
 20
103.3963931549628938
 30
0.0
 40
0.0133391744862587
 50
248.5839532301897918
 51
288.6604288636165734
  0
ARC
  5
E883
  8
0
 10
758.8085572037023212
 20
103.4564662107928967
 30
0.0
 40
0.080546660450082
 50
231.6725202638731105
 51
244.1567842249880016
  0
ARC
  5
E884
  8
0
 10
759.0504440925312792
 20
103.7844880345425054
 30
0.0
 40
0.4880718031401407
 50
229.7849246651013004
 51
233.2773977846678974
  0
ARC
  5
E885
  8
0
 10
759.0431906241661864
 20
103.780026298260907
 30
0.0
 40
0.4799888006447149
 50
226.6413700108861917
 51
230.1022305255038134
  0
ARC
  5
E886
  8
0
 10
758.7796326710692938
 20
103.502821107600397
 30
0.0
 40
0.0975007498520389
 50
218.9050297848839932
 51
227.4091435004029051
  0
ARC
  5
E887
  8
0
 10
758.714750665215206
 20
103.4505314898051012
 30
0.0
 40
0.0141709434811737
 50
183.0747273231100962
 51
219.134607511701887
  0
ARC
  5
E888
  8
0
 10
758.7130881996552034
 20
103.4501872510364961
 30
0.0
 40
0.012495000326272
 50
139.603040955667808
 51
181.9073108389540039
  0
ARC
  5
E889
  8
0
 10
758.5485126594010126
 20
103.1883508982442947
 30
0.0
 40
0.2960478481578904
 50
47.8658030148194484
 51
50.0591649118674908
  0
ARC
  5
E88A
  8
0
 10
758.637147003938253
 20
103.2863268518641036
 30
0.0
 40
0.1639292101115727
 50
45.5601207626069069
 51
47.8658030148194484
  0
ARC
  5
E88B
  8
0
 10
758.7182099650342479
 20
103.368990446824597
 30
0.0
 40
0.0481515197156614
 50
40.5862899200976415
 51
45.5601207626077667
  0
ARC
  5
E88C
  8
0
 10
758.7493847483934815
 20
103.3956975306505939
 30
0.0
 40
0.0071011184508354
 50
28.5143725960225112
 51
40.5862899200290315
  0
ARC
  5
E88D
  8
0
 10
758.7553384909848546
 20
103.3989320831618954
 30
0.0
 40
0.0003254722975166
 50
332.4306833491297084
 51
28.5143725965363188
  0
ARC
  5
E88E
  8
0
 10
758.7554931626287953
 20
103.3989136887375935
 30
0.0
 40
0.0001881538474914
 50
285.1389235464582157
 51
315.3450963185862861
  0
ARC
  5
E88F
  8
0
 10
758.7554612262126739
 20
103.3993681421987958
 30
0.0
 40
0.0006412236066324
 50
246.4868784988246091
 51
277.2637797433067135
  0
ARC
  5
E890
  8
0
 10
758.7615907179557553
 20
103.4136293936251008
 30
0.0
 40
0.0161639093224561
 50
235.0850129881424095
 51
246.7318283896725859
  0
ARC
  5
E891
  8
0
 10
758.8674003673520474
 20
103.5659101000721023
 30
0.0
 40
0.2015960611527888
 50
229.2606914523580883
 51
235.1973613828261023
  0
ARC
  5
E892
  8
0
 10
758.8859196792298007
 20
103.5929707620817055
 30
0.0
 40
0.2342137179315194
 50
226.0145738639021999
 51
230.1483553118549992
  0
ARC
  5
E893
  8
0
 10
758.7554411401040397
 20
103.4575742313353004
 30
0.0
 40
0.0461797888915376
 50
219.6483243790806057
 51
225.8308262027603917
  0
ARC
  5
E894
  8
0
 10
758.7208171842510183
 20
103.4291322310454007
 30
0.0
 40
0.0013856122598902
 50
179.8224415072810984
 51
227.6547545863224116
  0
ARC
  5
E895
  8
0
 10
758.7196006132223829
 20
103.4289751515613034
 30
0.0
 40
0.0002336965613697
 50
73.7510970527143712
 51
136.3282695411604948
  0
ARC
  5
E896
  8
0
 10
758.713975407940552
 20
103.4147325701980975
 30
0.0
 40
0.0155459101473967
 50
53.764939192792653
 51
68.5277222137841306
  0
ARC
  5
E897
  8
0
 10
758.5989593137780957
 20
103.2510430303681943
 30
0.0
 40
0.2156004583445092
 50
49.641862369407157
 51
54.8239974759385191
  0
LINE
  5
E898
  8
0
 10
759.731889467629685
 20
102.760960508915602
 30
0.0
 11
759.6748113512627469
 21
102.801438615884706
 31
0.0
  0
LINE
  5
E899
  8
0
 10
759.455055099467927
 20
102.9635615757228067
 30
0.0
 11
759.5558459650399072
 21
102.8934278804691047
 31
0.0
  0
LINE
  5
E89A
  8
0
 10
759.3485181138510143
 20
103.0503114180678068
 30
0.0
 11
759.2489848215188886
 21
103.1241172536431066
 31
0.0
  0
LINE
  5
E89B
  8
0
 10
759.420159465529423
 20
102.9386989886290991
 30
0.0
 11
759.406084301240071
 21
102.9238088555003969
 31
0.0
  0
ARC
  5
E89C
  8
0
 10
759.3975013904162097
 20
102.9319220052539947
 30
0.0
 40
0.0118105697207404
 50
232.4079924416161873
 51
316.6116512962227034
  0
LINE
  5
E89D
  8
0
 10
759.3902965337925934
 20
102.9225636080538067
 30
0.0
 11
759.3216114625407727
 21
102.9754429719007049
 31
0.0
  0
ARC
  5
E89E
  8
0
 10
759.3288127127558482
 20
102.9847966847327001
 30
0.0
 40
0.0118046579116614
 50
138.6027086520894898
 51
232.4079924416170115
  0
LINE
  5
E89F
  8
0
 10
759.3199575391388407
 20
102.9926028264571016
 30
0.0
 11
759.3350412839796491
 21
103.009720491939305
 31
0.0
  0
LINE
  5
E8A0
  8
0
 10
759.237364909434973
 20
103.1230323142857941
 30
0.0
 11
759.2024447759929444
 21
103.0808220799662962
 31
0.0
  0
ARC
  5
E8A1
  8
0
 10
759.1935796335726536
 20
103.0893082375312986
 30
0.0
 40
0.0122721481555543
 50
233.3730789153453031
 51
316.2512480717945778
  0
ARC
  5
E8A2
  8
0
 10
759.722027405156723
 20
103.8377065911533066
 30
0.0
 40
0.9284328936067113
 50
229.2637092746005862
 51
234.7553817193067118
  0
ARC
  5
E8A3
  8
0
 10
759.1245915998649707
 20
103.1425340957645034
 30
0.0
 40
0.0118486716704183
 50
136.0884920450008906
 51
224.3902616278157041
  0
LINE
  5
E8A4
  8
0
 10
759.1160556766687932
 20
103.150751700983804
 30
0.0
 11
759.1579269932287843
 21
103.194244949045995
 31
0.0
  0
LINE
  5
E8A5
  8
0
 10
759.0061219255383094
 20
103.2494295939272035
 30
0.0
 11
758.9884377690566453
 21
103.2301982692253972
 31
0.0
  0
ARC
  5
E8A6
  8
0
 10
758.9792224468388895
 20
103.2405374462348959
 30
0.0
 40
0.0138499366354074
 50
247.231104311399406
 51
311.7106609554957117
  0
LINE
  5
E8A7
  8
0
 10
758.9738623125720096
 20
103.2277667882469956
 30
0.0
 11
758.9066393357740026
 21
103.283951505178905
 31
0.0
  0
ARC
  5
E8A8
  8
0
 10
758.9142143154729183
 20
103.2930141567339035
 30
0.0
 40
0.0118113220729689
 50
138.1137829714332099
 51
230.1095374753068086
  0
LINE
  5
E8A9
  8
0
 10
758.905421114812043
 20
103.3009000270888009
 30
0.0
 11
758.9439686737850934
 21
103.3438827805160969
 31
0.0
  0
LINE
  5
E8AA
  8
0
 10
758.7170690546923879
 20
103.5069755193839995
 30
0.0
 11
758.6147223136738376
 21
103.5861130427842056
 31
0.0
  0
LINE
  5
E8AB
  8
0
 10
758.6564664642926346
 20
103.5538352324354037
 30
0.0
 11
758.6242662696109846
 21
103.5195064798811018
 31
0.0
  0
ARC
  5
E8AC
  8
0
 10
758.6155415446507959
 20
103.5286518419353996
 30
0.0
 40
0.0126395598315314
 50
224.0706692401485043
 51
313.6515857151969726
  0
LINE
  5
E8AD
  8
0
 10
758.6064602426838519
 20
103.5198604582380995
 30
0.0
 11
758.3765027632249485
 21
103.7213396751946988
 31
0.0
  0
ARC
  5
E8AE
  8
0
 10
758.3859048551954629
 20
103.7327742525952061
 30
0.0
 40
0.0148178885612018
 50
188.5827776003397958
 51
231.0579588189860942
  0
LINE
  5
E8AF
  8
0
 10
758.5220621376504369
 20
103.6737308573264045
 30
0.0
 11
758.4897116899262528
 21
103.6382889230400934
 31
0.0
  0
ARC
  5
E8B0
  8
0
 10
758.4799782509304578
 20
103.6471733452855943
 30
0.0
 40
0.0131784973846382
 50
248.4872943519993953
 51
317.6110087326176199
  0
LINE
  5
E8B1
  8
0
 10
758.5383621194885109
 20
103.6157588148577986
 30
0.0
 11
758.527469169130768
 21
103.6038249079746976
 31
0.0
  0
ARC
  5
E8B2
  8
0
 10
758.5191011187314416
 20
103.611463040103402
 30
0.0
 40
0.0113298424477255
 50
229.513213569125611
 51
317.6110087326771918
  0
LINE
  5
E8B3
  8
0
 10
758.6014263712010006
 20
103.5739265435579028
 30
0.0
 11
758.5833660675887131
 21
103.5543392177914939
 31
0.0
  0
ARC
  5
E8B4
  8
0
 10
758.5741799390268625
 20
103.5643484666430965
 30
0.0
 40
0.0135856549543153
 50
254.9868105439286126
 51
312.5445940564314924
  0
LINE
  5
E8B5
  8
0
 10
758.5352299283047159
 20
103.662989086266407
 30
0.0
 11
758.4622961403407544
 21
103.7224856315430941
 31
0.0
  0
ARC
  5
E8B6
  8
0
 10
757.986099973713749
 20
103.2654224948895063
 30
0.0
 40
0.6643428168542663
 50
42.8920073105980606
 51
49.3950139199052529
  0
ARC
  5
E8B7
  8
0
 10
758.2335455131011486
 20
103.504208113395606
 30
0.0
 40
0.3205993519425521
 50
40.6163904582085067
 51
41.7253980567149299
  0
ARC
  5
E8B8
  8
0
 10
758.4731204009065095
 20
103.7096675379054034
 30
0.0
 40
0.0049893045948908
 50
15.6261565412586698
 51
40.6163904582783672
  0
ARC
  5
E8B9
  8
0
 10
758.4773431308718727
 20
103.7108486235913034
 30
0.0
 40
0.0006045113547757
 50
265.9613902964641738
 51
15.6261565415573092
  0
LINE
  5
E8BA
  8
0
 10
758.4652243580522963
 20
103.7256302769163057
 30
0.0
 11
758.4339080457564251
 21
103.6919993429258966
 31
0.0
  0
ARC
  5
E8BB
  8
0
 10
758.425199441317659
 20
103.7014974943468957
 30
0.0
 40
0.0128862202249832
 50
225.6709487848476954
 51
312.5168896390524083
  0
LINE
  5
E8BC
  8
0
 10
758.4161948330898895
 20
103.6922794846725964
 30
0.0
 11
758.3712529079482465
 21
103.7305628586328936
 31
0.0
  0
LINE
  5
E8BD
  8
0
 10
758.3712529079482465
 20
103.7305628586328936
 30
0.0
 11
758.2836306613504576
 21
103.8107539584166972
 31
0.0
  0
ARC
  5
E8BE
  8
0
 10
758.2930626429531458
 20
103.8210599826525993
 30
0.0
 40
0.0139705551965719
 50
147.0906314210284052
 51
227.5355276191959888
  0
LINE
  5
E8BF
  8
0
 10
758.2813339282544121
 20
103.8286503491805064
 30
0.0
 11
758.3048897691520551
 21
103.8650490838585938
 31
0.0
  0
ARC
  5
E8C0
  8
0
 10
767.0584912445199279
 20
114.4401327616068045
 30
0.0
 40
13.7274920872870307
 50
230.4217458298008125
 51
230.7604598730366092
  0
ARC
  5
E8C1
  8
0
 10
758.1799242801869241
 20
103.6880491236250066
 30
0.0
 40
0.2166687779883391
 50
52.349968636192763
 51
57.7248291353352982
  0
ARC
  5
E8C2
  8
0
 10
758.2943496122221632
 20
103.8694875942721012
 30
0.0
 40
0.0021667494745095
 50
54.0268068865424098
 51
103.6842134917787064
  0
ARC
  5
E8C3
  8
0
 10
758.3226247942291138
 20
103.8992634526797048
 30
0.0
 40
0.0399299212107109
 50
223.8664208143752887
 51
231.156918063816704
  0
LINE
  5
E8C4
  8
0
 10
758.2975811615093562
 20
103.8681633711992021
 30
0.0
 11
758.3034427238615081
 21
103.8628130941598045
 31
0.0
  0
LINE
  5
E8C5
  8
0
 10
759.1538004313567853
 20
103.1899585402615003
 30
0.0
 11
759.0332925987946737
 21
103.2762927301722016
 31
0.0
  0
LINE
  5
E8C6
  8
0
 10
758.9444208467145927
 20
103.3435896943855994
 30
0.0
 11
758.8384064394074358
 21
103.4123053347482966
 31
0.0
  0
LINE
  5
E8C7
  8
0
 10
758.2938370233248406
 20
103.8715928391288941
 30
0.0
 11
758.2315227929907451
 21
103.9234814760014984
 31
0.0
  0
ARC
  5
E8C8
  8
0
 10
759.8380498099120359
 20
102.6667682769023031
 30
0.0
 40
0.0197011269219748
 50
147.0494147131487921
 51
220.8955870338710099
  0
ARC
  5
E8C9
  8
0
 10
759.3269182932341437
 20
102.178101291530993
 30
0.0
 40
0.687466102671918
 50
18.850524068759821
 51
43.7935373833788191
  0
LINE
  5
E8CA
  8
0
 10
759.9775119552530214
 20
102.4002218202173964
 30
0.0
 11
759.9776565175923224
 21
102.3998594438199063
 31
0.0
  0
LINE
  5
E8CB
  8
0
 10
759.9776565175923224
 20
102.3998594438199063
 30
0.0
 11
759.9992074784538545
 21
102.3423199649173938
 31
0.0
  0
ARC
  5
E8CC
  8
0
 10
759.9881818185791644
 20
102.3381903904242023
 30
0.0
 40
0.0117736383996241
 50
289.3939004244252828
 51
20.5330437072491492
  0
LINE
  5
E8CD
  8
0
 10
759.992091381383716
 20
102.3270848116532932
 30
0.0
 11
759.7033221030221739
 21
102.2246261675358028
 31
0.0
  0
ARC
  5
E8CE
  8
0
 10
759.6961612396069086
 20
102.2451481515514047
 30
0.0
 40
0.0217354501400273
 50
205.801966910434686
 51
289.2357294016522928
  0
LINE
  5
E8CF
  8
0
 10
759.6765927306030335
 20
102.2356875359174069
 30
0.0
 11
759.4262859066382134
 21
102.9377311938474975
 31
0.0
  0
LINE
  5
E8D0
  8
0
 10
762.0521296880913269
 20
98.9348866094959476
 30
0.0
 11
760.5300020504689655
 21
103.1236401748736
 31
0.0
  0
LINE
  5
E8D1
  8
0
 10
758.1165810531565512
 20
104.0329257079143019
 30
0.0
 11
758.0886068202651131
 21
104.0020748020441061
 31
0.0
  0
ARC
  5
E8D2
  8
0
 10
758.0987790680544549
 20
103.9941640469219948
 30
0.0
 40
0.0128862202249832
 50
142.1285020205081082
 51
228.974442874673997
  0
LINE
  5
E8D3
  8
0
 10
758.0903206097151497
 20
103.984442465044097
 30
0.0
 11
758.1321180066649958
 21
103.942748688944107
 31
0.0
  0
LINE
  5
E8D4
  8
0
 10
758.1321180066649958
 20
103.942748688944107
 30
0.0
 11
758.219142082465396
 21
103.8619088422441052
 31
0.0
  0
ARC
  5
E8D5
  8
0
 10
758.2286503689072106
 20
103.8721445103436025
 30
0.0
 40
0.0139705551965719
 50
227.1098640403907041
 51
307.5547602385473738
  0
LINE
  5
E8D6
  8
0
 10
758.2371656932652968
 20
103.8610690571441069
 30
0.0
 11
758.2676893698495633
 21
103.8933658127975974
 31
0.0
  0
LINE
  5
E8D7
  8
0
 10
762.8782257980035411
 20
96.6199059419553663
 30
0.0
 11
764.4013597680393559
 21
92.4351297524145821
 31
0.0
  0
ARC
  5
E8D8
  8
0
 10
787.3356867600739406
 20
80.0549659531887698
 30
0.0
 40
23.5460737551869315
 50
172.721162938275711
 51
183.5097577586321052
  0
ARC
  5
E8D9
  8
0
 10
790.3279736276388121
 20
80.0065069197875687
 30
0.0
 40
25.8934409717703389
 50
172.3376717636523949
 51
182.9600069894175078
  0
ARC
  5
E8DA
  8
0
 10
724.7034608912770182
 20
89.0738977793352262
 30
0.0
 40
40.3548051253538773
 50
352.0020127138271278
 51
358.3861450510323152
  0
ARC
  5
E8DB
  8
0
 10
752.7776184582087353
 20
88.4842875160178721
 30
0.0
 40
12.2768284346878698
 50
357.4467033435051917
 51
18.7725992198430696
  0
ARC
  5
E8DC
  8
0
 10
708.282846368523451
 20
90.2533224892270738
 30
0.0
 40
56.161907458069102
 50
352.618821470872092
 51
357.9702758787647099
  0
ARC
  5
E8DD
  8
0
 10
752.8962640093639038
 20
88.5197487014620208
 30
0.0
 40
11.5160892486237891
 50
358.7283810193487739
 51
18.7276174741761992
  0
ARC
  5
E8DE
  8
0
 10
299745.6722355479723774
 20
25960.8913782110503234
 30
0.0
 40
300100.0367145977215841
 50
184.9476498301237939
 51
184.9486849123640866
  0
LINE
  5
E8DF
  8
0
 10
764.4690748218652061
 20
78.6694484654441339
 30
0.0
 11
764.8974443570248241
 21
73.7220463168169999
 31
0.0
  0
LINE
  5
E8E0
  8
0
 10
761.866452963463189
 20
71.7201040383941404
 30
0.0
 11
761.9193086315615346
 21
70.4515680040314862
 31
0.0
  0
LINE
  5
E8E1
  8
0
 10
761.9389766054653137
 20
70.4327024634441159
 30
0.0
 11
762.6886139551650103
 21
70.4327024634441159
 31
0.0
  0
LINE
  5
E8E2
  8
0
 10
761.9786424362652042
 20
70.4327024634441159
 30
0.0
 11
761.9786424362652042
 21
68.3741126861441444
 31
0.0
  0
LINE
  5
E8E3
  8
0
 10
762.6164377118644779
 20
68.3741126861441444
 30
0.0
 11
762.6164377118644779
 21
70.4327024634441159
 31
0.0
  0
LINE
  5
E8E4
  8
0
 10
762.7082823347742533
 20
70.4515680040310883
 30
0.0
 11
762.7611380028654366
 21
71.7201040383441182
 31
0.0
  0
ARC
  5
E8E5
  8
0
 10
762.9761053451181851
 20
68.3794974282221233
 30
0.0
 40
0.9974774433466539
 50
180.3093047320762992
 51
206.5615724021810138
  0
ARC
  5
E8E6
  8
0
 10
763.5028621111139273
 20
68.6813266095060442
 30
0.0
 40
1.603972574663713
 50
207.7914839630450956
 51
242.8526983608493026
  0
ARC
  5
E8E7
  8
0
 10
763.6457862040676901
 20
68.8391607343076828
 30
0.0
 40
1.8104730445982871
 50
241.1067066165863082
 51
268.5701176309711968
  0
ARC
  5
E8E8
  8
0
 10
763.6007388014255639
 20
68.3058947157389298
 30
0.0
 40
1.276643271871639
 50
269.9941497148271878
 51
311.5895982538327189
  0
ARC
  5
E8E9
  8
0
 10
762.4156820902204572
 20
69.3361829696002872
 30
0.0
 40
2.8410652751884471
 50
315.6754769172010811
 51
1.381803680691098
  0
ARC
  5
E8EA
  8
0
 10
763.1954134615185694
 20
68.4391900771503288
 30
0.0
 40
0.5826216486768084
 50
186.4131791975227941
 51
233.9936465003382011
  0
ARC
  5
E8EB
  8
0
 10
763.6899903236451337
 20
68.94676436934148
 30
0.0
 40
1.2879954249627581
 50
229.4649238688554931
 51
259.7404766204762154
  0
ARC
  5
E8EC
  8
0
 10
763.5965908282939836
 20
68.4260233128811848
 30
0.0
 40
0.758945794252961
 50
259.6769453925538187
 51
279.3042710895646792
  0
ARC
  5
E8ED
  8
0
 10
763.4238655069582364
 20
68.6294220694044839
 30
0.0
 40
0.9971296429555287
 50
287.2343150155836042
 51
338.3419833771484946
  0
ARC
  5
E8EE
  8
0
 10
761.9094406898344687
 20
69.4364871966108126
 30
0.0
 40
2.709253985796495
 50
334.2957985586144218
 51
1.329825255660857
  0
ARC
  5
E8EF
  8
0
 10
748.6473363526026787
 20
68.8550351381425116
 30
0.0
 40
15.9836208931927892
 50
2.310319174190671
 51
7.1714826548332598
  0
ARC
  5
E8F0
  8
0
 10
751.3085200092871219
 20
69.0957551667983978
 30
0.0
 40
13.9508222998608495
 50
1.2689115353216911
 51
7.468063774361779
  0
ARC
  5
E8F1
  8
0
 10
-41023.1134504139408818
 20
-3546.8845117901350932
 30
0.0
 40
41944.5662772199721076
 50
4.94801096724649
 51
4.9486183989987351
  0
ARC
  5
E8F2
  8
0
 10
2655.1348085188178629
 20
234.9198470175620912
 30
0.0
 40
1897.7345396483478908
 50
184.9227485338242047
 51
184.9597220979592009
  0
ARC
  5
E8F3
  8
0
 10
761.9389766056372082
 20
70.4523875030129716
 30
0.0
 40
0.0196850395688465
 50
182.3859442097050021
 51
269.9999994989083234
  0
ARC
  5
E8F4
  8
0
 10
762.688614360681413
 20
70.4523875030271256
 30
0.0
 40
0.0196850395871972
 50
269.9988196944631795
 51
357.6140554967926732
  0
LINE
  5
E8F5
  8
0
 10
758.2217088705863262
 20
72.2440941238351115
 30
0.0
 11
758.213351178764924
 21
72.2078928849035435
 31
0.0
  0
LINE
  5
E8F6
  8
0
 10
758.213351178764924
 20
72.2078928849035435
 30
0.0
 11
758.2527497876988036
 21
72.1711533462612351
 31
0.0
  0
LINE
  5
E8F7
  8
0
 10
758.2527497876988036
 20
72.1711533462612351
 30
0.0
 11
759.0775119027646269
 21
71.9807418116441227
 31
0.0
  0
LINE
  5
E8F8
  8
0
 10
759.0775119027646269
 20
71.9807418116441227
 30
0.0
 11
759.1290288734651313
 21
71.9964921302441212
 31
0.0
  0
LINE
  5
E8F9
  8
0
 10
759.1290288734651313
 20
71.9964921302441212
 30
0.0
 11
759.1827035297017119
 21
72.2289897832072256
 31
0.0
  0
LINE
  5
E8FA
  8
0
 10
758.4913157024162729
 20
72.1438505944894359
 30
0.0
 11
758.518881977864794
 21
72.263253251344139
 31
0.0
  0
LINE
  5
E8FB
  8
0
 10
758.518881977864794
 20
72.263253251344139
 30
0.0
 11
758.8786879545184547
 21
72.1801854964160157
 31
0.0
  0
LINE
  5
E8FC
  8
0
 10
758.8786879545184547
 20
72.1801854964160157
 30
0.0
 11
758.8510930144591384
 21
72.0606586792224846
 31
0.0
  0
LINE
  5
E8FD
  8
0
 10
758.8510930144591384
 20
72.0606586792224846
 30
0.0
 11
759.1290288734514888
 21
71.9964921301871073
 31
0.0
  0
LINE
  5
E8FE
  8
0
 10
758.213351178764924
 20
72.2078928849035435
 30
0.0
 11
758.4913157024162729
 21
72.1438505944894359
 31
0.0
  0
LINE
  5
E8FF
  8
0
 10
758.3195856019690382
 20
72.1456214673431191
 30
0.0
 11
759.0062479704745328
 21
71.987092968371428
 31
0.0
  0
ARC
  5
E900
  8
0
 10
759.0097905067648298
 20
72.0024373788441494
 30
0.0
 40
0.0157480315000088
 50
256.9999999999760121
 51
324.9486342918935975
  0
ARC
  5
E901
  8
0
 10
758.3231281383439182
 20
72.1609658778827452
 30
0.0
 40
0.0157480315840975
 50
189.0513658016014915
 51
256.9999997538567982
  0
ARC
  5
E902
  8
0
 10
758.525523821652996
 20
71.4712429062127512
 30
0.0
 40
0.7920381941211679
 50
63.5195256065521008
 51
90.480474401132426
  0
ARC
  5
E903
  8
0
 10
758.8442049942857466
 20
72.8504247392633033
 30
0.0
 40
0.7897960967102966
 50
243.4607593080002061
 51
270.4996979404053832
  0
LINE
  5
E904
  8
0
 10
764.5185198925153145
 20
72.0727950527441124
 30
0.0
 11
764.5185198926152452
 21
73.2099327088441214
 31
0.0
  0
LINE
  5
E905
  8
0
 10
764.4240317036153556
 20
72.16024183354412
 30
0.0
 11
764.5185198925225905
 21
72.16024183354412
 31
0.0
  0
LINE
  5
E906
  8
0
 10
764.4240317036153556
 20
73.1224859280441137
 30
0.0
 11
764.5185198926070598
 21
73.1224859280358146
 31
0.0
  0
LINE
  5
E907
  8
0
 10
765.3059214673645556
 20
71.3621512823441293
 30
0.0
 11
765.3059214673645556
 21
73.9205764792441187
 31
0.0
  0
ARC
  5
E908
  8
0
 10
765.2859214673646875
 20
73.9205764792441187
 30
0.0
 40
0.02
 50
0.0
 51
89.9999999999739515
  0
ENDSEC
  0
EOF
