  0
SECTION
  2
HEADER
  9
$ACADVER
  1
AC1009
  9
$INSBASE
 10
989.6255993834854507
 20
121.4887619711678042
 30
0.0
  9
$EXTMIN
 10
983.9563080449265726
 20
121.4827937087380008
 30
0.0
  9
$EXTMAX
 10
990.53111119448522
 20
132.518289595882294
 30
0.0
  9
$LIMMIN
 10
0.0
 20
0.0
  9
$LIMMAX
 10
11.6929133858000007
 20
8.2677165353999982
  9
$ORTHOMODE
 70
     0
  9
$REGENMODE
 70
     1
  9
$FILLMODE
 70
     1
  9
$QTEXTMODE
 70
     0
  9
$MIRRTEXT
 70
     0
  9
$DRAGMODE
 70
     2
  9
$LTSCALE
 40
0.6431102362
  9
$OSMODE
 70
  4095
  9
$ATTMODE
 70
     1
  9
$TEXTSIZE
 40
0.2
  9
$TRACEWID
 40
0.05
  9
$TEXTSTYLE
  7
STANDARD
  9
$CLAYER
  8
0
  9
$CELTYPE
  6
BYLAYER
  9
$CECOLOR
 62
   256
  9
$DIMSCALE
 40
1.0
  9
$DIMASZ
 40
0.1875
  9
$DIMEXO
 40
0.0625
  9
$DIMDLI
 40
0.4443307087
  9
$DIMRND
 40
0.0
  9
$DIMDLE
 40
0.0
  9
$DIMEXE
 40
0.125
  9
$DIMTP
 40
0.01
  9
$DIMTM
 40
0.01
  9
$DIMTXT
 40
1.0
  9
$DIMCEN
 40
0.1052362205
  9
$DIMTSZ
 40
0.0
  9
$DIMTOL
 70
     1
  9
$DIMLIM
 70
     0
  9
$DIMTIH
 70
     0
  9
$DIMTOH
 70
     1
  9
$DIMSE1
 70
     0
  9
$DIMSE2
 70
     0
  9
$DIMTAD
 70
     0
  9
$DIMZIN
 70
     0
  9
$DIMBLK
  1

  9
$DIMASO
 70
     1
  9
$DIMSHO
 70
     1
  9
$DIMPOST
  1
\X
  9
$DIMAPOST
  1

  9
$DIMALT
 70
     1
  9
$DIMALTD
 70
     2
  9
$DIMALTF
 40
25.3999999999999986
  9
$DIMLFAC
 40
1.0
  9
$DIMTOFL
 70
     0
  9
$DIMTVP
 40
0.0
  9
$DIMTIX
 70
     0
  9
$DIMSOXD
 70
     0
  9
$DIMSAH
 70
     0
  9
$DIMBLK1
  1

  9
$DIMBLK2
  1

  9
$DIMSTYLE
  2
STANDARD
  9
$DIMCLRD
 70
     0
  9
$DIMCLRE
 70
     0
  9
$DIMCLRT
 70
     0
  9
$DIMTFAC
 40
1.0
  9
$DIMGAP
 40
0.09
  9
$LUNITS
 70
     2
  9
$LUPREC
 70
     4
  9
$SKETCHINC
 40
0.1
  9
$FILLETRAD
 40
0.0
  9
$AUNITS
 70
     0
  9
$AUPREC
 70
     0
  9
$MENU
  1
.
  9
$ELEVATION
 40
0.0
  9
$PELEVATION
 40
0.0
  9
$THICKNESS
 40
0.0
  9
$LIMCHECK
 70
     0
  9
$BLIPMODE
 70
     0
  9
$CHAMFERA
 40
0.0
  9
$CHAMFERB
 40
0.0
  9
$SKPOLY
 70
     0
  9
$TDCREATE
 40
2458172.5207638889551163
  9
$TDUPDATE
 40
2459124.6931481477804482
  9
$TDINDWG
 40
0.4554984028
  9
$TDUSRTIMER
 40
0.4554984028
  9
$USRTIMER
 70
     1
  9
$ANGBASE
 50
0.0
  9
$ANGDIR
 70
     0
  9
$PDMODE
 70
     0
  9
$PDSIZE
 40
0.3125
  9
$PLINEWID
 40
0.0
  9
$COORDS
 70
     1
  9
$SPLFRAME
 70
     0
  9
$SPLINETYPE
 70
     6
  9
$SPLINESEGS
 70
     8
  9
$ATTDIA
 70
     1
  9
$ATTREQ
 70
     1
  9
$HANDLING
 70
     1
  9
$HANDSEED
  5
B580
  9
$SURFTAB1
 70
     6
  9
$SURFTAB2
 70
     6
  9
$SURFTYPE
 70
     6
  9
$SURFU
 70
     6
  9
$SURFV
 70
     6
  9
$UCSNAME
  2

  9
$UCSORG
 10
0.0
 20
0.0
 30
0.0
  9
$UCSXDIR
 10
1.0
 20
0.0
 30
0.0
  9
$UCSYDIR
 10
0.0
 20
1.0
 30
0.0
  9
$PUCSNAME
  2

  9
$PUCSORG
 10
0.0
 20
0.0
 30
0.0
  9
$PUCSXDIR
 10
1.0
 20
0.0
 30
0.0
  9
$PUCSYDIR
 10
0.0
 20
1.0
 30
0.0
  9
$USERI1
 70
     0
  9
$USERI2
 70
     0
  9
$USERI3
 70
     0
  9
$USERI4
 70
     0
  9
$USERI5
 70
     0
  9
$USERR1
 40
0.0
  9
$USERR2
 40
0.0
  9
$USERR3
 40
0.0
  9
$USERR4
 40
0.0
  9
$USERR5
 40
0.0
  9
$WORLDVIEW
 70
     1
  9
$SHADEDGE
 70
     3
  9
$SHADEDIF
 70
    70
  9
$TILEMODE
 70
     1
  9
$MAXACTVP
 70
    64
  9
$PLIMCHECK
 70
     0
  9
$PEXTMIN
 10
1.0000000000000000E+20
 20
1.0000000000000000E+20
 30
1.0000000000000000E+20
  9
$PEXTMAX
 10
-1.0000000000000000E+20
 20
-1.0000000000000000E+20
 30
-1.0000000000000000E+20
  9
$PLIMMIN
 10
0.0
 20
0.0
  9
$PLIMMAX
 10
12.0
 20
9.0
  9
$UNITMODE
 70
     0
  9
$VISRETAIN
 70
     1
  9
$PLINEGEN
 70
     0
  9
$PSLTSCALE
 70
     1
  0
ENDSEC
  0
SECTION
  2
TABLES
  0
TABLE
  2
VPORT
 70
     1
  0
VPORT
  2
*ACTIVE
 70
     0
 10
0.0
 20
0.0
 11
1.0
 21
1.0
 12
520.5015079118759331
 22
37.8673945323803878
 13
0.0
 23
0.0
 14
1.0
 24
1.0
 15
0.0
 25
0.0
 16
0.0
 26
0.0
 36
24.1179433675886514
 17
466.74220170783002
 27
89.133147119929788
 37
0.0
 40
11.10534861071684
 41
2.005224660397074
 42
50.0
 43
0.0
 44
0.0
 50
0.0
 51
0.0
 71
     0
 72
   100
 73
     1
 74
     1
 75
     0
 76
     0
 77
     0
 78
     0
  0
ENDTAB
  0
TABLE
  2
LTYPE
 70
     3
  0
LTYPE
  2
CONTINUOUS
 70
     0
  3
Solid line
 72
    65
 73
     0
 40
0.0
  0
LTYPE
  2
PHANTOM2
 70
     0
  3
___ _ _ ___ _ _ ___ _ _ ___ _ _
 72
    65
 73
     6
 40
1.25
 49
0.625
 49
-0.125
 49
0.125
 49
-0.125
 49
0.125
 49
-0.125
  0
ENDTAB
  0
TABLE
  2
LAYER
 70
     2
  0
LAYER
  2
0
 70
     0
 62
   255
  6
CONTINUOUS
  0
LAYER
  2
DEFPOINTS
 70
     0
 62
     7
  6
CONTINUOUS
  0
ENDTAB
  0
TABLE
  2
STYLE
 70
     1
  0
STYLE
  2
STANDARD
 70
     0
 40
0.0
 41
0.8
 50
0.0
 71
     0
 42
0.2
  3
txt
  4

  0
ENDTAB
  0
TABLE
  2
VIEW
 70
     0
  0
ENDTAB
  0
TABLE
  2
UCS
 70
     0
  0
ENDTAB
  0
TABLE
  2
APPID
 70
    11
  0
APPID
  2
ACAD
 70
     0
  0
APPID
  2
ACAD_MLEADERVER
 70
     0
  0
APPID
  2
ACAD_EXEMPT_FROM_CAD_STANDARDS
 70
     0
  0
APPID
  2
ACAD_DSTYLE_DIMJAG
 70
     0
  0
APPID
  2
ACAD_DSTYLE_DIMTALN
 70
     0
  0
APPID
  2
ACAD_NAV_VCDISPLAY
 70
     0
  0
APPID
  2
ACAECLAYERSTANDARD
 70
     0
  0
APPID
  2
ACCMTRANSPARENCY
 70
     0
  0
APPID
  2
DCO15
 70
     0
  0
APPID
  2
ACDBATTR
 70
     0
  0
APPID
  2
ACADANNOTATIVE
 70
     0
  0
ENDTAB
  0
TABLE
  2
DIMSTYLE
 70
     2
  0
DIMSTYLE
  2
STANDARD
 70
     0
  3

  4

  5

  6

  7

 40
1.0
 41
0.1875
 42
0.0625
 43
0.38
 44
0.125
 45
0.0
 46
0.0
 47
0.01
 48
0.01
140
0.15625
141
0.09
142
0.0
143
25.3999999999999986
144
1.0
145
0.0
146
1.0
147
0.09
 71
     1
 72
     0
 73
     1
 74
     1
 75
     0
 76
     0
 77
     0
 78
     4
170
     0
171
     2
172
     0
173
     0
174
     0
175
     0
176
     0
177
     0
178
     0
  0
ENDTAB
  0
ENDSEC
  0
SECTION
  2
BLOCKS
  0
BLOCK
  8
0
  2
$MODEL_SPACE
 70
     0
 10
0.0
 20
0.0
 30
0.0
  3
$MODEL_SPACE
  1

  0
ENDBLK
  5
21
  8
0
  0
BLOCK
 67
     1
  8
0
  2
$PAPER_SPACE
 70
     0
 10
0.0
 20
0.0
 30
0.0
  3
$PAPER_SPACE
  1

  0
ENDBLK
  5
1D
 67
     1
  8
0
  0
ENDSEC
  0
SECTION
  2
ENTITIES
  0
ATTDEF
  5
829
  8
DEFPOINTS
 10
989.6234670502351491
 20
121.4861270420713026
 30
0.0
 40
0.001
  1
K-99857T-4
  3

  2
MODELNUMBER
 70
     0
1001
ACDBATTR
1070
     0
1070
     1
  0
ATTDEF
  5
82A
  8
DEFPOINTS
 10
989.6234670502351491
 20
121.4844603754046943
 30
0.0
 40
0.001
  1
BEITOU
  3

  2
TRADENAME
 70
     0
1001
ACDBATTR
1070
     0
1070
     1
  0
ATTDEF
  5
82B
  8
DEFPOINTS
 10
989.6234670502351491
 20
121.4827937087380008
 30
0.0
 40
0.001
  1
BATHROOM SINK FAUCET
  3

  2
PRODUCT
 70
     0
1001
ACDBATTR
1070
     0
1070
     1
  0
LINE
  5
B49F
  8
0
 10
984.0350080449267125
 20
132.4328869448679029
 30
0.0
 11
990.4917111944852195
 21
132.4328869448679029
 31
0.0
  0
LINE
  5
B4A0
  8
0
 10
983.9760080449266297
 20
131.4100218136678109
 30
0.0
 11
990.5114111944853903
 21
131.4100218136678109
 31
0.0
  0
LINE
  5
B4A1
  8
0
 10
988.7200875724854541
 20
121.4887619711678042
 30
0.0
 11
988.7200875724854541
 21
131.4100218136678109
 31
0.0
  0
LINE
  5
B4A2
  8
0
 10
990.53111119448522
 20
121.4887619711678042
 30
0.0
 11
990.53111119448522
 21
131.3903218136678106
 31
0.0
  0
ARC
  5
B4A3
  8
0
 10
990.5114111944853903
 20
131.3903218136678106
 30
0.0
 40
0.0197
 50
0.0
 51
90.0
  0
LINE
  5
B4A4
  8
0
 10
990.53111119448522
 20
131.4297218136678111
 30
0.0
 11
990.53111119448522
 21
132.3934869448677887
 31
0.0
  0
LINE
  5
B4A5
  8
0
 10
988.7200875724854541
 20
121.4887619711678042
 30
0.0
 11
990.53111119448522
 21
121.4887619711678042
 31
0.0
  0
LINE
  5
B4A6
  8
0
 10
983.9563080449265726
 20
131.4297218136678111
 30
0.0
 11
983.9563080449265726
 21
132.3541869448677915
 31
0.0
  0
ARC
  5
B4A7
  8
0
 10
983.9760080449266297
 20
131.4297218136678111
 30
0.0
 40
0.0197
 50
180.0000000000048885
 51
270.0
  0
ARC
  5
B4A8
  8
0
 10
984.0350080449267125
 20
132.3541869448677915
 30
0.0
 40
0.0787
 50
90.0
 51
180.0000000000007958
  0
ARC
  5
B4A9
  8
0
 10
990.4917111944852195
 20
132.3934869448677887
 30
0.0
 40
0.0394
 50
0.0000000000024427
 51
90.0
  0
ARC
  5
B4AA
  8
0
 10
990.5114111944853903
 20
131.4297218136678111
 30
0.0
 40
0.0197
 50
269.9999999999935199
 51
0.0
  0
ARC
  5
B4AB
  8
0
 10
988.739772611613148
 20
131.3903367744883042
 30
0.0
 40
0.0196850391277259
 50
90.0
 51
180.000000641764899
  0
CIRCLE
  5
B4AC
  8
0
 10
989.6255993834854507
 20
130.2289194514679025
 30
0.0
 40
0.7125984251999996
  0
CIRCLE
  5
B4AD
  8
0
 10
989.6255993834854507
 20
130.2289194514679025
 30
0.0
 40
0.4035433071000005
  0
CIRCLE
  5
B4AE
  8
0
 10
989.6255993834854507
 20
130.228919451517811
 30
0.0
 40
0.1889763779499995
  0
ARC
  5
B4AF
  8
0
 10
989.0081262379976579
 20
131.8490322741004093
 30
0.0
 40
0.647657627660112
 50
101.5076663466800966
 51
115.6458329535377061
  0
ARC
  5
B4B0
  8
0
 10
989.1928187543333024
 20
130.9418608790626877
 30
0.0
 40
1.5734390627542469
 50
93.08605906091843
 51
101.5076663466800966
  0
ARC
  5
B4B1
  8
0
 10
989.3047882534228847
 20
128.8650209418516113
 30
0.0
 40
3.653295137948088
 50
90.218165777260694
 51
93.0860382493104481
  0
ARC
  5
B4B2
  8
0
 10
989.1135839960279554
 20
126.933540603655203
 30
0.0
 40
5.587562467322936
 50
85.7475038895019139
 51
88.1816972440463474
  0
ARC
  5
B4B3
  8
0
 10
989.3588610458474477
 20
130.9717388340586126
 30
0.0
 40
1.5432684286408
 50
75.4537614567634023
 51
83.7111297913044865
  0
ARC
  5
B4B4
  8
0
 10
989.6088743970205996
 20
131.9352603040505016
 30
0.0
 40
0.547838722985917
 50
65.2776544298973818
 51
75.4537614567634023
  0
CIRCLE
  5
B4B6
  8
0
 10
990.1836702495853615
 20
130.2289194514679025
 30
0.0
 40
0.0413385826999999
  0
CIRCLE
  5
B4B7
  8
0
 10
989.0675285172853819
 20
130.2289194514679025
 30
0.0
 40
0.0413385827000001
  0
ENDSEC
  0
EOF
