  0
SECTION
  2
HEADER
  9
$ACADVER
  1
AC1009
  9
$INSBASE
 10
655.0566281066079455
 20
82.6577974603258099
 30
0.0
  9
$EXTMIN
 10
652.5732427469538379
 20
80.5071356054688039
 30
-0.0000000349181948
  9
$EXTMAX
 10
657.540081996618369
 20
86.8363756017658233
 30
0.0000000814935746
  9
$LIMMIN
 10
0.0
 20
0.0
  9
$LIMMAX
 10
11.6929133858000007
 20
8.2677165353999982
  9
$ORTHOMODE
 70
     0
  9
$REGENMODE
 70
     1
  9
$FILLMODE
 70
     1
  9
$QTEXTMODE
 70
     0
  9
$MIRRTEXT
 70
     0
  9
$DRAGMODE
 70
     2
  9
$LTSCALE
 40
0.6431102362
  9
$OSMODE
 70
  4095
  9
$ATTMODE
 70
     1
  9
$TEXTSIZE
 40
0.2
  9
$TRACEWID
 40
0.05
  9
$TEXTSTYLE
  7
STANDARD
  9
$CLAYER
  8
0
  9
$CELTYPE
  6
BYLAYER
  9
$CECOLOR
 62
   256
  9
$DIMSCALE
 40
1.0
  9
$DIMASZ
 40
0.1875
  9
$DIMEXO
 40
0.0625
  9
$DIMDLI
 40
0.4443307087
  9
$DIMRND
 40
0.0
  9
$DIMDLE
 40
0.0
  9
$DIMEXE
 40
0.125
  9
$DIMTP
 40
0.01
  9
$DIMTM
 40
0.01
  9
$DIMTXT
 40
1.0
  9
$DIMCEN
 40
0.1052362205
  9
$DIMTSZ
 40
0.0
  9
$DIMTOL
 70
     1
  9
$DIMLIM
 70
     0
  9
$DIMTIH
 70
     0
  9
$DIMTOH
 70
     1
  9
$DIMSE1
 70
     0
  9
$DIMSE2
 70
     0
  9
$DIMTAD
 70
     0
  9
$DIMZIN
 70
     0
  9
$DIMBLK
  1

  9
$DIMASO
 70
     1
  9
$DIMSHO
 70
     1
  9
$DIMPOST
  1
\X
  9
$DIMAPOST
  1

  9
$DIMALT
 70
     1
  9
$DIMALTD
 70
     2
  9
$DIMALTF
 40
25.3999999999999986
  9
$DIMLFAC
 40
1.0
  9
$DIMTOFL
 70
     0
  9
$DIMTVP
 40
0.0
  9
$DIMTIX
 70
     0
  9
$DIMSOXD
 70
     0
  9
$DIMSAH
 70
     0
  9
$DIMBLK1
  1

  9
$DIMBLK2
  1

  9
$DIMSTYLE
  2
STANDARD
  9
$DIMCLRD
 70
     0
  9
$DIMCLRE
 70
     0
  9
$DIMCLRT
 70
     0
  9
$DIMTFAC
 40
1.0
  9
$DIMGAP
 40
0.09
  9
$LUNITS
 70
     2
  9
$LUPREC
 70
     4
  9
$SKETCHINC
 40
0.1
  9
$FILLETRAD
 40
0.0
  9
$AUNITS
 70
     0
  9
$AUPREC
 70
     0
  9
$MENU
  1
.
  9
$ELEVATION
 40
0.0
  9
$PELEVATION
 40
0.0
  9
$THICKNESS
 40
0.0
  9
$LIMCHECK
 70
     0
  9
$BLIPMODE
 70
     0
  9
$CHAMFERA
 40
0.0
  9
$CHAMFERB
 40
0.0
  9
$SKPOLY
 70
     0
  9
$TDCREATE
 40
2458172.5207638889551163
  9
$TDUPDATE
 40
2459139.5747800930403173
  9
$TDINDWG
 40
0.3833687731
  9
$TDUSRTIMER
 40
0.3833687731
  9
$USRTIMER
 70
     1
  9
$ANGBASE
 50
0.0
  9
$ANGDIR
 70
     0
  9
$PDMODE
 70
     0
  9
$PDSIZE
 40
0.3125
  9
$PLINEWID
 40
0.0
  9
$COORDS
 70
     1
  9
$SPLFRAME
 70
     0
  9
$SPLINETYPE
 70
     6
  9
$SPLINESEGS
 70
     8
  9
$ATTDIA
 70
     1
  9
$ATTREQ
 70
     1
  9
$HANDLING
 70
     1
  9
$HANDSEED
  5
A8D6
  9
$SURFTAB1
 70
     6
  9
$SURFTAB2
 70
     6
  9
$SURFTYPE
 70
     6
  9
$SURFU
 70
     6
  9
$SURFV
 70
     6
  9
$UCSNAME
  2

  9
$UCSORG
 10
0.0
 20
0.0
 30
0.0
  9
$UCSXDIR
 10
1.0
 20
0.0
 30
0.0
  9
$UCSYDIR
 10
0.0
 20
1.0
 30
0.0
  9
$PUCSNAME
  2

  9
$PUCSORG
 10
0.0
 20
0.0
 30
0.0
  9
$PUCSXDIR
 10
1.0
 20
0.0
 30
0.0
  9
$PUCSYDIR
 10
0.0
 20
1.0
 30
0.0
  9
$USERI1
 70
     0
  9
$USERI2
 70
     0
  9
$USERI3
 70
     0
  9
$USERI4
 70
     0
  9
$USERI5
 70
     0
  9
$USERR1
 40
0.0
  9
$USERR2
 40
0.0
  9
$USERR3
 40
0.0
  9
$USERR4
 40
0.0
  9
$USERR5
 40
0.0
  9
$WORLDVIEW
 70
     1
  9
$SHADEDGE
 70
     3
  9
$SHADEDIF
 70
    70
  9
$TILEMODE
 70
     1
  9
$MAXACTVP
 70
    64
  9
$PLIMCHECK
 70
     0
  9
$PEXTMIN
 10
1.0000000000000000E+20
 20
1.0000000000000000E+20
 30
1.0000000000000000E+20
  9
$PEXTMAX
 10
-1.0000000000000000E+20
 20
-1.0000000000000000E+20
 30
-1.0000000000000000E+20
  9
$PLIMMIN
 10
0.0
 20
0.0
  9
$PLIMMAX
 10
12.0
 20
9.0
  9
$UNITMODE
 70
     0
  9
$VISRETAIN
 70
     1
  9
$PLINEGEN
 70
     0
  9
$PSLTSCALE
 70
     1
  0
ENDSEC
  0
SECTION
  2
TABLES
  0
TABLE
  2
VPORT
 70
     1
  0
VPORT
  2
*ACTIVE
 70
     0
 10
0.0
 20
0.0
 11
1.0
 21
1.0
 12
188.3144606639561118
 22
-5.4613915163124602
 13
0.0
 23
0.0
 14
1.0
 24
1.0
 15
0.0
 25
0.0
 16
0.0
 26
0.0
 36
24.1179433675886514
 17
466.74220170783002
 27
89.133147119929788
 37
0.0
 40
6.4014366502471738
 41
2.5847619047619039
 42
50.0
 43
0.0
 44
0.0
 50
0.0
 51
0.0
 71
     0
 72
   100
 73
     1
 74
     1
 75
     0
 76
     0
 77
     0
 78
     0
  0
ENDTAB
  0
TABLE
  2
LTYPE
 70
     2
  0
LTYPE
  2
CONTINUOUS
 70
     0
  3
Solid line
 72
    65
 73
     0
 40
0.0
  0
LTYPE
  2
PHANTOM2
 70
     0
  3
___ _ _ ___ _ _ ___ _ _ ___ _ _
 72
    65
 73
     6
 40
1.25
 49
0.625
 49
-0.125
 49
0.125
 49
-0.125
 49
0.125
 49
-0.125
  0
ENDTAB
  0
TABLE
  2
LAYER
 70
     2
  0
LAYER
  2
0
 70
     0
 62
   255
  6
CONTINUOUS
  0
LAYER
  2
DEFPOINTS
 70
     0
 62
     7
  6
CONTINUOUS
  0
ENDTAB
  0
TABLE
  2
STYLE
 70
     1
  0
STYLE
  2
STANDARD
 70
     0
 40
0.0
 41
0.8
 50
0.0
 71
     0
 42
0.2
  3
txt
  4

  0
ENDTAB
  0
TABLE
  2
VIEW
 70
     0
  0
ENDTAB
  0
TABLE
  2
UCS
 70
     0
  0
ENDTAB
  0
TABLE
  2
APPID
 70
    10
  0
APPID
  2
ACAD
 70
     0
  0
APPID
  2
ACAD_MLEADERVER
 70
     0
  0
APPID
  2
ACAD_EXEMPT_FROM_CAD_STANDARDS
 70
     0
  0
APPID
  2
ACAD_DSTYLE_DIMJAG
 70
     0
  0
APPID
  2
ACAD_DSTYLE_DIMTALN
 70
     0
  0
APPID
  2
ACAD_NAV_VCDISPLAY
 70
     0
  0
APPID
  2
ACAECLAYERSTANDARD
 70
     0
  0
APPID
  2
ACCMTRANSPARENCY
 70
     0
  0
APPID
  2
DCO15
 70
     0
  0
APPID
  2
ACDBATTR
 70
     0
  0
ENDTAB
  0
TABLE
  2
DIMSTYLE
 70
     1
  0
DIMSTYLE
  2
STANDARD
 70
     0
  3

  4

  5

  6

  7

 40
1.0
 41
0.1875
 42
0.0625
 43
0.38
 44
0.125
 45
0.0
 46
0.0
 47
0.01
 48
0.01
140
0.15625
141
0.09
142
0.0
143
25.3999999999999986
144
1.0
145
0.0
146
1.0
147
0.09
 71
     1
 72
     0
 73
     1
 74
     1
 75
     0
 76
     0
 77
     0
 78
     4
170
     0
171
     2
172
     0
173
     0
174
     0
175
     0
176
     0
177
     0
178
     0
  0
ENDTAB
  0
ENDSEC
  0
SECTION
  2
BLOCKS
  0
BLOCK
  8
0
  2
$MODEL_SPACE
 70
     0
 10
0.0
 20
0.0
 30
0.0
  3
$MODEL_SPACE
  1

  0
ENDBLK
  5
21
  8
0
  0
BLOCK
 67
     1
  8
0
  2
$PAPER_SPACE
 70
     0
 10
0.0
 20
0.0
 30
0.0
  3
$PAPER_SPACE
  1

  0
ENDBLK
  5
1D
 67
     1
  8
0
  0
ENDSEC
  0
SECTION
  2
ENTITIES
  0
ATTDEF
  5
829
  8
DEFPOINTS
 10
655.0511878419491723
 20
82.6537669116896865
 30
0.0
 40
0.001
  1
K-99871T
  3

  2
MODELNUMBER
 70
     0
1001
ACDBATTR
1070
     0
1070
     1
  0
ATTDEF
  5
82A
  8
DEFPOINTS
 10
655.0511878419491723
 20
82.6521002450230213
 30
0.0
 40
0.001
  1
BEITOU
  3

  2
TRADENAME
 70
     0
1001
ACDBATTR
1070
     0
1070
     1
  0
ATTDEF
  5
82B
  8
DEFPOINTS
 10
655.0511878419491723
 20
82.6504335783563562
 30
0.0
 40
0.001
  1
BATH AND SHOWER VALVE
  3

  2
PRODUCT
 70
     0
1001
ACDBATTR
1070
     0
1070
     1
  0
LINE
  5
A72C
  8
0
 10
654.5054504781578544
 20
80.5081935232258132
 30
0.0
 11
655.6078057350579229
 21
80.5081935232258132
 31
0.0
  0
LINE
  5
A72D
  8
0
 10
654.4881146471578859
 20
80.5160675390258405
 30
0.0
 11
655.6251415660578914
 21
80.5160675390257978
 31
0.0
  0
LINE
  5
A72E
  8
0
 10
652.5791738326578297
 20
86.811514911715804
 30
0.0
 11
652.5759083476579008
 21
86.4373273815258187
 31
0.0
  0
LINE
  5
A72F
  8
0
 10
652.8153943051579517
 20
86.8115149117258369
 30
0.0
 11
652.812128820057751
 21
86.4373273815258187
 31
0.0
  0
LINE
  5
A730
  8
0
 10
653.5881276434579377
 20
81.4766974603258092
 30
0.0
 11
656.5251285697578396
 21
81.4766974603258092
 31
0.0
  0
LINE
  5
A731
  8
0
 10
653.1078126828579116
 20
85.6184297437258408
 30
0.0
 11
653.1078126828579116
 21
85.8074061217258048
 31
0.0
  0
LINE
  5
A732
  8
0
 10
653.2062378796579196
 20
85.5245610708258255
 30
0.0
 11
653.2062378796579196
 21
85.6105557280258154
 31
0.0
  0
LINE
  5
A733
  8
0
 10
653.1110600895584639
 20
86.179522078703144
 30
0.0
 11
653.1078126828579116
 21
85.8074061217258048
 31
0.0
  0
LINE
  5
A734
  8
0
 10
653.2554504781578544
 20
85.5016155373258187
 30
0.0
 11
653.2554504781578544
 21
85.5012605133258319
 31
0.0
  0
LINE
  5
A735
  8
0
 10
653.324348115957946
 20
86.1493633770258214
 30
0.0
 11
653.324348115957946
 21
85.3093748646258092
 31
0.0
  0
LINE
  5
A736
  8
0
 10
653.3637181946578494
 20
86.0593746256258214
 30
0.0
 11
653.3637181946578494
 21
85.2700045469258328
 31
0.0
  0
LINE
  5
A737
  8
0
 10
653.4739544151577775
 20
85.1008944000201666
 30
0.0
 11
653.4739544151577775
 21
85.8074061217258048
 31
0.0
  0
LINE
  5
A738
  8
0
 10
653.4739544151577775
 20
85.8074061217258048
 30
0.0
 11
653.479399668357928
 21
86.4313703350258322
 31
0.0
  0
LINE
  5
A739
  8
0
 10
654.3904328442579299
 20
86.2098544809258129
 30
0.0
 11
654.3871003582579533
 21
86.2035678551258258
 31
0.0
  0
LINE
  5
A73A
  8
0
 10
653.5802536809577532
 20
84.2326022420258198
 30
0.0
 11
653.4739544134579319
 21
85.6892959084258337
 31
0.0
  0
LINE
  5
A73B
  8
0
 10
653.5802536277578838
 20
81.4845714760258346
 30
0.0
 11
653.5802536277578838
 21
85.6814218697258241
 31
0.0
  0
LINE
  5
A73C
  8
0
 10
653.5619394074607271
 20
86.8080509564873353
 30
0.0
 11
653.5521404345666951
 21
85.9727604524258311
 31
0.0
  0
LINE
  5
A73D
  8
0
 10
653.5802536277578838
 20
84.2324646617792752
 30
0.0
 11
653.3370340301579517
 21
85.2966887113258281
 31
0.0
  0
LINE
  5
A73E
  8
0
 10
653.324348115957946
 20
85.3521895862258191
 30
0.0
 11
653.2666917383553482
 21
85.6044362382367154
 31
0.0
  0
LINE
  5
A73F
  8
0
 10
653.5802536277578838
 20
84.2326031935928086
 30
0.0
 11
653.4793428987746893
 21
85.0903072369456339
 31
0.0
  0
LINE
  5
A740
  8
0
 10
654.0551097398591764
 20
80.9415802763459453
 30
0.0
 11
654.0457692346578824
 21
81.4766974603258092
 31
0.0
  0
LINE
  5
A741
  8
0
 10
654.0034819741578076
 20
84.4486962433267081
 30
0.0
 11
654.0034819741578076
 21
85.6814218697258241
 31
0.0
  0
LINE
  5
A742
  8
0
 10
654.0546630765577447
 20
84.4486962433264239
 30
0.0
 11
654.0546630765577447
 21
85.6892958854258211
 31
0.0
  0
LINE
  5
A743
  8
0
 10
654.1899027655579175
 20
85.9657356798258263
 30
0.0
 11
654.1972837689208973
 21
86.811514896019645
 31
0.0
  0
LINE
  5
A744
  8
0
 10
654.3128603610579148
 20
86.2214996111258358
 30
0.0
 11
654.3077113755579148
 21
86.8115149117205931
 31
0.0
  0
LINE
  5
A745
  8
0
 10
654.5054504781578544
 20
80.5160675390258405
 30
0.0
 11
654.5054504781578544
 21
80.5081935232258132
 31
0.0
  0
LINE
  5
A746
  8
0
 10
653.4739544092578853
 20
85.8074061351258308
 30
0.0
 11
653.1999119452578952
 21
86.433788910125827
 31
0.0
  0
LINE
  5
A747
  8
0
 10
653.324348115957946
 20
85.3093746256258072
 30
0.0
 11
653.3637181946578494
 21
85.2700045469258328
 31
0.0
  0
LINE
  5
A748
  8
0
 10
653.9966558115529551
 20
84.2326124098511571
 30
0.0
 11
654.0698864896857003
 21
84.2328850030226732
 31
0.0
  0
LINE
  5
A749
  8
0
 10
653.5171261615579397
 20
85.0976830638258264
 30
0.0
 11
653.5015134702579189
 21
85.0976830638258264
 31
0.0
  0
LINE
  5
A74A
  8
0
 10
653.3637181946578494
 20
85.2700045469258328
 30
0.0
 11
653.4739544151577775
 21
85.2700045469258328
 31
0.0
  0
LINE
  5
A74B
  8
0
 10
653.2554504781578544
 20
85.5012604890258245
 30
0.0
 11
653.219385101857938
 21
85.5081935232258132
 31
0.0
  0
LINE
  5
A74C
  8
0
 10
653.288690073157909
 20
85.5081935232258132
 30
0.0
 11
653.219385101857938
 21
85.5081935232258132
 31
0.0
  0
LINE
  5
A74D
  8
0
 10
653.1156866985578517
 20
85.6105557280258154
 30
0.0
 11
653.324348115957946
 21
85.6105557280258154
 31
0.0
  0
LINE
  5
A74E
  8
0
 10
653.5015134702579189
 20
85.6892958854258211
 30
0.0
 11
653.9956079584578674
 21
85.6892958854258211
 31
0.0
  0
LINE
  5
A74F
  8
0
 10
654.0546630765577447
 20
85.6892958854258211
 30
0.0
 11
654.2578772997577516
 21
85.6892958854258211
 31
0.0
  0
LINE
  5
A750
  8
0
 10
653.324348115957946
 20
85.8074061217258048
 30
0.0
 11
653.1078126828579116
 21
85.8074061217258048
 31
0.0
  0
LINE
  5
A751
  8
0
 10
653.1078126828579116
 20
85.8074061217258048
 30
0.0
 11
653.324348115957946
 21
85.8074061217258048
 31
0.0
  0
LINE
  5
A752
  8
0
 10
654.1899027655579175
 20
85.9657356798258263
 30
0.0
 11
653.6250296233808967
 21
85.9657356798258263
 31
0.0
  0
ARC
  5
A753
  8
0
 10
653.6250296233808967
 20
85.9792356798258055
 30
0.0
 40
0.0135
 50
180.042849995002598
 51
270.0
  0
LINE
  5
A754
  8
0
 10
653.5521404345666951
 20
85.9727604524258311
 30
0.0
 11
653.4824224805579433
 21
85.9727604524258311
 31
0.0
  0
LINE
  5
A755
  8
0
 10
653.3077388639577521
 20
86.1873273815258187
 30
0.0
 11
653.1189338055578446
 21
86.1873273815258187
 31
0.0
  0
LINE
  5
A756
  8
0
 10
652.5759083476579008
 20
86.4373273815258187
 30
0.0
 11
653.4734943813579093
 21
86.4373273815258187
 31
0.0
  0
LINE
  5
A757
  8
0
 10
652.5988581225577718
 20
86.8310281689258261
 30
0.0
 11
657.5143980906577781
 21
86.8310281689258261
 31
0.0
  0
ARC
  5
A758
  8
0
 10
654.4881146471578859
 20
80.9491384051258365
 30
0.0
 40
0.4330708661
 50
181.0000000011580994
 51
270.0
  0
ARC
  5
A759
  8
0
 10
653.5881276434579377
 20
81.4845714760258346
 30
0.0
 40
0.0078740157
 50
180.0
 51
270.0
  0
ARC
  5
A75A
  8
0
 10
652.5988581225577718
 20
86.8113431295258238
 30
0.0
 40
0.0196850394
 50
90.0
 51
179.500000016081799
  0
ARC
  5
A75B
  8
0
 10
652.8350785949578494
 20
86.8113431295258238
 30
0.0
 40
0.0196850394
 50
90.0
 51
179.4999999999000977
  0
ARC
  5
A75C
  8
0
 10
653.1189338055578446
 20
86.1794533658258217
 30
0.0
 40
0.0078740157
 50
90.0
 51
179.5000000090458911
  0
ARC
  5
A75D
  8
0
 10
653.1156866985578517
 20
85.6184297437258408
 30
0.0
 40
0.0078740157
 50
180.0
 51
270.0
  0
ARC
  5
A75E
  8
0
 10
653.1945015672579302
 20
86.4314218697258241
 30
0.0
 40
0.0059055118
 50
23.6293777307012114
 51
89.9999992340971886
  0
ARC
  5
A75F
  8
0
 10
653.5014952022579564
 20
85.1252276426258163
 30
0.0
 40
0.0275425386
 50
180.0386671603997115
 51
270.0379995281016932
  0
ARC
  5
A760
  8
0
 10
653.3637181946578494
 20
86.161736830325836
 30
0.0
 40
0.668940969
 50
260.6857397473976903
 51
263.7882283778998271
  0
ARC
  5
A761
  8
0
 10
654.2578772997577516
 20
85.6105557280258154
 30
0.0
 40
0.0787401575
 50
16.8612755379759989
 51
90.0
  0
ARC
  5
A762
  8
0
 10
654.3522289406579375
 20
86.2218431755258337
 30
0.0
 40
0.0393700787
 50
180.4999999941998112
 51
332.3419848878028233
  0
ARC
  5
A763
  8
0
 10
653.5015134702579189
 20
85.7168549406258364
 30
0.0
 40
0.0275590551
 50
180.0
 51
270.0
  0
ARC
  5
A764
  8
0
 10
654.2880270856577454
 20
86.8113431295258238
 30
0.0
 40
0.0196850394
 50
0.4999999977849469
 51
90.0
  0
ARC
  5
A765
  8
0
 10
653.2229998260579578
 20
85.5245610708258255
 30
0.0
 40
0.0167619463
 50
180.0
 51
257.5462994055994272
  0
ARC
  5
A766
  8
0
 10
653.9956079584578674
 20
85.6814218697258241
 30
0.0
 40
0.0078740157
 50
0.0
 51
90.0
  0
ARC
  5
A767
  8
0
 10
653.5723796119578992
 20
85.6814218697258241
 30
0.0
 40
0.0078740157
 50
0.0
 51
89.9999999570025437
  0
ARC
  5
A768
  8
0
 10
653.4824224805579433
 20
85.9656738382258254
 30
0.0
 40
0.0070866142
 50
90.0
 51
179.4999999703998128
  0
ARC
  5
A769
  8
0
 10
653.4734943813579093
 20
86.4314218697258241
 30
0.0
 40
0.0059055118
 50
359.5000000000002842
 51
90.0
  0
ARC
  5
A76A
  8
0
 10
655.0566315804577471
 20
85.8526817122258308
 30
0.0
 40
0.7559055118000001
 50
93.5017613367002696
 51
151.8026626412980136
  0
ARC
  5
A76B
  8
0
 10
655.0566315804577471
 20
85.8526817122258308
 30
0.0
 40
0.7559055118000001
 50
196.8638466354479988
 51
343.0624464327993905
  0
CIRCLE
  5
A76C
  8
0
 10
655.0566315804577471
 20
85.8526817122258308
 30
0.0
 40
0.5826771654
  0
CIRCLE
  5
A76D
  8
0
 10
655.0566315804577471
 20
85.8526817122258308
 30
0.0
 40
0.5433070866
  0
LINE
  5
A76E
  8
0
 10
653.6109071001296797
 20
86.8116215876512456
 30
0.0
 11
653.6115296271564148
 21
85.9792255835345429
 31
0.0
  0
ARC
  5
A76F
  8
0
 10
653.5837270566681809
 20
86.8092671119456156
 30
0.0
 40
0.0218215648401035
 50
94.2677697893169579
 51
183.1948532442152953
  0
ARC
  5
A770
  8
0
 10
653.66141270990056
 20
86.8137306737779966
 30
0.0
 40
0.0505496277197116
 50
159.9897418745584901
 51
182.3912504831824037
  0
ARC
  5
A771
  8
0
 10
654.2243690500481534
 20
86.8119616995674761
 30
0.0
 40
0.027088966151447
 50
135.2635841514866115
 51
180.9450755080027875
  0
ARC
  5
A772
  8
0
 10
649.2794269846340285
 20
84.4425561258325246
 30
0.0
 40
4.7240589798486283
 50
358.3347587622715196
 51
0.07447047521747
  0
ARC
  5
A773
  8
0
 10
653.0275385960991343
 20
84.333590542437264
 30
0.0
 40
0.9743637721864429
 50
354.0514745960638265
 51
358.3347587622715196
  0
ARC
  5
A774
  8
0
 10
658.7787180660817512
 20
84.4425561258325246
 30
0.0
 40
4.7240589798486283
 50
179.9255295247857873
 51
181.6652412377285088
  0
ARC
  5
A775
  8
0
 10
654.328823090728747
 20
84.3176207874716965
 30
0.0
 40
0.2724487410981779
 50
182.5970573897297129
 51
198.1204405535553121
  0
ARC
  5
A776
  8
0
 10
653.2590156870578539
 20
85.6026817122258308
 30
0.0
 40
0.0078740156999857
 50
12.8750015596297303
 51
90.0
  0
ARC
  5
A777
  8
0
 10
653.4721438520117545
 20
85.0894484777783475
 30
0.0
 40
0.0072500856272296
 50
6.8025488665738942
 51
55.7577531408698874
  0
ARC
  5
A778
  8
0
 10
653.4815285315079336
 20
85.1008479140552367
 30
0.0
 40
0.0075742590019647
 50
179.6483528859704109
 51
225.5398824477715038
  0
LINE
  5
A779
  8
0
 10
655.0104614591933796
 20
86.6071758889244165
 30
0.0
 11
655.0122446988578986
 21
86.811514911723151
 31
0.0
  0
ARC
  5
A77A
  8
0
 10
655.0319289886579099
 20
86.8113431295258238
 30
0.0
 40
0.0196850393999992
 50
90.0
 51
179.4999999921778056
  0
LINE
  5
A77B
  8
0
 10
657.5340823805579475
 20
86.811514911715804
 30
0.0
 11
657.5373478655578765
 21
86.4373273815258187
 31
0.0
  0
LINE
  5
A77C
  8
0
 10
657.2978619080579392
 20
86.8115149117258369
 30
0.0
 11
657.3011273931577989
 21
86.4373273815258187
 31
0.0
  0
LINE
  5
A77D
  8
0
 10
657.005443530357752
 20
85.6184297437258408
 30
0.0
 11
657.005443530357752
 21
85.8074061217258048
 31
0.0
  0
LINE
  5
A77E
  8
0
 10
656.907018333557744
 20
85.5245610708258255
 30
0.0
 11
656.907018333557744
 21
85.6105557280258154
 31
0.0
  0
LINE
  5
A77F
  8
0
 10
657.002196123657086
 20
86.179522078703144
 30
0.0
 11
657.005443530357752
 21
85.8074061217258048
 31
0.0
  0
LINE
  5
A780
  8
0
 10
656.8578057350578092
 20
85.5016155373258187
 30
0.0
 11
656.8578057350578092
 21
85.5012605133258319
 31
0.0
  0
LINE
  5
A781
  8
0
 10
656.788908097257945
 20
86.1493633770258214
 30
0.0
 11
656.788908097257945
 21
85.3093748646258092
 31
0.0
  0
LINE
  5
A782
  8
0
 10
656.7495380185579279
 20
86.0593746256258214
 30
0.0
 11
656.7495380185579279
 21
85.2700045469258328
 31
0.0
  0
LINE
  5
A783
  8
0
 10
656.6393017980578861
 20
85.1008944000201666
 30
0.0
 11
656.6393017980578861
 21
85.8074061217258048
 31
0.0
  0
LINE
  5
A784
  8
0
 10
656.6393017980578861
 20
85.8074061217258048
 30
0.0
 11
656.6338565448578493
 21
86.4313703350258322
 31
0.0
  0
LINE
  5
A785
  8
0
 10
655.7228233689578474
 20
86.2098544809258129
 30
0.0
 11
655.7261558549579377
 21
86.2035678551258258
 31
0.0
  0
LINE
  5
A786
  8
0
 10
656.5330025854578935
 20
84.2326029710628745
 30
0.0
 11
656.6393017997578454
 21
85.6892959084258337
 31
0.0
  0
LINE
  5
A787
  8
0
 10
656.5330025854578935
 20
81.4845714760258346
 30
0.0
 11
656.5330025854578935
 21
85.6814218697258241
 31
0.0
  0
LINE
  5
A788
  8
0
 10
656.5513168057550502
 20
86.8080509564873353
 30
0.0
 11
656.5611157786490821
 21
85.9727604524258311
 31
0.0
  0
LINE
  5
A789
  8
0
 10
656.5330025854578935
 20
84.2324646617792325
 30
0.0
 11
656.7762221830579392
 21
85.2966887113258281
 31
0.0
  0
LINE
  5
A78A
  8
0
 10
656.788908097257945
 20
85.3521895862258191
 30
0.0
 11
656.8465644748604291
 21
85.6044362382367154
 31
0.0
  0
LINE
  5
A78B
  8
0
 10
656.5330025854578935
 20
84.2324646617792041
 30
0.0
 11
656.6339133144412017
 21
85.0903072369456339
 31
0.0
  0
LINE
  5
A78C
  8
0
 10
656.0581464733564871
 20
80.9415802763459453
 30
0.0
 11
656.0674869785578949
 21
81.4766974603258092
 31
0.0
  0
LINE
  5
A78D
  8
0
 10
656.109774239057856
 20
84.4486962433267081
 30
0.0
 11
656.109774239057856
 21
85.6814218697258241
 31
0.0
  0
LINE
  5
A78E
  8
0
 10
656.0585931366579189
 20
84.4486962433264239
 30
0.0
 11
656.0585931366579189
 21
85.6892958854258211
 31
0.0
  0
LINE
  5
A78F
  8
0
 10
655.9233534476577461
 20
85.9657356798258263
 30
0.0
 11
655.9159724442949937
 21
86.811514896019645
 31
0.0
  0
LINE
  5
A790
  8
0
 10
655.8003958521577488
 20
86.2214996111258358
 30
0.0
 11
655.8055448376577488
 21
86.8115149117205931
 31
0.0
  0
LINE
  5
A791
  8
0
 10
655.6078057350579229
 20
80.5160675390258405
 30
0.0
 11
655.6078057350579229
 21
80.5081935232258132
 31
0.0
  0
LINE
  5
A792
  8
0
 10
656.6393018039578919
 20
85.8074061351258308
 30
0.0
 11
656.913344267957882
 21
86.433788910125827
 31
0.0
  0
LINE
  5
A793
  8
0
 10
656.788908097257945
 20
85.3093746256258072
 30
0.0
 11
656.7495380185579279
 21
85.2700045469258328
 31
0.0
  0
LINE
  5
A794
  8
0
 10
656.1166004016629358
 20
84.2326124098511571
 30
0.0
 11
656.0433697235301906
 21
84.2328850030226732
 31
0.0
  0
LINE
  5
A795
  8
0
 10
656.5961300516578376
 20
85.0976830638258264
 30
0.0
 11
656.6117427429578584
 21
85.0976830638258264
 31
0.0
  0
LINE
  5
A796
  8
0
 10
656.7495380185579279
 20
85.2700045469258328
 30
0.0
 11
656.6393017980578861
 21
85.2700045469258328
 31
0.0
  0
LINE
  5
A797
  8
0
 10
656.8578057350578092
 20
85.5012604890258245
 30
0.0
 11
656.8938711113578393
 21
85.5081935232258132
 31
0.0
  0
LINE
  5
A798
  8
0
 10
656.8245661400577546
 20
85.5081935232258132
 30
0.0
 11
656.8938711113578393
 21
85.5081935232258132
 31
0.0
  0
LINE
  5
A799
  8
0
 10
656.9975695146579255
 20
85.6105557280258154
 30
0.0
 11
656.788908097257945
 21
85.6105557280258154
 31
0.0
  0
LINE
  5
A79A
  8
0
 10
656.6117427429578584
 20
85.6892958854258211
 30
0.0
 11
656.1176482547579099
 21
85.6892958854258211
 31
0.0
  0
LINE
  5
A79B
  8
0
 10
656.0585931366579189
 20
85.6892958854258211
 30
0.0
 11
655.8553789134577983
 21
85.6892958854258211
 31
0.0
  0
LINE
  5
A79C
  8
0
 10
656.788908097257945
 20
85.8074061217258048
 30
0.0
 11
657.005443530357752
 21
85.8074061217258048
 31
0.0
  0
LINE
  5
A79D
  8
0
 10
657.005443530357752
 20
85.8074061217258048
 30
0.0
 11
656.788908097257945
 21
85.8074061217258048
 31
0.0
  0
LINE
  5
A79E
  8
0
 10
655.9233534476577461
 20
85.9657356798258263
 30
0.0
 11
656.4882265898346532
 21
85.9657356798258263
 31
0.0
  0
ARC
  5
A79F
  8
0
 10
656.4882265898346532
 20
85.9792356798258055
 30
0.0
 40
0.0135
 50
270.0
 51
359.957150004997402
  0
LINE
  5
A7A0
  8
0
 10
656.5611157786490821
 20
85.9727604524258311
 30
0.0
 11
656.6308337326579476
 21
85.9727604524258311
 31
0.0
  0
LINE
  5
A7A1
  8
0
 10
656.8055173492579115
 20
86.1873273815258187
 30
0.0
 11
656.9943224076579327
 21
86.1873273815258187
 31
0.0
  0
LINE
  5
A7A2
  8
0
 10
657.5373478655578765
 20
86.4373273815258187
 30
0.0
 11
656.6397618318577543
 21
86.4373273815258187
 31
0.0
  0
ARC
  5
A7A3
  8
0
 10
655.6251415660578914
 20
80.9491384051258365
 30
0.0
 40
0.4330708661
 50
270.0
 51
358.9999999988418722
  0
ARC
  5
A7A4
  8
0
 10
656.5251285697578396
 20
81.4845714760258346
 30
0.0
 40
0.0078740157
 50
270.0
 51
0.0
  0
ARC
  5
A7A5
  8
0
 10
657.5143980906577781
 20
86.8113431295258238
 30
0.0
 40
0.0196850394
 50
0.4999999839181943
 51
90.0
  0
ARC
  5
A7A6
  8
0
 10
657.2781776182579279
 20
86.8113431295258238
 30
0.0
 40
0.0196850394
 50
0.5000000000998625
 51
90.0
  0
ARC
  5
A7A7
  8
0
 10
656.9943224076579327
 20
86.1794533658258217
 30
0.0
 40
0.0078740157
 50
0.4999999909541303
 51
90.0
  0
ARC
  5
A7A8
  8
0
 10
656.9975695146579255
 20
85.6184297437258408
 30
0.0
 40
0.0078740157
 50
270.0
 51
0.0
  0
ARC
  5
A7A9
  8
0
 10
656.9187546459578471
 20
86.4314218697258241
 30
0.0
 40
0.0059055118
 50
90.0000007659027972
 51
156.3706222692987922
  0
ARC
  5
A7AA
  8
0
 10
656.6117610109579346
 20
85.1252276426258163
 30
0.0
 40
0.0275425386
 50
269.9620004718983068
 51
359.9613328396002885
  0
ARC
  5
A7AB
  8
0
 10
656.7495380185579279
 20
86.161736830325836
 30
0.0
 40
0.668940969
 50
276.211771622100116
 51
279.314260252602196
  0
ARC
  5
A7AC
  8
0
 10
655.8553789134577983
 20
85.6105557280258154
 30
0.0
 40
0.0787401575
 50
90.0
 51
163.8448622798418057
  0
ARC
  5
A7AD
  8
0
 10
655.7610272725578398
 20
86.2218431755258337
 30
0.0
 40
0.0393700787
 50
207.6580151121972051
 51
359.5000000058003025
  0
ARC
  5
A7AE
  8
0
 10
656.6117427429578584
 20
85.7168549406258364
 30
0.0
 40
0.0275590551
 50
270.0
 51
0.0
  0
ARC
  5
A7AF
  8
0
 10
655.8252291275579182
 20
86.8113431295258238
 30
0.0
 40
0.0196850394
 50
90.0
 51
179.5000000022151028
  0
ARC
  5
A7B0
  8
0
 10
656.8902563871579332
 20
85.5245610708258255
 30
0.0
 40
0.0167619463
 50
282.4537005944005159
 51
0.0
  0
ARC
  5
A7B1
  8
0
 10
656.1176482547579099
 20
85.6814218697258241
 30
0.0
 40
0.0078740157
 50
90.0
 51
180.0
  0
ARC
  5
A7B2
  8
0
 10
656.5408766012578781
 20
85.6814218697258241
 30
0.0
 40
0.0078740157
 50
90.0000000429974136
 51
180.0
  0
ARC
  5
A7B3
  8
0
 10
656.6308337326579476
 20
85.9656738382258254
 30
0.0
 40
0.0070866142
 50
0.5000000296002191
 51
90.0
  0
ARC
  5
A7B4
  8
0
 10
656.6397618318577543
 20
86.4314218697258241
 30
0.0
 40
0.0059055118
 50
90.0
 51
180.4999999999996874
  0
ARC
  5
A7B5
  8
0
 10
655.0566246327579165
 20
85.8526817122258308
 30
0.0
 40
0.7559055118000001
 50
28.1973373587019296
 51
86.4982386632997446
  0
LINE
  5
A7B6
  8
0
 10
656.5023491130862112
 20
86.8116215876512456
 30
0.0
 11
656.5017265860593625
 21
85.9792255835345429
 31
0.0
  0
ARC
  5
A7B7
  8
0
 10
656.529529156547369
 20
86.8092671119456156
 30
0.0
 40
0.0218215648401035
 50
356.8051467557846195
 51
85.7322302106830421
  0
ARC
  5
A7B8
  8
0
 10
656.4518435033152173
 20
86.8137306737779966
 30
0.0
 40
0.0505496277197116
 50
357.6087495168176247
 51
20.0102581254415099
  0
ARC
  5
A7B9
  8
0
 10
655.8888871631673965
 20
86.8119616995674761
 30
0.0
 40
0.027088966151447
 50
359.0549244919972125
 51
44.7364158485134169
  0
ARC
  5
A7BA
  8
0
 10
660.8338292285817488
 20
84.4425561258325246
 30
0.0
 40
4.7240589798486283
 50
179.9255295247824904
 51
181.6652412377285088
  0
ARC
  5
A7BB
  8
0
 10
657.0857176171166429
 20
84.333590542437264
 30
0.0
 40
0.9743637721864429
 50
181.6652412377285088
 51
185.9485254039362019
  0
ARC
  5
A7BC
  8
0
 10
651.3345381471340261
 20
84.4425561258325246
 30
0.0
 40
4.7240589798486283
 50
358.3347587622715196
 51
0.0744704752142132
  0
ARC
  5
A7BD
  8
0
 10
655.7844331224869165
 20
84.3176207874716965
 30
0.0
 40
0.2724487410981779
 50
341.8795594464446026
 51
357.4029426102703155
  0
ARC
  5
A7BE
  8
0
 10
656.8542405261579233
 20
85.6026817122258308
 30
0.0
 40
0.0078740156999857
 50
90.0
 51
167.1249984403702058
  0
ARC
  5
A7BF
  8
0
 10
656.6411123612040228
 20
85.0894484777783475
 30
0.0
 40
0.0072500856272296
 50
124.2422468591301055
 51
173.1974511334261138
  0
ARC
  5
A7C0
  8
0
 10
656.6317276817078437
 20
85.1008479140552367
 30
0.0
 40
0.0075742590019647
 50
314.4601175522286098
 51
0.3516471140296471
  0
LINE
  5
A7C1
  8
0
 10
655.1027947540221703
 20
86.6071758889244165
 30
0.0
 11
655.101011514357765
 21
86.811514911723151
 31
0.0
  0
ARC
  5
A7C2
  8
0
 10
655.0813272245577537
 20
86.8113431295258238
 30
0.0
 40
0.0196850393999992
 50
0.5000000078222184
 51
90.0
  0
LINE
  5
A7C3
  8
0
 10
655.0271040214579443
 20
84.2326804818735155
 30
0.0
 11
655.0271040214579443
 21
85.097353130726944
 31
0.0
  0
LINE
  5
A7C4
  8
0
 10
655.0861591395579353
 20
84.2500781551877083
 30
0.0
 11
655.0861591395579353
 21
85.08980906719529
 31
0.0
  0
ARC
  5
A7C5
  8
0
 10
655.1187628006512114
 20
84.2520536095142063
 30
0.0
 40
0.0326634526115751
 50
183.4673098073859023
 51
216.3782489349513867
  0
LINE
  5
A7C6
  8
0
 10
655.0924648337735334
 20
84.2326804818735155
 30
0.0
 11
655.0271040214579443
 21
84.2326804818735155
 31
0.0
  0
ARC
  5
A7C7
  8
0
 10
655.0940449939289465
 20
85.0898139056670146
 30
0.0
 40
0.007885855853764
 50
95.1534498039832783
 51
180.0351545894272078
  0
ARC
  5
A7C8
  8
0
 10
653.4804888816313451
 20
85.6443402467072588
 30
0.0
 40
0.007464760337071
 50
208.9105820781549028
 51
248.4043767359833055
  0
CIRCLE
  5
A7C9
  8
0
 10
655.0722074842192342
 20
85.8802392486351494
 30
0.0
 40
0.4330708661
  0
CIRCLE
  5
A7CA
  8
0
 10
655.0722005365192899
 20
85.8802392486351494
 30
0.0
 40
0.4114173228000001
  0
CIRCLE
  5
A7CB
  8
0
 10
655.0722074842192342
 20
85.8802392486351494
 30
0.0
 40
0.3740157479999997
  0
CIRCLE
  5
A7CC
  8
0
 10
655.0722074842192342
 20
85.8802392486351494
 30
0.0
 40
0.324803149599999
  0
ARC
  5
A7CD
  8
0
 10
653.8264393181596006
 20
84.9662982030113483
 30
0.0
 40
1.306237201426808
 50
27.378084742769591
 51
45.1521816265324389
  0
ARC
  5
A7CE
  8
0
 10
656.1042813269693852
 20
85.0982835285934698
 30
0.0
 40
1.0552210223649841
 50
132.0871562140972912
 51
153.6137144634631113
  0
ENDSEC
  0
EOF
