  0
SECTION
  2
HEADER
  9
$ACADVER
  1
AC1009
  9
$INSBASE
 10
3478.538861078816808
 20
169.2064053122713858
 30
0.0
  9
$EXTMIN
 10
3474.7496048436678393
 20
166.2344806088819951
 30
-0.0015258207003583
  9
$EXTMAX
 10
3482.1881301569901552
 20
169.2166468944780888
 30
0.0000000349246037
  9
$LIMMIN
 10
0.0
 20
0.0
  9
$LIMMAX
 10
11.6929133858000007
 20
8.2677165353999982
  9
$ORTHOMODE
 70
     0
  9
$REGENMODE
 70
     1
  9
$FILLMODE
 70
     1
  9
$QTEXTMODE
 70
     0
  9
$MIRRTEXT
 70
     0
  9
$DRAGMODE
 70
     2
  9
$LTSCALE
 40
0.6431102362
  9
$OSMODE
 70
  4095
  9
$ATTMODE
 70
     1
  9
$TEXTSIZE
 40
0.2
  9
$TRACEWID
 40
0.05
  9
$TEXTSTYLE
  7
STANDARD
  9
$CLAYER
  8
0
  9
$CELTYPE
  6
BYLAYER
  9
$CECOLOR
 62
   256
  9
$DIMSCALE
 40
1.0
  9
$DIMASZ
 40
0.1875
  9
$DIMEXO
 40
0.0625
  9
$DIMDLI
 40
0.4443307087
  9
$DIMRND
 40
0.0
  9
$DIMDLE
 40
0.0
  9
$DIMEXE
 40
0.125
  9
$DIMTP
 40
0.01
  9
$DIMTM
 40
0.01
  9
$DIMTXT
 40
2.0
  9
$DIMCEN
 40
0.1052362205
  9
$DIMTSZ
 40
0.0
  9
$DIMTOL
 70
     1
  9
$DIMLIM
 70
     0
  9
$DIMTIH
 70
     1
  9
$DIMTOH
 70
     1
  9
$DIMSE1
 70
     0
  9
$DIMSE2
 70
     0
  9
$DIMTAD
 70
     0
  9
$DIMZIN
 70
     0
  9
$DIMBLK
  1

  9
$DIMASO
 70
     1
  9
$DIMSHO
 70
     1
  9
$DIMPOST
  1
\X
  9
$DIMAPOST
  1

  9
$DIMALT
 70
     1
  9
$DIMALTD
 70
     2
  9
$DIMALTF
 40
25.3999999999999986
  9
$DIMLFAC
 40
1.0
  9
$DIMTOFL
 70
     0
  9
$DIMTVP
 40
0.0
  9
$DIMTIX
 70
     0
  9
$DIMSOXD
 70
     0
  9
$DIMSAH
 70
     0
  9
$DIMBLK1
  1

  9
$DIMBLK2
  1

  9
$DIMSTYLE
  2
STANDARD
  9
$DIMCLRD
 70
     0
  9
$DIMCLRE
 70
     0
  9
$DIMCLRT
 70
     0
  9
$DIMTFAC
 40
1.0
  9
$DIMGAP
 40
0.09
  9
$LUNITS
 70
     2
  9
$LUPREC
 70
     4
  9
$SKETCHINC
 40
0.1
  9
$FILLETRAD
 40
0.0
  9
$AUNITS
 70
     0
  9
$AUPREC
 70
     0
  9
$MENU
  1
.
  9
$ELEVATION
 40
0.0
  9
$PELEVATION
 40
0.0
  9
$THICKNESS
 40
0.0
  9
$LIMCHECK
 70
     0
  9
$BLIPMODE
 70
     0
  9
$CHAMFERA
 40
0.0
  9
$CHAMFERB
 40
0.0
  9
$SKPOLY
 70
     0
  9
$TDCREATE
 40
2458060.468368056230247
  9
$TDUPDATE
 40
2459108.7551041659899056
  9
$TDINDWG
 40
0.5767547454
  9
$TDUSRTIMER
 40
0.5767547454
  9
$USRTIMER
 70
     1
  9
$ANGBASE
 50
0.0
  9
$ANGDIR
 70
     0
  9
$PDMODE
 70
     0
  9
$PDSIZE
 40
0.3125
  9
$PLINEWID
 40
0.0
  9
$COORDS
 70
     1
  9
$SPLFRAME
 70
     0
  9
$SPLINETYPE
 70
     6
  9
$SPLINESEGS
 70
     8
  9
$ATTDIA
 70
     1
  9
$ATTREQ
 70
     1
  9
$HANDLING
 70
     1
  9
$HANDSEED
  5
171CB
  9
$SURFTAB1
 70
     6
  9
$SURFTAB2
 70
     6
  9
$SURFTYPE
 70
     6
  9
$SURFU
 70
     6
  9
$SURFV
 70
     6
  9
$UCSNAME
  2

  9
$UCSORG
 10
0.0
 20
0.0
 30
0.0
  9
$UCSXDIR
 10
1.0
 20
0.0
 30
0.0
  9
$UCSYDIR
 10
0.0
 20
1.0
 30
0.0
  9
$PUCSNAME
  2

  9
$PUCSORG
 10
0.0
 20
0.0
 30
0.0
  9
$PUCSXDIR
 10
1.0
 20
0.0
 30
0.0
  9
$PUCSYDIR
 10
0.0
 20
1.0
 30
0.0
  9
$USERI1
 70
     0
  9
$USERI2
 70
     0
  9
$USERI3
 70
     0
  9
$USERI4
 70
     0
  9
$USERI5
 70
     0
  9
$USERR1
 40
0.0
  9
$USERR2
 40
0.0
  9
$USERR3
 40
0.0
  9
$USERR4
 40
0.0
  9
$USERR5
 40
0.0
  9
$WORLDVIEW
 70
     1
  9
$SHADEDGE
 70
     3
  9
$SHADEDIF
 70
    70
  9
$TILEMODE
 70
     1
  9
$MAXACTVP
 70
    64
  9
$PLIMCHECK
 70
     0
  9
$PEXTMIN
 10
1.0000000000000000E+20
 20
1.0000000000000000E+20
 30
1.0000000000000000E+20
  9
$PEXTMAX
 10
-1.0000000000000000E+20
 20
-1.0000000000000000E+20
 30
-1.0000000000000000E+20
  9
$PLIMMIN
 10
0.0
 20
0.0
  9
$PLIMMAX
 10
12.0
 20
9.0
  9
$UNITMODE
 70
     0
  9
$VISRETAIN
 70
     1
  9
$PLINEGEN
 70
     0
  9
$PSLTSCALE
 70
     1
  0
ENDSEC
  0
SECTION
  2
TABLES
  0
TABLE
  2
VPORT
 70
     1
  0
VPORT
  2
*ACTIVE
 70
     0
 10
0.0
 20
0.0
 11
1.0
 21
1.0
 12
174.7757522659539973
 22
-27.5359478242076783
 13
0.0
 23
0.0
 14
1.0
 24
1.0
 15
0.0
 25
0.0
 16
0.0
 26
0.0
 36
96.5995694866707311
 17
3303.693115234375
 27
195.2615115758877096
 37
0.0
 40
3.0069832033680148
 41
2.6486111111111108
 42
50.0
 43
0.0
 44
0.0
 50
0.0
 51
0.0
 71
     0
 72
   100
 73
     1
 74
     1
 75
     0
 76
     0
 77
     0
 78
     0
  0
ENDTAB
  0
TABLE
  2
LTYPE
 70
     2
  0
LTYPE
  2
CONTINUOUS
 70
     0
  3
Solid line
 72
    65
 73
     0
 40
0.0
  0
LTYPE
  2
PHANTOM2
 70
     0
  3
___ _ _ ___ _ _ ___ _ _ ___ _ _
 72
    65
 73
     6
 40
1.25
 49
0.625
 49
-0.125
 49
0.125
 49
-0.125
 49
0.125
 49
-0.125
  0
ENDTAB
  0
TABLE
  2
LAYER
 70
     2
  0
LAYER
  2
0
 70
     0
 62
   255
  6
CONTINUOUS
  0
LAYER
  2
DEFPOINTS
 70
     0
 62
     7
  6
CONTINUOUS
  0
ENDTAB
  0
TABLE
  2
STYLE
 70
     1
  0
STYLE
  2
STANDARD
 70
     0
 40
0.0
 41
0.8
 50
0.0
 71
     0
 42
0.2
  3
txt
  4

  0
ENDTAB
  0
TABLE
  2
VIEW
 70
     0
  0
ENDTAB
  0
TABLE
  2
UCS
 70
     0
  0
ENDTAB
  0
TABLE
  2
APPID
 70
     9
  0
APPID
  2
ACAD
 70
     0
  0
APPID
  2
ACAD_MLEADERVER
 70
     0
  0
APPID
  2
ACAD_EXEMPT_FROM_CAD_STANDARDS
 70
     0
  0
APPID
  2
ACAD_NAV_VCDISPLAY
 70
     0
  0
APPID
  2
ACAECLAYERSTANDARD
 70
     0
  0
APPID
  2
ACCMTRANSPARENCY
 70
     0
  0
APPID
  2
ACAD_DSTYLE_DIMJAG
 70
     0
  0
APPID
  2
ACAD_DSTYLE_DIMTALN
 70
     0
  0
APPID
  2
ACDBATTR
 70
     0
  0
ENDTAB
  0
TABLE
  2
DIMSTYLE
 70
     1
  0
DIMSTYLE
  2
STANDARD
 70
     0
  3

  4

  5

  6

  7

 40
1.0
 41
0.1875
 42
0.0625
 43
0.38
 44
0.125
 45
0.0
 46
0.0
 47
0.01
 48
0.01
140
0.15625
141
0.09
142
0.0
143
25.3999999999999986
144
1.0
145
0.0
146
1.0
147
0.09
 71
     1
 72
     0
 73
     1
 74
     1
 75
     0
 76
     0
 77
     0
 78
     4
170
     0
171
     2
172
     0
173
     0
174
     0
175
     0
176
     0
177
     0
178
     0
  0
ENDTAB
  0
ENDSEC
  0
SECTION
  2
BLOCKS
  0
BLOCK
  8
0
  2
$MODEL_SPACE
 70
     0
 10
0.0
 20
0.0
 30
0.0
  3
$MODEL_SPACE
  1

  0
ENDBLK
  5
21
  8
0
  0
BLOCK
 67
     1
  8
0
  2
$PAPER_SPACE
 70
     0
 10
0.0
 20
0.0
 30
0.0
  3
$PAPER_SPACE
  1

  0
ENDBLK
  5
1D
 67
     1
  8
0
  0
BLOCK
  8
0
  2
_FILLED
 70
     0
 10
0.0
 20
0.0
 30
0.0
  3
_FILLED
  1

  0
SOLID
  5
16A60
  8
0
  6
BYBLOCK
 62
     0
 10
0.0
 20
0.0
 30
0.0
 11
-1.0
 21
0.1666666667
 31
0.0
 12
-1.0
 22
-0.1666666667
 32
0.0
 13
-1.0
 23
-0.1666666667
 33
0.0
  0
ENDBLK
  5
16A61
  8
0
  6
BYBLOCK
 62
     0
  0
ENDSEC
  0
SECTION
  2
ENTITIES
  0
ATTDEF
  5
16B0B
  8
DEFPOINTS
 10
3478.539144502974068
 20
169.2102800905607012
 30
0.0
 40
0.001
  1
K-99896T-9
  3

  2
MODELNUMBER
 70
     0
1001
ACDBATTR
1070
     0
1070
     1
  0
ATTDEF
  5
16B0C
  8
DEFPOINTS
 10
3478.539144502974068
 20
169.2086134238940076
 30
0.0
 40
0.001
  1
MODULO
  3

  2
TRADENAME
 70
     0
1001
ACDBATTR
1070
     0
1070
     1
  0
ATTDEF
  5
16B0D
  8
DEFPOINTS
 10
3478.539144502974068
 20
169.2069467572273993
 30
0.0
 40
0.001
  1
VALVE TRIM
  3

  2
PRODUCT
 70
     0
1001
ACDBATTR
1070
     0
1070
     1
  0
LINE
  5
16F95
  8
0
 10
3474.9955539922179923
 20
169.2064053122713858
 30
0.0
 11
3475.0148496414180954
 21
168.6538502139713955
 31
0.0
  0
LINE
  5
16F96
  8
0
 10
3477.672719346518079
 20
168.6158541312713908
 30
0.0
 11
3477.672719346518079
 21
166.3108110138713869
 31
0.0
  0
LINE
  5
16F97
  8
0
 10
3479.4050028111178108
 20
168.6158541312713908
 30
0.0
 11
3479.4050028111178108
 21
166.310811013359114
 31
0.0
  0
LINE
  5
16F98
  8
0
 10
3482.0821681654178974
 20
169.2064053122713858
 30
0.0
 11
3482.0628725162268893
 21
168.6538502139713955
 31
0.0
  0
LINE
  5
16F99
  8
0
 10
3474.9955539922179923
 20
169.2064053122713858
 30
0.0
 11
3482.0821681654178974
 21
169.2064053122713858
 31
0.0
  0
ARC
  5
16F9A
  8
0
 10
3482.023526420718099
 20
168.6552242099714078
 30
0.0
 40
0.0393700787000003
 50
270.0
 51
357.9999999006346911
  0
LINE
  5
16F9B
  8
0
 10
3482.023526420718099
 20
168.6158541312713908
 30
0.0
 11
3475.0541957370178352
 21
168.6158541312713908
 31
0.0
  0
ARC
  5
16F9C
  8
0
 10
3475.0541957370178352
 20
168.6552242099714078
 30
0.0
 40
0.0393700786999993
 50
181.9999999998998135
 51
270.0
  0
ARC
  5
16F9D
  8
0
 10
3477.6924043858898585
 20
166.3108110138607003
 30
0.0
 40
0.0196850393723485
 50
179.9999999691800951
 51
263.8132527253457056
  0
ARC
  5
16F9E
  8
0
 10
3478.5388610790428174
 20
174.1193990187232998
 30
0.0
 40
7.8740173192715348
 50
263.8132527253457056
 51
276.1867472746541807
  0
ARC
  5
16F9F
  8
0
 10
3479.3853177722498913
 20
166.310811013359114
 30
0.0
 40
0.0196850388677141
 50
276.1867472746541807
 51
0.0000014910603191
  0
LINE
  5
16FA0
  8
0
 10
3477.6902829409677906
 20
166.2912406217714079
 30
0.0
 11
3478.349486848970173
 21
166.2912406217714079
 31
0.0
  0
LINE
  5
16FA1
  8
0
 10
3478.7279176891029238
 20
166.2912406217714079
 30
0.0
 11
3479.3874392171178442
 21
166.2912406217714079
 31
0.0
  0
ARC
  5
16FA2
  8
0
 10
3478.5390807596249942
 20
165.4893320007213049
 30
0.0
 40
0.8206367664537959
 50
88.1065321356771136
 51
90.0153378042135159
  0
ARC
  5
16FA3
  8
0
 10
3478.5437638685139063
 20
165.6309945635009058
 30
0.0
 40
0.6788968172435251
 50
86.6412085733059172
 51
88.1065191418065154
  0
ARC
  5
16FA4
  8
0
 10
3478.5535906606378376
 20
165.7984323510337106
 30
0.0
 40
0.5111709142430391
 50
84.2257082366320162
 51
86.6412085733060309
  0
ARC
  5
16FA5
  8
0
 10
3478.5808998537459047
 20
166.0684915348506934
 30
0.0
 40
0.2397344487633369
 50
80.0976828657749991
 51
84.2257082366320162
  0
ARC
  5
16FA6
  8
0
 10
3478.6105114037791282
 20
166.2381175630069094
 30
0.0
 40
0.0675431791722642
 50
68.5849546004065616
 51
80.0976828657749991
  0
ARC
  5
16FA7
  8
0
 10
3478.6653691180072201
 20
166.3779898237754082
 30
0.0
 40
0.0827020142375572
 50
248.5849546004066042
 51
259.7413576413562168
  0
ARC
  5
16FA8
  8
0
 10
3478.6833906830088381
 20
166.4775646058884888
 30
0.0
 40
0.1838944746188941
 50
259.7413576413562168
 51
262.9639053076984965
  0
ARC
  5
16FA9
  8
0
 10
3478.7107947047948073
 20
166.6995960115386879
 30
0.0
 40
0.4076106463746042
 50
262.9639053076984965
 51
266.2251723870842852
  0
ARC
  5
16FAA
  8
0
 10
3478.7311138443860727
 20
167.0075613368387906
 30
0.0
 40
0.7162455585620845
 50
266.2251723870842852
 51
268.8350012048986741
  0
ARC
  5
16FAB
  8
0
 10
3478.8822182707008324
 20
174.4380005586264133
 30
0.0
 40
8.1482210413210652
 50
268.8350012048986741
 51
268.9149410006374978
  0
ARC
  5
16FAC
  8
0
 10
3478.4176744886049164
 20
166.3592302744332869
 30
0.0
 40
0.0633230253578849
 50
278.5433459822718874
 51
293.1303417759796162
  0
ARC
  5
16FAD
  8
0
 10
3478.3943314746270516
 20
166.4775646058884888
 30
0.0
 40
0.1838944746188941
 50
277.0360946923015035
 51
280.2586423586437832
  0
ARC
  5
16FAE
  8
0
 10
3478.3669274528410824
 20
166.6995960115386879
 30
0.0
 40
0.4076106463746042
 50
273.7748276129157148
 51
277.0360946923015035
  0
ARC
  5
16FAF
  8
0
 10
3478.3466083132511812
 20
167.0075613368387906
 30
0.0
 40
0.7162455585620845
 50
271.1649987951012122
 51
273.7748276129157148
  0
ARC
  5
16FB0
  8
0
 10
3478.3414348027858978
 20
167.1930770627280936
 30
0.0
 40
0.9018292102465405
 50
270.7662318798081742
 51
271.2539827935457879
  0
ARC
  5
16FB1
  8
0
 10
3478.3566309203979472
 20
166.0568394281741007
 30
0.0
 40
0.2345100367071956
 50
90.7662318798081742
 51
91.7457183734731103
  0
ARC
  5
16FB2
  8
0
 10
3478.4694247971460754
 20
166.2317072792208137
 30
0.0
 40
0.0743198128623367
 50
96.4537560901876532
 51
111.2003422071175009
  0
ARC
  5
16FB3
  8
0
 10
3478.5036957360562155
 20
166.0124472951112864
 30
0.0
 40
0.296191893803153
 50
95.2718469758075344
 51
98.2740873620944058
  0
ARC
  5
16FB4
  8
0
 10
3478.5260928024231362
 20
165.7708157060372116
 30
0.0
 40
0.5388592542463574
 50
92.679203210482541
 51
95.2825752576969904
  0
ARC
  5
16FB5
  8
0
 10
3478.5364462019551866
 20
165.5710339466795915
 30
0.0
 40
0.7389072731389688
 50
91.5001229095916671
 51
92.7570164877828205
  0
ARC
  5
16FB6
  8
0
 10
3478.5386344016128533
 20
165.4842594943835081
 30
0.0
 40
0.8257092745020992
 50
89.9842708991005935
 51
91.4942784351177067
  0
LINE
  5
16FB7
  8
0
 10
3478.4235755038180287
 20
166.3205435711714131
 30
0.0
 11
3478.4235755038180287
 21
167.3674289342712882
 31
0.0
  0
LINE
  5
16FB8
  8
0
 10
3478.4235755038180287
 20
167.3674289342712882
 30
0.0
 11
3478.4269561321179935
 21
167.6627037949714065
 31
0.0
  0
LINE
  5
16FB9
  8
0
 10
3478.4269561321179935
 20
167.6627037949714065
 30
0.0
 11
3478.6507659957178475
 21
167.6627045248714012
 31
0.0
  0
LINE
  5
16FBA
  8
0
 10
3478.6507659957178475
 20
167.6627045248714012
 30
0.0
 11
3478.6541466539179055
 21
167.3674289342712882
 31
0.0
  0
LINE
  5
16FBB
  8
0
 10
3478.6541466539179055
 20
167.3674289342712882
 30
0.0
 11
3478.6541466539179055
 21
166.3205435700714077
 31
0.0
  0
ARC
  5
16FBC
  8
0
 10
3478.6345914165171962
 20
166.3205435700714077
 30
0.0
 40
0.0195552374009278
 50
271.7078652106096115
 51
0.0
  0
ARC
  5
16FBD
  8
0
 10
3478.4435719978268935
 20
166.3209724893386863
 30
0.0
 40
0.0200010935562868
 50
181.228787048967888
 51
267.0690778607946072
  0
ENDSEC
  0
EOF
