  0
SECTION
  2
HEADER
  9
$ACADVER
  1
AC1009
  9
$INSBASE
 10
961.0141285544292487
 20
144.2903964344916119
 30
0.0
  9
$EXTMIN
 10
957.7825143811292037
 20
140.7473724354840954
 30
0.0
  9
$EXTMAX
 10
961.0260711232817812
 20
147.8334204334991
 30
0.0
  9
$LIMMIN
 10
0.0
 20
0.0
  9
$LIMMAX
 10
11.6929133858000007
 20
8.2677165353999982
  9
$ORTHOMODE
 70
     0
  9
$REGENMODE
 70
     1
  9
$FILLMODE
 70
     1
  9
$QTEXTMODE
 70
     0
  9
$MIRRTEXT
 70
     0
  9
$DRAGMODE
 70
     2
  9
$LTSCALE
 40
0.6431102362
  9
$OSMODE
 70
  4095
  9
$ATTMODE
 70
     1
  9
$TEXTSIZE
 40
0.2
  9
$TRACEWID
 40
0.05
  9
$TEXTSTYLE
  7
STANDARD
  9
$CLAYER
  8
0
  9
$CELTYPE
  6
BYLAYER
  9
$CECOLOR
 62
   256
  9
$DIMSCALE
 40
1.0
  9
$DIMASZ
 40
0.1875
  9
$DIMEXO
 40
0.0625
  9
$DIMDLI
 40
0.4443307087
  9
$DIMRND
 40
0.0
  9
$DIMDLE
 40
0.0
  9
$DIMEXE
 40
0.125
  9
$DIMTP
 40
0.01
  9
$DIMTM
 40
0.01
  9
$DIMTXT
 40
1.0
  9
$DIMCEN
 40
0.1052362205
  9
$DIMTSZ
 40
0.0
  9
$DIMTOL
 70
     1
  9
$DIMLIM
 70
     0
  9
$DIMTIH
 70
     0
  9
$DIMTOH
 70
     1
  9
$DIMSE1
 70
     0
  9
$DIMSE2
 70
     0
  9
$DIMTAD
 70
     0
  9
$DIMZIN
 70
     0
  9
$DIMBLK
  1

  9
$DIMASO
 70
     1
  9
$DIMSHO
 70
     1
  9
$DIMPOST
  1
\X
  9
$DIMAPOST
  1

  9
$DIMALT
 70
     1
  9
$DIMALTD
 70
     2
  9
$DIMALTF
 40
25.3999999999999986
  9
$DIMLFAC
 40
1.0
  9
$DIMTOFL
 70
     0
  9
$DIMTVP
 40
0.0
  9
$DIMTIX
 70
     0
  9
$DIMSOXD
 70
     0
  9
$DIMSAH
 70
     0
  9
$DIMBLK1
  1

  9
$DIMBLK2
  1

  9
$DIMSTYLE
  2
STANDARD
  9
$DIMCLRD
 70
     0
  9
$DIMCLRE
 70
     0
  9
$DIMCLRT
 70
     0
  9
$DIMTFAC
 40
1.0
  9
$DIMGAP
 40
0.09
  9
$LUNITS
 70
     2
  9
$LUPREC
 70
     4
  9
$SKETCHINC
 40
0.1
  9
$FILLETRAD
 40
0.0
  9
$AUNITS
 70
     0
  9
$AUPREC
 70
     0
  9
$MENU
  1
.
  9
$ELEVATION
 40
0.0
  9
$PELEVATION
 40
0.0
  9
$THICKNESS
 40
0.0
  9
$LIMCHECK
 70
     0
  9
$BLIPMODE
 70
     0
  9
$CHAMFERA
 40
0.0
  9
$CHAMFERB
 40
0.0
  9
$SKPOLY
 70
     0
  9
$TDCREATE
 40
2458172.5207638889551163
  9
$TDUPDATE
 40
2459129.6060879630967975
  9
$TDINDWG
 40
0.4443525694
  9
$TDUSRTIMER
 40
0.4443525694
  9
$USRTIMER
 70
     1
  9
$ANGBASE
 50
0.0
  9
$ANGDIR
 70
     0
  9
$PDMODE
 70
     0
  9
$PDSIZE
 40
0.3125
  9
$PLINEWID
 40
0.0
  9
$COORDS
 70
     1
  9
$SPLFRAME
 70
     0
  9
$SPLINETYPE
 70
     6
  9
$SPLINESEGS
 70
     8
  9
$ATTDIA
 70
     1
  9
$ATTREQ
 70
     1
  9
$HANDLING
 70
     1
  9
$HANDSEED
  5
B5BC
  9
$SURFTAB1
 70
     6
  9
$SURFTAB2
 70
     6
  9
$SURFTYPE
 70
     6
  9
$SURFU
 70
     6
  9
$SURFV
 70
     6
  9
$UCSNAME
  2

  9
$UCSORG
 10
0.0
 20
0.0
 30
0.0
  9
$UCSXDIR
 10
1.0
 20
0.0
 30
0.0
  9
$UCSYDIR
 10
0.0
 20
1.0
 30
0.0
  9
$PUCSNAME
  2

  9
$PUCSORG
 10
0.0
 20
0.0
 30
0.0
  9
$PUCSXDIR
 10
1.0
 20
0.0
 30
0.0
  9
$PUCSYDIR
 10
0.0
 20
1.0
 30
0.0
  9
$USERI1
 70
     0
  9
$USERI2
 70
     0
  9
$USERI3
 70
     0
  9
$USERI4
 70
     0
  9
$USERI5
 70
     0
  9
$USERR1
 40
0.0
  9
$USERR2
 40
0.0
  9
$USERR3
 40
0.0
  9
$USERR4
 40
0.0
  9
$USERR5
 40
0.0
  9
$WORLDVIEW
 70
     1
  9
$SHADEDGE
 70
     3
  9
$SHADEDIF
 70
    70
  9
$TILEMODE
 70
     1
  9
$MAXACTVP
 70
    64
  9
$PLIMCHECK
 70
     0
  9
$PEXTMIN
 10
1.0000000000000000E+20
 20
1.0000000000000000E+20
 30
1.0000000000000000E+20
  9
$PEXTMAX
 10
-1.0000000000000000E+20
 20
-1.0000000000000000E+20
 30
-1.0000000000000000E+20
  9
$PLIMMIN
 10
0.0
 20
0.0
  9
$PLIMMAX
 10
12.0
 20
9.0
  9
$UNITMODE
 70
     0
  9
$VISRETAIN
 70
     1
  9
$PLINEGEN
 70
     0
  9
$PSLTSCALE
 70
     1
  0
ENDSEC
  0
SECTION
  2
TABLES
  0
TABLE
  2
VPORT
 70
     1
  0
VPORT
  2
*ACTIVE
 70
     0
 10
0.0
 20
0.0
 11
1.0
 21
1.0
 12
492.6581500645502842
 22
55.1576042635188273
 13
0.0
 23
0.0
 14
1.0
 24
1.0
 15
0.0
 25
0.0
 16
0.0
 26
0.0
 36
24.1179433675886514
 17
466.74220170783002
 27
89.133147119929788
 37
0.0
 40
7.1863083965201193
 41
2.6055226824457591
 42
50.0
 43
0.0
 44
0.0
 50
0.0
 51
0.0
 71
     0
 72
   100
 73
     1
 74
     1
 75
     0
 76
     0
 77
     0
 78
     0
  0
ENDTAB
  0
TABLE
  2
LTYPE
 70
     2
  0
LTYPE
  2
CONTINUOUS
 70
     0
  3
Solid line
 72
    65
 73
     0
 40
0.0
  0
LTYPE
  2
PHANTOM2
 70
     0
  3
___ _ _ ___ _ _ ___ _ _ ___ _ _
 72
    65
 73
     6
 40
1.25
 49
0.625
 49
-0.125
 49
0.125
 49
-0.125
 49
0.125
 49
-0.125
  0
ENDTAB
  0
TABLE
  2
LAYER
 70
     2
  0
LAYER
  2
0
 70
     0
 62
   255
  6
CONTINUOUS
  0
LAYER
  2
DEFPOINTS
 70
     0
 62
     7
  6
CONTINUOUS
  0
ENDTAB
  0
TABLE
  2
STYLE
 70
     1
  0
STYLE
  2
STANDARD
 70
     0
 40
0.0
 41
0.8
 50
0.0
 71
     0
 42
0.2
  3
txt
  4

  0
ENDTAB
  0
TABLE
  2
VIEW
 70
     0
  0
ENDTAB
  0
TABLE
  2
UCS
 70
     0
  0
ENDTAB
  0
TABLE
  2
APPID
 70
    11
  0
APPID
  2
ACAD
 70
     0
  0
APPID
  2
ACAD_MLEADERVER
 70
     0
  0
APPID
  2
ACAD_EXEMPT_FROM_CAD_STANDARDS
 70
     0
  0
APPID
  2
ACAD_DSTYLE_DIMJAG
 70
     0
  0
APPID
  2
ACAD_DSTYLE_DIMTALN
 70
     0
  0
APPID
  2
ACAD_NAV_VCDISPLAY
 70
     0
  0
APPID
  2
ACAECLAYERSTANDARD
 70
     0
  0
APPID
  2
ACCMTRANSPARENCY
 70
     0
  0
APPID
  2
DCO15
 70
     0
  0
APPID
  2
ACDBATTR
 70
     0
  0
APPID
  2
ACADANNOTATIVE
 70
     0
  0
ENDTAB
  0
TABLE
  2
DIMSTYLE
 70
     1
  0
DIMSTYLE
  2
STANDARD
 70
     0
  3

  4

  5

  6

  7

 40
1.0
 41
0.1875
 42
0.0625
 43
0.38
 44
0.125
 45
0.0
 46
0.0
 47
0.01
 48
0.01
140
0.15625
141
0.09
142
0.0
143
25.3999999999999986
144
1.0
145
0.0
146
1.0
147
0.09
 71
     1
 72
     0
 73
     1
 74
     1
 75
     0
 76
     0
 77
     0
 78
     4
170
     0
171
     2
172
     0
173
     0
174
     0
175
     0
176
     0
177
     0
178
     0
  0
ENDTAB
  0
ENDSEC
  0
SECTION
  2
BLOCKS
  0
BLOCK
  8
0
  2
$MODEL_SPACE
 70
     0
 10
0.0
 20
0.0
 30
0.0
  3
$MODEL_SPACE
  1

  0
ENDBLK
  5
21
  8
0
  0
BLOCK
 67
     1
  8
0
  2
$PAPER_SPACE
 70
     0
 10
0.0
 20
0.0
 30
0.0
  3
$PAPER_SPACE
  1

  0
ENDBLK
  5
1D
 67
     1
  8
0
  0
ENDSEC
  0
SECTION
  2
ENTITIES
  0
ATTDEF
  5
829
  8
DEFPOINTS
 10
961.0154044566153289
 20
144.2915923293680009
 30
0.0
 40
0.001
  1
K-99897T-9
  3

  2
MODELNUMBER
 70
     0
1001
ACDBATTR
1070
     0
1070
     1
  0
ATTDEF
  5
82A
  8
DEFPOINTS
 10
961.0154044566153289
 20
144.2899256627013074
 30
0.0
 40
0.001
  1
MODULO
  3

  2
TRADENAME
 70
     0
1001
ACDBATTR
1070
     0
1070
     1
  0
ATTDEF
  5
82B
  8
DEFPOINTS
 10
961.0154044566153289
 20
144.2882589960346991
 30
0.0
 40
0.001
  1
VALVE TRIM
  3

  2
PRODUCT
 70
     0
1001
ACDBATTR
1070
     0
1070
     1
  0
LINE
  5
B49D
  8
0
 10
961.005952848405741
 20
140.7473772479505953
 30
0.0
 11
960.4616023331614088
 21
140.7663863867871896
 31
0.0
  0
LINE
  5
B49E
  8
0
 10
961.0141285544292487
 20
140.7552724354841018
 30
0.0
 11
961.0141285544292487
 21
147.8255204334990935
 31
0.0
  0
LINE
  5
B49F
  8
0
 10
961.0059529344612201
 20
147.833415624037201
 30
0.0
 11
960.4616027623495711
 21
147.8144124376927095
 31
0.0
  0
LINE
  5
B4A0
  8
0
 10
960.4235773733290671
 20
147.7750364241229022
 30
0.0
 11
960.4235773733290671
 21
140.8057623853717928
 31
0.0
  0
ARC
  5
B4A1
  8
0
 10
961.0062285544290717
 20
140.7552724354841018
 30
0.0
 40
0.0079
 50
268.0000000030466936
 51
359.9999999999805027
  0
ARC
  5
B4A2
  8
0
 10
961.0062285544290717
 20
147.8255204334990935
 30
0.0
 40
0.0079
 50
0.0000000000130276
 51
91.9993754877078942
  0
ARC
  5
B4A3
  8
0
 10
960.4629773733290676
 20
147.7750364241229022
 30
0.0
 40
0.0394
 50
91.9993754877275052
 51
180.0000000000048885
  0
ARC
  5
B4A4
  8
0
 10
960.4629773733290676
 20
140.8057623853717928
 30
0.0
 40
0.0394
 50
180.0000000000015916
 51
268.0000000030400997
  0
LINE
  5
B4A5
  8
0
 10
959.5663088693291911
 20
143.4242571003954083
 30
0.0
 11
960.4235773733290671
 21
143.4242571003954083
 31
0.0
  0
LINE
  5
B4A6
  8
0
 10
959.5466088693292477
 20
145.1368405648954081
 30
0.0
 11
959.5466088693292477
 21
143.4439571003954086
 31
0.0
  0
LINE
  5
B4A7
  8
0
 10
959.5663088693291911
 20
145.1565405648954084
 30
0.0
 11
960.4235773733290671
 21
145.1565405648954084
 31
0.0
  0
ARC
  5
B4A8
  8
0
 10
959.5663088693291911
 20
145.1368405648954081
 30
0.0
 40
0.0197
 50
89.9999999999869686
 51
180.0000000000048885
  0
ARC
  5
B4A9
  8
0
 10
959.5663088693291911
 20
143.4439571003954086
 30
0.0
 40
0.0197
 50
179.9999999999951115
 51
270.0000000000064801
  0
LINE
  5
B4AA
  8
0
 10
957.8020424650086397
 20
145.2206770237064859
 30
0.0
 11
959.4754277670291458
 21
145.2352807223954017
 31
0.0
  0
LINE
  5
B4AB
  8
0
 10
957.8020424683796818
 20
143.3601203551754963
 30
0.0
 11
959.4754277670291458
 21
143.3455169428953866
 31
0.0
  0
LINE
  5
B4AC
  8
0
 10
957.7825143811292037
 20
145.200977773851605
 30
0.0
 11
957.7825143811292037
 21
143.3798196050599074
 31
0.0
  0
ARC
  5
B4AD
  8
0
 10
957.8022143811291471
 20
145.200977773851605
 30
0.0
 40
0.0197
 50
90.500009805265293
 51
179.9999999999951115
  0
ARC
  5
B4AE
  8
0
 10
957.8022143811291471
 20
143.3798196050599074
 30
0.0
 40
0.0197
 50
180.0000000000032117
 51
269.4999999994548148
  0
LINE
  5
B4AF
  8
0
 10
959.4754277670291458
 20
143.3455169428953866
 30
0.0
 11
959.4754277670291458
 21
145.2352807223954017
 31
0.0
  0
LINE
  5
B4B0
  8
0
 10
959.5466088693292477
 20
145.0089027695954087
 30
0.0
 11
959.4754277670291458
 21
145.0089027695954087
 31
0.0
  0
LINE
  5
B4B1
  8
0
 10
959.5466088693292477
 20
143.571894895595392
 30
0.0
 11
959.4754277670291458
 21
143.571894895595392
 31
0.0
  0
ENDSEC
  0
EOF
