  0
SECTION
  2
HEADER
  9
$ACADVER
  1
AC1009
  9
$INSBASE
 10
240.410657896163201
 20
-15.5242491847777107
 30
0.0
  9
$EXTMIN
 10
239.1460343502425872
 20
-20.2397702388602703
 30
-0.0000000349181948
  9
$EXTMAX
 10
240.4360047778498028
 20
-14.6565117292799698
 30
0.0000000814935746
  9
$LIMMIN
 10
0.0
 20
0.0
  9
$LIMMAX
 10
11.6929133858000007
 20
8.2677165353999982
  9
$ORTHOMODE
 70
     0
  9
$REGENMODE
 70
     1
  9
$FILLMODE
 70
     1
  9
$QTEXTMODE
 70
     0
  9
$MIRRTEXT
 70
     0
  9
$DRAGMODE
 70
     2
  9
$LTSCALE
 40
0.6431102362
  9
$OSMODE
 70
  4095
  9
$ATTMODE
 70
     1
  9
$TEXTSIZE
 40
0.2
  9
$TRACEWID
 40
0.05
  9
$TEXTSTYLE
  7
STANDARD
  9
$CLAYER
  8
0
  9
$CELTYPE
  6
BYLAYER
  9
$CECOLOR
 62
   256
  9
$DIMSCALE
 40
1.0
  9
$DIMASZ
 40
0.1875
  9
$DIMEXO
 40
0.0625
  9
$DIMDLI
 40
0.4443307087
  9
$DIMRND
 40
0.0
  9
$DIMDLE
 40
0.0
  9
$DIMEXE
 40
0.125
  9
$DIMTP
 40
0.01
  9
$DIMTM
 40
0.01
  9
$DIMTXT
 40
1.0
  9
$DIMCEN
 40
0.1052362205
  9
$DIMTSZ
 40
0.0
  9
$DIMTOL
 70
     1
  9
$DIMLIM
 70
     0
  9
$DIMTIH
 70
     1
  9
$DIMTOH
 70
     1
  9
$DIMSE1
 70
     0
  9
$DIMSE2
 70
     0
  9
$DIMTAD
 70
     0
  9
$DIMZIN
 70
     0
  9
$DIMBLK
  1

  9
$DIMASO
 70
     1
  9
$DIMSHO
 70
     1
  9
$DIMPOST
  1
\X
  9
$DIMAPOST
  1

  9
$DIMALT
 70
     1
  9
$DIMALTD
 70
     2
  9
$DIMALTF
 40
25.3999999999999986
  9
$DIMLFAC
 40
1.0
  9
$DIMTOFL
 70
     0
  9
$DIMTVP
 40
0.0
  9
$DIMTIX
 70
     0
  9
$DIMSOXD
 70
     0
  9
$DIMSAH
 70
     0
  9
$DIMBLK1
  1

  9
$DIMBLK2
  1

  9
$DIMSTYLE
  2
STANDARD
  9
$DIMCLRD
 70
     0
  9
$DIMCLRE
 70
     0
  9
$DIMCLRT
 70
     0
  9
$DIMTFAC
 40
1.0
  9
$DIMGAP
 40
0.09
  9
$LUNITS
 70
     2
  9
$LUPREC
 70
     4
  9
$SKETCHINC
 40
0.1
  9
$FILLETRAD
 40
0.0
  9
$AUNITS
 70
     0
  9
$AUPREC
 70
     0
  9
$MENU
  1
.
  9
$ELEVATION
 40
0.0
  9
$PELEVATION
 40
0.0
  9
$THICKNESS
 40
0.0
  9
$LIMCHECK
 70
     0
  9
$BLIPMODE
 70
     0
  9
$CHAMFERA
 40
0.0
  9
$CHAMFERB
 40
0.0
  9
$SKPOLY
 70
     0
  9
$TDCREATE
 40
2458172.4620254631154239
  9
$TDUPDATE
 40
2460024.5123495371080935
  9
$TDINDWG
 40
0.1239758449
  9
$TDUSRTIMER
 40
0.1239758449
  9
$USRTIMER
 70
     1
  9
$ANGBASE
 50
0.0
  9
$ANGDIR
 70
     0
  9
$PDMODE
 70
     0
  9
$PDSIZE
 40
0.3125
  9
$PLINEWID
 40
0.0
  9
$COORDS
 70
     1
  9
$SPLFRAME
 70
     0
  9
$SPLINETYPE
 70
     6
  9
$SPLINESEGS
 70
     8
  9
$ATTDIA
 70
     1
  9
$ATTREQ
 70
     1
  9
$HANDLING
 70
     1
  9
$HANDSEED
  5
4132
  9
$SURFTAB1
 70
     6
  9
$SURFTAB2
 70
     6
  9
$SURFTYPE
 70
     6
  9
$SURFU
 70
     6
  9
$SURFV
 70
     6
  9
$UCSNAME
  2

  9
$UCSORG
 10
0.0
 20
0.0
 30
0.0
  9
$UCSXDIR
 10
1.0
 20
0.0
 30
0.0
  9
$UCSYDIR
 10
0.0
 20
1.0
 30
0.0
  9
$PUCSNAME
  2

  9
$PUCSORG
 10
0.0
 20
0.0
 30
0.0
  9
$PUCSXDIR
 10
1.0
 20
0.0
 30
0.0
  9
$PUCSYDIR
 10
0.0
 20
1.0
 30
0.0
  9
$USERI1
 70
     0
  9
$USERI2
 70
     0
  9
$USERI3
 70
     0
  9
$USERI4
 70
     0
  9
$USERI5
 70
     0
  9
$USERR1
 40
0.0
  9
$USERR2
 40
0.0
  9
$USERR3
 40
0.0
  9
$USERR4
 40
0.0
  9
$USERR5
 40
0.0
  9
$WORLDVIEW
 70
     1
  9
$SHADEDGE
 70
     3
  9
$SHADEDIF
 70
    70
  9
$TILEMODE
 70
     1
  9
$MAXACTVP
 70
    64
  9
$PLIMCHECK
 70
     0
  9
$PEXTMIN
 10
1.0000000000000000E+20
 20
1.0000000000000000E+20
 30
1.0000000000000000E+20
  9
$PEXTMAX
 10
-1.0000000000000000E+20
 20
-1.0000000000000000E+20
 30
-1.0000000000000000E+20
  9
$PLIMMIN
 10
0.0
 20
0.0
  9
$PLIMMAX
 10
12.0
 20
9.0
  9
$UNITMODE
 70
     0
  9
$VISRETAIN
 70
     1
  9
$PLINEGEN
 70
     0
  9
$PSLTSCALE
 70
     1
  0
ENDSEC
  0
SECTION
  2
TABLES
  0
TABLE
  2
VPORT
 70
     1
  0
VPORT
  2
*ACTIVE
 70
     0
 10
0.0
 20
0.0
 11
1.0
 21
1.0
 12
24.4589730552571609
 22
-2.4029454878932661
 13
0.0
 23
0.0
 14
1.0
 24
1.0
 15
0.0
 25
0.0
 16
0.0
 26
0.0
 36
51.5945028179043277
 17
215.3320465087890909
 27
-15.0451954961768504
 37
0.0
 40
5.626151660742237
 41
1.593589743589743
 42
50.0
 43
0.0
 44
0.0
 50
0.0
 51
0.0
 71
     0
 72
   100
 73
     1
 74
     1
 75
     0
 76
     0
 77
     0
 78
     0
  0
ENDTAB
  0
TABLE
  2
LTYPE
 70
     2
  0
LTYPE
  2
CONTINUOUS
 70
     0
  3
Solid line
 72
    65
 73
     0
 40
0.0
  0
LTYPE
  2
PHANTOM2
 70
     0
  3
___ _ _ ___ _ _ ___ _ _ ___ _ _
 72
    65
 73
     6
 40
1.25
 49
0.625
 49
-0.125
 49
0.125
 49
-0.125
 49
0.125
 49
-0.125
  0
ENDTAB
  0
TABLE
  2
LAYER
 70
     2
  0
LAYER
  2
0
 70
     0
 62
   255
  6
CONTINUOUS
  0
LAYER
  2
DEFPOINTS
 70
     0
 62
     7
  6
CONTINUOUS
  0
ENDTAB
  0
TABLE
  2
STYLE
 70
     1
  0
STYLE
  2
STANDARD
 70
     0
 40
0.0
 41
0.8
 50
0.0
 71
     0
 42
0.2
  3
txt
  4

  0
ENDTAB
  0
TABLE
  2
VIEW
 70
     0
  0
ENDTAB
  0
TABLE
  2
UCS
 70
     0
  0
ENDTAB
  0
TABLE
  2
APPID
 70
    10
  0
APPID
  2
ACAD
 70
     0
  0
APPID
  2
ACAD_MLEADERVER
 70
     0
  0
APPID
  2
ACAD_EXEMPT_FROM_CAD_STANDARDS
 70
     0
  0
APPID
  2
ACAD_DSTYLE_DIMJAG
 70
     0
  0
APPID
  2
ACAD_DSTYLE_DIMTALN
 70
     0
  0
APPID
  2
ACAD_NAV_VCDISPLAY
 70
     0
  0
APPID
  2
ACAECLAYERSTANDARD
 70
     0
  0
APPID
  2
ACCMTRANSPARENCY
 70
     0
  0
APPID
  2
ACDBATTR
 70
     0
  0
APPID
  2
ACADANNOTATIVE
 70
     0
  0
ENDTAB
  0
TABLE
  2
DIMSTYLE
 70
     1
  0
DIMSTYLE
  2
STANDARD
 70
     0
  3

  4

  5

  6

  7

 40
1.0
 41
0.1875
 42
0.0625
 43
0.38
 44
0.125
 45
0.0
 46
0.0
 47
0.01
 48
0.01
140
0.15625
141
0.09
142
0.0
143
25.3999999999999986
144
1.0
145
0.0
146
1.0
147
0.09
 71
     1
 72
     0
 73
     1
 74
     1
 75
     0
 76
     0
 77
     0
 78
     4
170
     0
171
     2
172
     0
173
     0
174
     0
175
     0
176
     0
177
     0
178
     0
  0
ENDTAB
  0
ENDSEC
  0
SECTION
  2
BLOCKS
  0
BLOCK
  8
0
  2
$MODEL_SPACE
 70
     0
 10
0.0
 20
0.0
 30
0.0
  3
$MODEL_SPACE
  1

  0
ENDBLK
  5
21
  8
0
  0
BLOCK
 67
     1
  8
0
  2
$PAPER_SPACE
 70
     0
 10
0.0
 20
0.0
 30
0.0
  3
$PAPER_SPACE
  1

  0
ENDBLK
  5
1D
 67
     1
  8
0
  0
ENDSEC
  0
SECTION
  2
ENTITIES
  0
ATTDEF
  5
2E1C
  8
DEFPOINTS
 10
240.4111407254038113
 20
-15.5236809060237793
 30
0.0
 40
0.001
  1
K-99924IN
  3

  2
MODELNUMBER
 70
     0
1001
ACDBATTR
1070
     0
1070
     1
  0
ATTDEF
  5
2E1D
  8
DEFPOINTS
 10
240.4111407254038113
 20
-15.5253475726904409
 30
0.0
 40
0.001
  1
AQUA TURBO
  3

  2
TRADENAME
 70
     0
1001
ACDBATTR
1070
     0
1070
     1
  0
ATTDEF
  5
2E1E
  8
DEFPOINTS
 10
240.4111407254038113
 20
-15.5270142393571096
 30
0.0
 40
0.001
  1
VALVE
  3

  2
PRODUCT
 70
     0
1001
ACDBATTR
1070
     0
1070
     1
  0
LINE
  5
4050
  8
0
 10
240.410657896163201
 20
-14.6581074524777097
 30
0.0
 11
239.4511303370630912
 21
-14.6581074524777097
 31
0.0
  0
LINE
  5
4051
  8
0
 10
239.3831232504631998
 20
-18.2899972162777082
 30
0.0
 11
240.410657896163201
 21
-18.2899972162777082
 31
0.0
  0
LINE
  5
4052
  8
0
 10
239.3831232504631998
 20
-20.2388161138777107
 30
0.0
 11
240.410657896163201
 21
-20.2388161138777107
 31
0.0
  0
LINE
  5
4053
  8
0
 10
239.3831232504631998
 20
-18.2899972162777082
 30
0.0
 11
239.3831232504631998
 21
-20.2388161138777107
 31
0.0
  0
LINE
  5
4054
  8
0
 10
239.431430337063091
 20
-14.67780745247771
 30
0.0
 11
239.431430337063091
 21
-16.3706909170777095
 31
0.0
  0
LINE
  5
4055
  8
0
 10
239.3526901795630977
 20
-14.8155877674777106
 30
0.0
 11
239.3526901795630977
 21
-16.232910602077709
 31
0.0
  0
LINE
  5
4056
  8
0
 10
239.1558397858632077
 20
-14.8962964288777098
 30
0.0
 11
239.1558397858632077
 21
-16.1522019406777098
 31
0.0
  0
LINE
  5
4057
  8
0
 10
239.1558397858632077
 20
-14.8962964288777098
 30
0.0
 11
239.3526901795630977
 21
-14.8962964288777098
 31
0.0
  0
LINE
  5
4058
  8
0
 10
239.431430337063091
 20
-14.8155877674777106
 30
0.0
 11
239.3526901795630977
 21
-14.8155877674777106
 31
0.0
  0
ARC
  5
4059
  8
0
 10
239.4511303370630912
 20
-14.67780745247771
 30
0.0
 40
0.0197
 50
89.9999999999951115
 51
180.0000000000023874
  0
LINE
  5
405A
  8
0
 10
239.1952098646632123
 20
-14.8962964288777098
 30
0.0
 11
239.1952098646632123
 21
-14.9258307993777102
 31
0.0
  0
LINE
  5
405B
  8
0
 10
239.1952098646632123
 20
-14.9258307993777102
 30
0.0
 11
239.1558397858632077
 21
-15.0097243732777095
 31
0.0
  0
LINE
  5
405C
  8
0
 10
239.1952098646632123
 20
-14.9258307993777102
 30
0.0
 11
239.3526901795630977
 21
-14.9258307993777102
 31
0.0
  0
LINE
  5
405D
  8
0
 10
239.3526901795630977
 20
-15.4947148141777102
 30
0.0
 11
239.1952098646632123
 21
-15.4947148141777102
 31
0.0
  0
LINE
  5
405E
  8
0
 10
239.1952098646632123
 20
-15.4947148141777102
 30
0.0
 11
239.1558397858632077
 21
-15.4108212402777198
 31
0.0
  0
LINE
  5
405F
  8
0
 10
239.1952098646632123
 20
-15.4947148141777102
 30
0.0
 11
239.1952098646632123
 21
-15.5242491847777107
 31
0.0
  0
LINE
  5
4060
  8
0
 10
240.410657896163201
 20
-16.3903909170777098
 30
0.0
 11
239.4511303370630912
 21
-16.3903909170777098
 31
0.0
  0
LINE
  5
4061
  8
0
 10
239.1558397858632077
 20
-16.1522019406777098
 30
0.0
 11
239.3526901795630977
 21
-16.1522019406777098
 31
0.0
  0
LINE
  5
4062
  8
0
 10
239.431430337063091
 20
-16.232910602077709
 30
0.0
 11
239.3526901795630977
 21
-16.232910602077709
 31
0.0
  0
ARC
  5
4063
  8
0
 10
239.4511303370630912
 20
-16.3706909170777095
 30
0.0
 40
0.0197
 50
179.9999999999972999
 51
270.0000000000048885
  0
LINE
  5
4064
  8
0
 10
239.1952098646632123
 20
-16.1522019406777098
 30
0.0
 11
239.1952098646632123
 21
-16.1226675701777111
 31
0.0
  0
LINE
  5
4065
  8
0
 10
239.1952098646632123
 20
-16.1226675701777111
 30
0.0
 11
239.1558397858632077
 21
-16.0387739962777083
 31
0.0
  0
LINE
  5
4066
  8
0
 10
239.1952098646632123
 20
-16.1226675701777111
 30
0.0
 11
239.3526901795630977
 21
-16.1226675701777111
 31
0.0
  0
LINE
  5
4067
  8
0
 10
239.3526901795630977
 20
-15.5537835553777093
 30
0.0
 11
239.1952098646632123
 21
-15.5537835553777093
 31
0.0
  0
LINE
  5
4068
  8
0
 10
239.1952098646632123
 20
-15.5537835553777093
 30
0.0
 11
239.1558397858632077
 21
-15.6376771292777104
 31
0.0
  0
LINE
  5
4069
  8
0
 10
239.1952098646632123
 20
-15.5537835553777093
 30
0.0
 11
239.1952098646632123
 21
-15.5242491847777107
 31
0.0
  0
LINE
  5
406B
  8
0
 10
240.410657896163201
 20
-14.6581074524777097
 30
0.0
 11
240.410657896163201
 21
-16.3903909170777098
 31
0.0
  0
LINE
  5
406C
  8
0
 10
240.410657896163201
 20
-18.2899972162777082
 30
0.0
 11
240.410657896163201
 21
-20.2388161138777107
 31
0.0
  0
ENDSEC
  0
EOF
