  0
SECTION
  2
HEADER
  9
$ACADVER
  1
AC1009
  9
$INSBASE
 10
3680.4977084376528182
 20
19.1739624958614989
 30
0.0
  9
$EXTMIN
 10
3662.7506162945978758
 20
3.1271316058114991
 30
-0.0015258207003583
  9
$EXTMAX
 10
3698.3014359685239469
 20
35.2197290672728229
 30
0.0000000349246037
  9
$LIMMIN
 10
0.0
 20
0.0
  9
$LIMMAX
 10
11.6929133858000007
 20
8.2677165353999982
  9
$ORTHOMODE
 70
     0
  9
$REGENMODE
 70
     1
  9
$FILLMODE
 70
     1
  9
$QTEXTMODE
 70
     0
  9
$MIRRTEXT
 70
     0
  9
$DRAGMODE
 70
     2
  9
$LTSCALE
 40
0.6431102362
  9
$OSMODE
 70
  3839
  9
$ATTMODE
 70
     1
  9
$TEXTSIZE
 40
0.2
  9
$TRACEWID
 40
0.05
  9
$TEXTSTYLE
  7
STANDARD
  9
$CLAYER
  8
0
  9
$CELTYPE
  6
BYLAYER
  9
$CECOLOR
 62
   256
  9
$DIMSCALE
 40
1.0
  9
$DIMASZ
 40
0.1875
  9
$DIMEXO
 40
0.0625
  9
$DIMDLI
 40
0.4443307087
  9
$DIMRND
 40
0.0
  9
$DIMDLE
 40
0.0
  9
$DIMEXE
 40
0.125
  9
$DIMTP
 40
0.01
  9
$DIMTM
 40
0.01
  9
$DIMTXT
 40
2.0
  9
$DIMCEN
 40
0.1052362205
  9
$DIMTSZ
 40
0.0
  9
$DIMTOL
 70
     1
  9
$DIMLIM
 70
     0
  9
$DIMTIH
 70
     1
  9
$DIMTOH
 70
     1
  9
$DIMSE1
 70
     0
  9
$DIMSE2
 70
     0
  9
$DIMTAD
 70
     0
  9
$DIMZIN
 70
     0
  9
$DIMBLK
  1

  9
$DIMASO
 70
     1
  9
$DIMSHO
 70
     1
  9
$DIMPOST
  1
\X
  9
$DIMAPOST
  1

  9
$DIMALT
 70
     1
  9
$DIMALTD
 70
     2
  9
$DIMALTF
 40
25.3999999999999986
  9
$DIMLFAC
 40
1.0
  9
$DIMTOFL
 70
     0
  9
$DIMTVP
 40
0.0
  9
$DIMTIX
 70
     0
  9
$DIMSOXD
 70
     0
  9
$DIMSAH
 70
     0
  9
$DIMBLK1
  1

  9
$DIMBLK2
  1

  9
$DIMSTYLE
  2
STANDARD
  9
$DIMCLRD
 70
     0
  9
$DIMCLRE
 70
     0
  9
$DIMCLRT
 70
     0
  9
$DIMTFAC
 40
1.0
  9
$DIMGAP
 40
0.09
  9
$LUNITS
 70
     2
  9
$LUPREC
 70
     4
  9
$SKETCHINC
 40
0.1
  9
$FILLETRAD
 40
0.0
  9
$AUNITS
 70
     0
  9
$AUPREC
 70
     0
  9
$MENU
  1
.
  9
$ELEVATION
 40
0.0
  9
$PELEVATION
 40
0.0
  9
$THICKNESS
 40
0.0
  9
$LIMCHECK
 70
     0
  9
$BLIPMODE
 70
     0
  9
$CHAMFERA
 40
0.0
  9
$CHAMFERB
 40
0.0
  9
$SKPOLY
 70
     0
  9
$TDCREATE
 40
2458060.468368056230247
  9
$TDUPDATE
 40
2460398.6875462960451841
  9
$TDINDWG
 40
0.4806204861
  9
$TDUSRTIMER
 40
0.4806204861
  9
$USRTIMER
 70
     1
  9
$ANGBASE
 50
0.0
  9
$ANGDIR
 70
     0
  9
$PDMODE
 70
     0
  9
$PDSIZE
 40
0.3125
  9
$PLINEWID
 40
0.0
  9
$COORDS
 70
     1
  9
$SPLFRAME
 70
     0
  9
$SPLINETYPE
 70
     6
  9
$SPLINESEGS
 70
     8
  9
$ATTDIA
 70
     1
  9
$ATTREQ
 70
     1
  9
$HANDLING
 70
     1
  9
$HANDSEED
  5
15EB1
  9
$SURFTAB1
 70
     6
  9
$SURFTAB2
 70
     6
  9
$SURFTYPE
 70
     6
  9
$SURFU
 70
     6
  9
$SURFV
 70
     6
  9
$UCSNAME
  2

  9
$UCSORG
 10
0.0
 20
0.0
 30
0.0
  9
$UCSXDIR
 10
1.0
 20
0.0
 30
0.0
  9
$UCSYDIR
 10
0.0
 20
1.0
 30
0.0
  9
$PUCSNAME
  2

  9
$PUCSORG
 10
0.0
 20
0.0
 30
0.0
  9
$PUCSXDIR
 10
1.0
 20
0.0
 30
0.0
  9
$PUCSYDIR
 10
0.0
 20
1.0
 30
0.0
  9
$USERI1
 70
     0
  9
$USERI2
 70
     0
  9
$USERI3
 70
     0
  9
$USERI4
 70
     0
  9
$USERI5
 70
     0
  9
$USERR1
 40
0.0
  9
$USERR2
 40
0.0
  9
$USERR3
 40
0.0
  9
$USERR4
 40
0.0
  9
$USERR5
 40
0.0
  9
$WORLDVIEW
 70
     1
  9
$SHADEDGE
 70
     3
  9
$SHADEDIF
 70
    70
  9
$TILEMODE
 70
     1
  9
$MAXACTVP
 70
    64
  9
$PLIMCHECK
 70
     0
  9
$PEXTMIN
 10
1.0000000000000000E+20
 20
1.0000000000000000E+20
 30
1.0000000000000000E+20
  9
$PEXTMAX
 10
-1.0000000000000000E+20
 20
-1.0000000000000000E+20
 30
-1.0000000000000000E+20
  9
$PLIMMIN
 10
0.0
 20
0.0
  9
$PLIMMAX
 10
12.0
 20
9.0
  9
$UNITMODE
 70
     0
  9
$VISRETAIN
 70
     1
  9
$PLINEGEN
 70
     0
  9
$PSLTSCALE
 70
     1
  0
ENDSEC
  0
SECTION
  2
TABLES
  0
TABLE
  2
VPORT
 70
     1
  0
VPORT
  2
*ACTIVE
 70
     0
 10
0.0
 20
0.0
 11
1.0
 21
1.0
 12
-148.8017326575017876
 22
-71.7196131815242239
 13
0.0
 23
0.0
 14
1.0
 24
1.0
 15
0.0
 25
0.0
 16
0.0
 26
0.0
 36
327.1425206445442768
 17
3829.3277587890629547
 27
90.8930435180664063
 37
0.0
 40
32.3063106521036829
 41
2.1211111111111101
 42
50.0
 43
0.0
 44
0.0
 50
0.0
 51
0.0
 71
     0
 72
   100
 73
     1
 74
     1
 75
     0
 76
     0
 77
     0
 78
     0
  0
ENDTAB
  0
TABLE
  2
LTYPE
 70
     2
  0
LTYPE
  2
CONTINUOUS
 70
     0
  3
Solid line
 72
    65
 73
     0
 40
0.0
  0
LTYPE
  2
PHANTOM2
 70
     0
  3
___ _ _ ___ _ _ ___ _ _ ___ _ _
 72
    65
 73
     6
 40
1.25
 49
0.625
 49
-0.125
 49
0.125
 49
-0.125
 49
0.125
 49
-0.125
  0
ENDTAB
  0
TABLE
  2
LAYER
 70
     2
  0
LAYER
  2
0
 70
     0
 62
   255
  6
CONTINUOUS
  0
LAYER
  2
DEFPOINTS
 70
     0
 62
     7
  6
CONTINUOUS
  0
ENDTAB
  0
TABLE
  2
STYLE
 70
     1
  0
STYLE
  2
STANDARD
 70
     0
 40
0.0
 41
0.8
 50
0.0
 71
     0
 42
0.2
  3
txt
  4

  0
ENDTAB
  0
TABLE
  2
VIEW
 70
     0
  0
ENDTAB
  0
TABLE
  2
UCS
 70
     0
  0
ENDTAB
  0
TABLE
  2
APPID
 70
     9
  0
APPID
  2
ACAD
 70
     0
  0
APPID
  2
ACAD_MLEADERVER
 70
     0
  0
APPID
  2
ACAD_EXEMPT_FROM_CAD_STANDARDS
 70
     0
  0
APPID
  2
ACAD_NAV_VCDISPLAY
 70
     0
  0
APPID
  2
ACAECLAYERSTANDARD
 70
     0
  0
APPID
  2
ACCMTRANSPARENCY
 70
     0
  0
APPID
  2
ACAD_DSTYLE_DIMJAG
 70
     0
  0
APPID
  2
ACAD_DSTYLE_DIMTALN
 70
     0
  0
APPID
  2
ACDBATTR
 70
     0
  0
ENDTAB
  0
TABLE
  2
DIMSTYLE
 70
     1
  0
DIMSTYLE
  2
STANDARD
 70
     0
  3

  4

  5

  6

  7

 40
1.0
 41
0.1875
 42
0.0625
 43
0.38
 44
0.125
 45
0.0
 46
0.0
 47
0.01
 48
0.01
140
0.15625
141
0.09
142
0.0
143
25.3999999999999986
144
1.0
145
0.0
146
1.0
147
0.09
 71
     1
 72
     0
 73
     1
 74
     1
 75
     0
 76
     0
 77
     0
 78
     4
170
     0
171
     2
172
     0
173
     0
174
     0
175
     0
176
     0
177
     0
178
     0
  0
ENDTAB
  0
ENDSEC
  0
SECTION
  2
BLOCKS
  0
BLOCK
  8
0
  2
$MODEL_SPACE
 70
     0
 10
0.0
 20
0.0
 30
0.0
  3
$MODEL_SPACE
  1

  0
ENDBLK
  5
21
  8
0
  0
BLOCK
 67
     1
  8
0
  2
$PAPER_SPACE
 70
     0
 10
0.0
 20
0.0
 30
0.0
  3
$PAPER_SPACE
  1

  0
ENDBLK
  5
1D
 67
     1
  8
0
  0
BLOCK
  8
0
  2
_FILLED
 70
     0
 10
0.0
 20
0.0
 30
0.0
  3
_FILLED
  1

  0
SOLID
  5
15D01
  8
0
  6
BYBLOCK
 62
     0
 10
0.0
 20
0.0
 30
0.0
 11
-1.0
 21
0.1666666667
 31
0.0
 12
-1.0
 22
-0.1666666667
 32
0.0
 13
-1.0
 23
-0.1666666667
 33
0.0
  0
ENDBLK
  5
15D02
  8
0
  6
BYBLOCK
 62
     0
  0
ENDSEC
  0
SECTION
  2
ENTITIES
  0
ATTDEF
  5
126D7
  8
DEFPOINTS
 10
3680.4978628596759336
 20
19.1784220963415883
 30
0.0
 40
0.001
  1
K-99933T-L
  3

  2
MODELNUMBER
 70
     0
1001
ACDBATTR
1070
     0
1070
     1
  0
ATTDEF
  5
126D8
  8
DEFPOINTS
 10
3680.4978628596759336
 20
19.1767554296749303
 30
0.0
 40
0.001
  1
NEW URBANITY
  3

  2
TRADENAME
 70
     0
1001
ACDBATTR
1070
     0
1070
     1
  0
ATTDEF
  5
126D9
  8
DEFPOINTS
 10
3680.4978628596759336
 20
19.1750887630082616
 30
0.0
 40
0.001
  1
MEDICINE CABINET
  3

  2
PRODUCT
 70
     0
1001
ACDBATTR
1070
     0
1070
     1
  0
LINE
  5
15D38
  8
0
 10
3668.922905288102811
 20
35.2172695824614976
 30
0.0
 11
3692.0725115873037794
 21
35.2172695824614976
 31
0.0
  0
LINE
  5
15D39
  8
0
 10
3668.9622753668040787
 20
32.0676632832615027
 30
0.0
 11
3692.0331415085038316
 21
32.0676632832615027
 31
0.0
  0
LINE
  5
15D3A
  8
0
 10
3668.9622753668040787
 20
32.1070333620615003
 30
0.0
 11
3692.0331415085038316
 21
32.1070333620615003
 31
0.0
  0
LINE
  5
15D3B
  8
0
 10
3668.922905288102811
 20
31.9889231257614988
 30
0.0
 11
3692.0725115873037794
 21
31.9889231257614988
 31
0.0
  0
LINE
  5
15D3C
  8
0
 10
3668.9425903274041048
 20
31.9692380864614982
 30
0.0
 11
3692.0331415085038316
 21
31.9692380864614982
 31
0.0
  0
LINE
  5
15D3D
  8
0
 10
3668.922905288102811
 20
8.9574270627615
 30
0.0
 11
3692.0725115873037794
 21
8.9574270627614982
 31
0.0
  0
LINE
  5
15D3E
  8
0
 10
3668.9425903274041048
 20
8.9771121021614988
 30
0.0
 11
3692.0331415085038316
 21
8.9771121021614988
 31
0.0
  0
LINE
  5
15D3F
  8
0
 10
3662.781173004602806
 20
11.4771121021615006
 30
0.0
 11
3668.9425903274041048
 21
11.4771121021615006
 31
0.0
  0
LINE
  5
15D40
  8
0
 10
3662.781173004602806
 20
3.1306554092615002
 30
0.0
 11
3698.2142438707041947
 21
3.1306554092615002
 31
0.0
  0
LINE
  5
15D41
  8
0
 10
3663.4898344219031969
 20
3.8393168265614981
 30
0.0
 11
3697.5055824534028943
 21
3.8393168265614981
 31
0.0
  0
LINE
  5
15D42
  8
0
 10
3663.4898344219031969
 20
10.7684506848615005
 30
0.0
 11
3668.9425903274041048
 21
10.7684506848615005
 31
0.0
  0
LINE
  5
15D43
  8
0
 10
3668.922905288102811
 20
35.2172695824614976
 30
0.0
 11
3668.922905288102811
 21
8.9574270627615
 31
0.0
  0
LINE
  5
15D44
  8
0
 10
3668.9622753668040787
 20
35.2172695824614976
 30
0.0
 11
3668.922905288102811
 21
35.1778995037615019
 31
0.0
  0
LINE
  5
15D45
  8
0
 10
3668.9425903274041048
 20
35.1975845431614971
 30
0.0
 11
3668.9622753668040787
 21
35.1778995037615019
 31
0.0
  0
LINE
  5
15D46
  8
0
 10
3668.9622753668040787
 20
35.1778995037615019
 30
0.0
 11
3692.0331415085038316
 21
35.1778995037615019
 31
0.0
  0
LINE
  5
15D47
  8
0
 10
3662.781173004602806
 20
3.1306554092615002
 30
0.0
 11
3662.781173004602806
 21
11.4771121021615006
 31
0.0
  0
LINE
  5
15D48
  8
0
 10
3668.9425903274041048
 20
8.9771121021614988
 30
0.0
 11
3668.9425903274041048
 21
31.9692380864614982
 31
0.0
  0
LINE
  5
15D49
  8
0
 10
3668.9425903274041048
 20
8.9771121021614988
 30
0.0
 11
3668.922905288102811
 21
8.9574270627615
 31
0.0
  0
LINE
  5
15D4A
  8
0
 10
3668.922905288102811
 20
32.1070333620615003
 30
0.0
 11
3668.9622753668040787
 21
32.0676632832615027
 31
0.0
  0
LINE
  5
15D4B
  8
0
 10
3668.9622753668040787
 20
35.1778995037615019
 30
0.0
 11
3668.9622753668040787
 21
32.1070333620615003
 31
0.0
  0
LINE
  5
15D4C
  8
0
 10
3668.9622753668040787
 20
32.1070333620615003
 30
0.0
 11
3668.9425903274532175
 21
32.0873483226614979
 31
0.0
  0
LINE
  5
15D4D
  8
0
 10
3669.6709367841031053
 20
32.0676632832615027
 30
0.0
 11
3669.6709367841031053
 21
31.9889231257614988
 31
0.0
  0
LINE
  5
15D4E
  8
0
 10
3673.7063698550027766
 20
34.4298680076614971
 30
0.0
 11
3687.2890470204029043
 21
34.4298680076614971
 31
0.0
  0
LINE
  5
15D4F
  8
0
 10
3687.2890470204029043
 20
32.8550648580615032
 30
0.0
 11
3673.7063698550027766
 21
32.8550648580615032
 31
0.0
  0
LINE
  5
15D50
  8
0
 10
3673.7063698550027766
 20
32.8550648580615032
 30
0.0
 11
3673.7063698550027766
 21
34.4298680076614971
 31
0.0
  0
LINE
  5
15D51
  8
0
 10
3662.781173004602806
 20
11.4771121021615006
 30
0.0
 11
3663.4898344219031969
 21
10.7684506848615005
 31
0.0
  0
LINE
  5
15D52
  8
0
 10
3663.4898344219031969
 20
10.7684506848615005
 30
0.0
 11
3663.4898344219031969
 21
3.8393168265614981
 31
0.0
  0
LINE
  5
15D53
  8
0
 10
3663.4898344219031969
 20
3.8393168265614981
 30
0.0
 11
3662.781173004602806
 21
3.1306554092615002
 31
0.0
  0
LINE
  5
15D54
  8
0
 10
3698.2142438707041947
 20
11.4771121021615006
 30
0.0
 11
3692.0725115873037794
 21
11.4771121021615006
 31
0.0
  0
LINE
  5
15D55
  8
0
 10
3697.5055824534028943
 20
10.7684506848615005
 30
0.0
 11
3692.0725115873037794
 21
10.7684506848615005
 31
0.0
  0
LINE
  5
15D56
  8
0
 10
3692.0725115872028255
 20
35.2172695824614976
 30
0.0
 11
3692.0725115872028255
 21
8.9574270627615
 31
0.0
  0
LINE
  5
15D57
  8
0
 10
3692.0331415085038316
 20
35.2172695824614976
 30
0.0
 11
3692.0725115872028255
 21
35.1778995037615019
 31
0.0
  0
LINE
  5
15D58
  8
0
 10
3692.0528265479038055
 20
35.1975845431614971
 30
0.0
 11
3692.0331415085038316
 21
35.1778995037615019
 31
0.0
  0
LINE
  5
15D59
  8
0
 10
3698.2142438707041947
 20
3.1306554092615002
 30
0.0
 11
3698.2142438707041947
 21
11.4771121021615006
 31
0.0
  0
LINE
  5
15D5A
  8
0
 10
3692.0725115872028255
 20
32.1070333620615003
 30
0.0
 11
3692.0331415085038316
 21
32.0676632832615027
 31
0.0
  0
LINE
  5
15D5B
  8
0
 10
3692.0331415085038316
 20
35.1778995037615019
 30
0.0
 11
3692.0331415085038316
 21
32.1070333620615003
 31
0.0
  0
LINE
  5
15D5C
  8
0
 10
3692.0331415085038316
 20
32.1070333620615003
 30
0.0
 11
3692.0528265478528738
 21
32.0873483226614979
 31
0.0
  0
LINE
  5
15D5D
  8
0
 10
3691.3244800912029859
 20
32.0676632832615027
 30
0.0
 11
3691.3244800912029859
 21
31.9889231257614988
 31
0.0
  0
LINE
  5
15D5E
  8
0
 10
3687.2890470203028599
 20
32.8550648580615032
 30
0.0
 11
3687.2890470203028599
 21
34.4298680076614971
 31
0.0
  0
LINE
  5
15D5F
  8
0
 10
3698.2142438707041947
 20
11.4771121021615006
 30
0.0
 11
3697.5055824534028943
 21
10.7684506848615005
 31
0.0
  0
LINE
  5
15D60
  8
0
 10
3697.5055824534028943
 20
10.7684506848615005
 30
0.0
 11
3697.5055824534028943
 21
3.8393168265614981
 31
0.0
  0
LINE
  5
15D61
  8
0
 10
3697.5055824534028943
 20
3.8393168265614981
 30
0.0
 11
3698.2142438707041947
 21
3.1306554092615002
 31
0.0
  0
LINE
  5
15D62
  8
0
 10
3668.922905288102811
 20
31.9889231257614988
 30
0.0
 11
3668.9425903274041048
 21
31.9692380864614982
 31
0.0
  0
LINE
  5
15D63
  8
0
 10
3692.0528265479038055
 20
31.9889231257614988
 30
0.0
 11
3692.0331415085038316
 21
31.9692380864614982
 31
0.0
  0
LINE
  5
15D64
  8
0
 10
3692.0331415085038316
 20
31.9692380864614982
 30
0.0
 11
3692.0331415085038316
 21
8.9771121021614988
 31
0.0
  0
LINE
  5
15D65
  8
0
 10
3692.0331415085038316
 20
8.9771121021614988
 30
0.0
 11
3692.0528265479038055
 21
8.9574270627614982
 31
0.0
  0
ENDSEC
  0
EOF
