  0
SECTION
  2
HEADER
  9
$ACADVER
  1
AC1009
  9
$INSBASE
 10
982.0660063104268147
 20
135.0725245332479005
 30
0.0
  9
$EXTMIN
 10
979.2372977027606566
 20
131.5188483349826924
 30
-0.0000000349181948
  9
$EXTMAX
 10
984.8233196546952968
 20
138.6170858651364028
 30
0.0000000814935746
  9
$LIMMIN
 10
0.0
 20
0.0
  9
$LIMMAX
 10
11.6929133858000007
 20
8.2677165353999982
  9
$ORTHOMODE
 70
     0
  9
$REGENMODE
 70
     1
  9
$FILLMODE
 70
     1
  9
$QTEXTMODE
 70
     0
  9
$MIRRTEXT
 70
     0
  9
$DRAGMODE
 70
     2
  9
$LTSCALE
 40
0.6431102362
  9
$OSMODE
 70
  4095
  9
$ATTMODE
 70
     1
  9
$TEXTSIZE
 40
0.2
  9
$TRACEWID
 40
0.05
  9
$TEXTSTYLE
  7
STANDARD
  9
$CLAYER
  8
0
  9
$CELTYPE
  6
BYLAYER
  9
$CECOLOR
 62
   256
  9
$DIMSCALE
 40
1.0
  9
$DIMASZ
 40
0.1875
  9
$DIMEXO
 40
0.0625
  9
$DIMDLI
 40
0.4443307087
  9
$DIMRND
 40
0.0
  9
$DIMDLE
 40
0.0
  9
$DIMEXE
 40
0.125
  9
$DIMTP
 40
0.01
  9
$DIMTM
 40
0.01
  9
$DIMTXT
 40
1.0
  9
$DIMCEN
 40
0.1052362205
  9
$DIMTSZ
 40
0.0
  9
$DIMTOL
 70
     1
  9
$DIMLIM
 70
     0
  9
$DIMTIH
 70
     0
  9
$DIMTOH
 70
     1
  9
$DIMSE1
 70
     0
  9
$DIMSE2
 70
     0
  9
$DIMTAD
 70
     0
  9
$DIMZIN
 70
     0
  9
$DIMBLK
  1

  9
$DIMASO
 70
     1
  9
$DIMSHO
 70
     1
  9
$DIMPOST
  1
\X
  9
$DIMAPOST
  1

  9
$DIMALT
 70
     1
  9
$DIMALTD
 70
     2
  9
$DIMALTF
 40
25.3999999999999986
  9
$DIMLFAC
 40
1.0
  9
$DIMTOFL
 70
     0
  9
$DIMTVP
 40
0.0
  9
$DIMTIX
 70
     0
  9
$DIMSOXD
 70
     0
  9
$DIMSAH
 70
     0
  9
$DIMBLK1
  1

  9
$DIMBLK2
  1

  9
$DIMSTYLE
  2
STANDARD
  9
$DIMCLRD
 70
     0
  9
$DIMCLRE
 70
     0
  9
$DIMCLRT
 70
     0
  9
$DIMTFAC
 40
1.0
  9
$DIMGAP
 40
0.09
  9
$LUNITS
 70
     2
  9
$LUPREC
 70
     4
  9
$SKETCHINC
 40
0.1
  9
$FILLETRAD
 40
0.0
  9
$AUNITS
 70
     0
  9
$AUPREC
 70
     0
  9
$MENU
  1
.
  9
$ELEVATION
 40
0.0
  9
$PELEVATION
 40
0.0
  9
$THICKNESS
 40
0.0
  9
$LIMCHECK
 70
     0
  9
$BLIPMODE
 70
     0
  9
$CHAMFERA
 40
0.0
  9
$CHAMFERB
 40
0.0
  9
$SKPOLY
 70
     0
  9
$TDCREATE
 40
2458172.5207638889551163
  9
$TDUPDATE
 40
2459131.5632060179486871
  9
$TDINDWG
 40
0.4458224769
  9
$TDUSRTIMER
 40
0.4458224769
  9
$USRTIMER
 70
     1
  9
$ANGBASE
 50
0.0
  9
$ANGDIR
 70
     0
  9
$PDMODE
 70
     0
  9
$PDSIZE
 40
0.3125
  9
$PLINEWID
 40
0.0
  9
$COORDS
 70
     1
  9
$SPLFRAME
 70
     0
  9
$SPLINETYPE
 70
     6
  9
$SPLINESEGS
 70
     8
  9
$ATTDIA
 70
     1
  9
$ATTREQ
 70
     1
  9
$HANDLING
 70
     1
  9
$HANDSEED
  5
B6DF
  9
$SURFTAB1
 70
     6
  9
$SURFTAB2
 70
     6
  9
$SURFTYPE
 70
     6
  9
$SURFU
 70
     6
  9
$SURFV
 70
     6
  9
$UCSNAME
  2

  9
$UCSORG
 10
0.0
 20
0.0
 30
0.0
  9
$UCSXDIR
 10
1.0
 20
0.0
 30
0.0
  9
$UCSYDIR
 10
0.0
 20
1.0
 30
0.0
  9
$PUCSNAME
  2

  9
$PUCSORG
 10
0.0
 20
0.0
 30
0.0
  9
$PUCSXDIR
 10
1.0
 20
0.0
 30
0.0
  9
$PUCSYDIR
 10
0.0
 20
1.0
 30
0.0
  9
$USERI1
 70
     0
  9
$USERI2
 70
     0
  9
$USERI3
 70
     0
  9
$USERI4
 70
     0
  9
$USERI5
 70
     0
  9
$USERR1
 40
0.0
  9
$USERR2
 40
0.0
  9
$USERR3
 40
0.0
  9
$USERR4
 40
0.0
  9
$USERR5
 40
0.0
  9
$WORLDVIEW
 70
     1
  9
$SHADEDGE
 70
     3
  9
$SHADEDIF
 70
    70
  9
$TILEMODE
 70
     1
  9
$MAXACTVP
 70
    64
  9
$PLIMCHECK
 70
     0
  9
$PEXTMIN
 10
1.0000000000000000E+20
 20
1.0000000000000000E+20
 30
1.0000000000000000E+20
  9
$PEXTMAX
 10
-1.0000000000000000E+20
 20
-1.0000000000000000E+20
 30
-1.0000000000000000E+20
  9
$PLIMMIN
 10
0.0
 20
0.0
  9
$PLIMMAX
 10
12.0
 20
9.0
  9
$UNITMODE
 70
     0
  9
$VISRETAIN
 70
     1
  9
$PLINEGEN
 70
     0
  9
$PSLTSCALE
 70
     1
  0
ENDSEC
  0
SECTION
  2
TABLES
  0
TABLE
  2
VPORT
 70
     1
  0
VPORT
  2
*ACTIVE
 70
     0
 10
0.0
 20
0.0
 11
1.0
 21
1.0
 12
515.2881069708979567
 22
45.934819980129781
 13
0.0
 23
0.0
 14
1.0
 24
1.0
 15
0.0
 25
0.0
 16
0.0
 26
0.0
 36
24.1179433675886514
 17
466.74220170783002
 27
89.133147119929788
 37
0.0
 40
7.1853324691739431
 41
2.7069672131147531
 42
50.0
 43
0.0
 44
0.0
 50
0.0
 51
0.0
 71
     0
 72
   100
 73
     1
 74
     1
 75
     0
 76
     0
 77
     0
 78
     0
  0
ENDTAB
  0
TABLE
  2
LTYPE
 70
     2
  0
LTYPE
  2
CONTINUOUS
 70
     0
  3
Solid line
 72
    65
 73
     0
 40
0.0
  0
LTYPE
  2
PHANTOM2
 70
     0
  3
___ _ _ ___ _ _ ___ _ _ ___ _ _
 72
    65
 73
     6
 40
1.25
 49
0.625
 49
-0.125
 49
0.125
 49
-0.125
 49
0.125
 49
-0.125
  0
ENDTAB
  0
TABLE
  2
LAYER
 70
     2
  0
LAYER
  2
0
 70
     0
 62
   255
  6
CONTINUOUS
  0
LAYER
  2
DEFPOINTS
 70
     0
 62
     7
  6
CONTINUOUS
  0
ENDTAB
  0
TABLE
  2
STYLE
 70
     1
  0
STYLE
  2
STANDARD
 70
     0
 40
0.0
 41
0.8
 50
0.0
 71
     0
 42
0.2
  3
txt
  4

  0
ENDTAB
  0
TABLE
  2
VIEW
 70
     0
  0
ENDTAB
  0
TABLE
  2
UCS
 70
     0
  0
ENDTAB
  0
TABLE
  2
APPID
 70
    11
  0
APPID
  2
ACAD
 70
     0
  0
APPID
  2
ACAD_MLEADERVER
 70
     0
  0
APPID
  2
ACAD_EXEMPT_FROM_CAD_STANDARDS
 70
     0
  0
APPID
  2
ACAD_DSTYLE_DIMJAG
 70
     0
  0
APPID
  2
ACAD_DSTYLE_DIMTALN
 70
     0
  0
APPID
  2
ACAD_NAV_VCDISPLAY
 70
     0
  0
APPID
  2
ACAECLAYERSTANDARD
 70
     0
  0
APPID
  2
ACCMTRANSPARENCY
 70
     0
  0
APPID
  2
DCO15
 70
     0
  0
APPID
  2
ACDBATTR
 70
     0
  0
APPID
  2
ACADANNOTATIVE
 70
     0
  0
ENDTAB
  0
TABLE
  2
DIMSTYLE
 70
     1
  0
DIMSTYLE
  2
STANDARD
 70
     0
  3

  4

  5

  6

  7

 40
1.0
 41
0.1875
 42
0.0625
 43
0.38
 44
0.125
 45
0.0
 46
0.0
 47
0.01
 48
0.01
140
0.15625
141
0.09
142
0.0
143
25.3999999999999986
144
1.0
145
0.0
146
1.0
147
0.09
 71
     1
 72
     0
 73
     1
 74
     1
 75
     0
 76
     0
 77
     0
 78
     4
170
     0
171
     2
172
     0
173
     0
174
     0
175
     0
176
     0
177
     0
178
     0
  0
ENDTAB
  0
ENDSEC
  0
SECTION
  2
BLOCKS
  0
BLOCK
  8
0
  2
$MODEL_SPACE
 70
     0
 10
0.0
 20
0.0
 30
0.0
  3
$MODEL_SPACE
  1

  0
ENDBLK
  5
21
  8
0
  0
BLOCK
 67
     1
  8
0
  2
$PAPER_SPACE
 70
     0
 10
0.0
 20
0.0
 30
0.0
  3
$PAPER_SPACE
  1

  0
ENDBLK
  5
1D
 67
     1
  8
0
  0
ENDSEC
  0
SECTION
  2
ENTITIES
  0
ATTDEF
  5
829
  8
DEFPOINTS
 10
982.0620957088499381
 20
135.0767978642959122
 30
0.0
 40
0.001
  1
K-99956T-4
  3

  2
MODELNUMBER
 70
     0
1001
ACDBATTR
1070
     0
1070
     1
  0
ATTDEF
  5
82A
  8
DEFPOINTS
 10
982.0620957088499381
 20
135.0751311976291902
 30
0.0
 40
0.001
  1
MODULO
  3

  2
TRADENAME
 70
     0
1001
ACDBATTR
1070
     0
1070
     1
  0
ATTDEF
  5
82B
  8
DEFPOINTS
 10
982.0620957088499381
 20
135.0734645309624966
 30
0.0
 40
0.001
  1
VALVE TRIM
  3

  2
PRODUCT
 70
     0
1001
ACDBATTR
1070
     0
1070
     1
  0
LINE
  5
B5FA
  8
0
 10
984.762771659315149
 20
138.6156912781094093
 30
0.0
 11
979.3692409615387078
 21
138.6156912781094093
 31
0.0
  0
LINE
  5
B5FB
  8
0
 10
984.762771659315149
 20
131.529363786282488
 30
0.0
 11
979.3692409615387078
 21
131.529363786282488
 31
0.0
  0
LINE
  5
B5FC
  8
0
 10
984.1559365541453417
 20
132.128492872481587
 30
0.0
 11
979.9760760667085151
 21
132.128492872481587
 31
0.0
  0
LINE
  5
B5FD
  8
0
 10
979.9760760667085151
 20
138.0165561729394028
 30
0.0
 11
984.1559365541453417
 21
138.0165561729394028
 31
0.0
  0
LINE
  5
B5FE
  8
0
 10
984.2226365541450832
 20
137.9498561729394055
 30
0.0
 11
984.2226365541450832
 21
132.1951928724816128
 31
0.0
  0
LINE
  5
B5FF
  8
0
 10
979.9093760667085462
 20
137.9498561729394055
 30
0.0
 11
979.9093760667085462
 21
132.1951928724816128
 31
0.0
  0
ARC
  5
B600
  8
0
 10
979.9760760667085151
 20
137.9498561729394055
 30
0.0
 40
0.0667
 50
90.0
 51
180.0
  0
ARC
  5
B601
  8
0
 10
984.1559365541453417
 20
137.9498561729394055
 30
0.0
 40
0.0667
 50
0.0
 51
90.0
  0
ARC
  5
B602
  8
0
 10
984.1559365541453417
 20
132.1951928724816128
 30
0.0
 40
0.0667
 50
270.0
 51
0.0
  0
ARC
  5
B603
  8
0
 10
979.9760760667085151
 20
132.1951928724816128
 30
0.0
 40
0.0667
 50
179.9999999999992042
 51
270.0
  0
LINE
  5
B604
  8
0
 10
984.2031005764503107
 20
137.9970201952446018
 30
0.0
 11
984.8044903586612691
 21
138.5984111789346969
 31
0.0
  0
LINE
  5
B605
  8
0
 10
984.2031005764503107
 20
132.1480288501765017
 30
0.0
 11
984.8044903586641112
 21
131.5466438854602131
 31
0.0
  0
LINE
  5
B606
  8
0
 10
979.3275216614484862
 20
131.5466444861924913
 30
0.0
 11
979.9289120444035461
 21
132.1480288501765017
 31
0.0
  0
LINE
  5
B607
  8
0
 10
979.9289120444035461
 20
137.9970201952446018
 30
0.0
 11
979.3275216614484862
 21
138.598410578199406
 31
0.0
  0
ARC
  5
B608
  8
0
 10
982.0660063104268147
 20
135.0725245559119116
 30
0.0
 40
0.866141767370845
 50
281.4451437202602051
 51
258.5548562797397949
  0
ARC
  5
B609
  8
0
 10
982.0660063104268147
 20
135.0730317281978046
 30
0.0
 40
0.4799931989715108
 50
289.5226039790989034
 51
250.477396020894389
  0
CIRCLE
  5
B60A
  8
0
 10
982.0660063104268147
 20
135.0730317281978046
 30
0.0
 40
0.3930209099489144
  0
LINE
  5
B60B
  8
0
 10
982.2726641647625456
 20
132.3166190083296101
 30
0.0
 11
981.8593484560909701
 21
132.3166190083296101
 31
0.0
  0
LINE
  5
B60C
  8
0
 10
981.8396566642901462
 20
132.3368876344534897
 30
0.0
 11
981.9075306353522592
 21
134.687395376969107
 31
0.0
  0
ARC
  5
B60D
  8
0
 10
981.8593484560909701
 20
132.3363190083296104
 30
0.0
 40
0.0197
 50
178.3459694068858141
 51
270.0
  0
ARC
  5
B60E
  8
0
 10
981.8681470517504977
 20
134.6885326292170078
 30
0.0
 40
0.0394
 50
358.3459694068840804
 51
62.7701181734256224
  0
LINE
  5
B60F
  8
0
 10
982.2923559565634832
 20
132.3368876344534897
 30
0.0
 11
982.2244819855012565
 21
134.687395376969107
 31
0.0
  0
ARC
  5
B610
  8
0
 10
982.2726641647625456
 20
132.3363190083296104
 30
0.0
 40
0.0197
 50
270.0
 51
1.6540305931142349
  0
ARC
  5
B611
  8
0
 10
982.2638655691032454
 20
134.6885326292170078
 30
0.0
 40
0.0394
 50
117.2298818265743989
 51
181.6540305931158059
  0
ARC
  5
B612
  8
0
 10
982.0660063104268147
 20
135.0725245201296048
 30
0.0
 40
0.8956693023608121
 50
281.1193390418836202
 51
258.8806609581164935
  0
LINE
  5
B614
  8
0
 10
984.8217716593152318
 20
131.5883637862825992
 30
0.0
 11
984.8217716593152318
 21
138.5566912781094118
 31
0.0
  0
LINE
  5
B615
  8
0
 10
979.3102409615383976
 20
131.5883637862825992
 30
0.0
 11
979.3102409615383976
 21
138.5566912781094118
 31
0.0
  0
ARC
  5
B616
  8
0
 10
979.3692409615387078
 20
131.5883637862825992
 30
0.0
 40
0.059
 50
179.9999999999992042
 51
270.0
  0
ARC
  5
B617
  8
0
 10
984.762771659315149
 20
131.5883637862825992
 30
0.0
 40
0.059
 50
270.0
 51
359.9999999999984084
  0
ARC
  5
B618
  8
0
 10
984.762771659315149
 20
138.5566912781094118
 30
0.0
 40
0.059
 50
0.0000000000032569
 51
89.9999999999934914
  0
ARC
  5
B619
  8
0
 10
979.3692409615387078
 20
138.5566912781094118
 30
0.0
 40
0.059
 50
90.0
 51
179.9999999999984084
  0
ENDSEC
  0
EOF
