  0
SECTION
  2
HEADER
  9
$ACADVER
  1
AC1009
  9
$INSBASE
 10
982.6650781660242728
 20
134.5109457102583121
 30
0.0
  9
$EXTMIN
 10
979.8846808852204049
 20
130.9630607649289971
 30
-0.0000000000112498
  9
$EXTMAX
 10
985.4485324009469878
 20
138.0622999829006972
 30
0.0000000000002956
  9
$LIMMIN
 10
0.0
 20
0.0
  9
$LIMMAX
 10
11.6929133858000007
 20
8.2677165353999982
  9
$ORTHOMODE
 70
     0
  9
$REGENMODE
 70
     1
  9
$FILLMODE
 70
     1
  9
$QTEXTMODE
 70
     0
  9
$MIRRTEXT
 70
     0
  9
$DRAGMODE
 70
     2
  9
$LTSCALE
 40
0.6431102362
  9
$OSMODE
 70
  4095
  9
$ATTMODE
 70
     1
  9
$TEXTSIZE
 40
0.2
  9
$TRACEWID
 40
0.05
  9
$TEXTSTYLE
  7
STANDARD
  9
$CLAYER
  8
0
  9
$CELTYPE
  6
BYLAYER
  9
$CECOLOR
 62
   256
  9
$DIMSCALE
 40
1.0
  9
$DIMASZ
 40
0.1875
  9
$DIMEXO
 40
0.0625
  9
$DIMDLI
 40
0.4443307087
  9
$DIMRND
 40
0.0
  9
$DIMDLE
 40
0.0
  9
$DIMEXE
 40
0.125
  9
$DIMTP
 40
0.01
  9
$DIMTM
 40
0.01
  9
$DIMTXT
 40
1.0
  9
$DIMCEN
 40
0.1052362205
  9
$DIMTSZ
 40
0.0
  9
$DIMTOL
 70
     1
  9
$DIMLIM
 70
     0
  9
$DIMTIH
 70
     0
  9
$DIMTOH
 70
     1
  9
$DIMSE1
 70
     0
  9
$DIMSE2
 70
     0
  9
$DIMTAD
 70
     0
  9
$DIMZIN
 70
     0
  9
$DIMBLK
  1

  9
$DIMASO
 70
     1
  9
$DIMSHO
 70
     1
  9
$DIMPOST
  1
\X
  9
$DIMAPOST
  1

  9
$DIMALT
 70
     1
  9
$DIMALTD
 70
     2
  9
$DIMALTF
 40
25.3999999999999986
  9
$DIMLFAC
 40
1.0
  9
$DIMTOFL
 70
     0
  9
$DIMTVP
 40
0.0
  9
$DIMTIX
 70
     0
  9
$DIMSOXD
 70
     0
  9
$DIMSAH
 70
     0
  9
$DIMBLK1
  1

  9
$DIMBLK2
  1

  9
$DIMSTYLE
  2
STANDARD
  9
$DIMCLRD
 70
     0
  9
$DIMCLRE
 70
     0
  9
$DIMCLRT
 70
     0
  9
$DIMTFAC
 40
1.0
  9
$DIMGAP
 40
0.09
  9
$LUNITS
 70
     2
  9
$LUPREC
 70
     4
  9
$SKETCHINC
 40
0.1
  9
$FILLETRAD
 40
0.0
  9
$AUNITS
 70
     0
  9
$AUPREC
 70
     0
  9
$MENU
  1
.
  9
$ELEVATION
 40
0.0
  9
$PELEVATION
 40
0.0
  9
$THICKNESS
 40
0.0
  9
$LIMCHECK
 70
     0
  9
$BLIPMODE
 70
     0
  9
$CHAMFERA
 40
0.0
  9
$CHAMFERB
 40
0.0
  9
$SKPOLY
 70
     0
  9
$TDCREATE
 40
2458172.5207638889551163
  9
$TDUPDATE
 40
2459131.5681250002235174
  9
$TDINDWG
 40
0.4460655324
  9
$TDUSRTIMER
 40
0.4460655324
  9
$USRTIMER
 70
     1
  9
$ANGBASE
 50
0.0
  9
$ANGDIR
 70
     0
  9
$PDMODE
 70
     0
  9
$PDSIZE
 40
0.3125
  9
$PLINEWID
 40
0.0
  9
$COORDS
 70
     1
  9
$SPLFRAME
 70
     0
  9
$SPLINETYPE
 70
     6
  9
$SPLINESEGS
 70
     8
  9
$ATTDIA
 70
     1
  9
$ATTREQ
 70
     1
  9
$HANDLING
 70
     1
  9
$HANDSEED
  5
B7A4
  9
$SURFTAB1
 70
     6
  9
$SURFTAB2
 70
     6
  9
$SURFTYPE
 70
     6
  9
$SURFU
 70
     6
  9
$SURFV
 70
     6
  9
$UCSNAME
  2

  9
$UCSORG
 10
0.0
 20
0.0
 30
0.0
  9
$UCSXDIR
 10
1.0
 20
0.0
 30
0.0
  9
$UCSYDIR
 10
0.0
 20
1.0
 30
0.0
  9
$PUCSNAME
  2

  9
$PUCSORG
 10
0.0
 20
0.0
 30
0.0
  9
$PUCSXDIR
 10
1.0
 20
0.0
 30
0.0
  9
$PUCSYDIR
 10
0.0
 20
1.0
 30
0.0
  9
$USERI1
 70
     0
  9
$USERI2
 70
     0
  9
$USERI3
 70
     0
  9
$USERI4
 70
     0
  9
$USERI5
 70
     0
  9
$USERR1
 40
0.0
  9
$USERR2
 40
0.0
  9
$USERR3
 40
0.0
  9
$USERR4
 40
0.0
  9
$USERR5
 40
0.0
  9
$WORLDVIEW
 70
     1
  9
$SHADEDGE
 70
     3
  9
$SHADEDIF
 70
    70
  9
$TILEMODE
 70
     1
  9
$MAXACTVP
 70
    64
  9
$PLIMCHECK
 70
     0
  9
$PEXTMIN
 10
1.0000000000000000E+20
 20
1.0000000000000000E+20
 30
1.0000000000000000E+20
  9
$PEXTMAX
 10
-1.0000000000000000E+20
 20
-1.0000000000000000E+20
 30
-1.0000000000000000E+20
  9
$PLIMMIN
 10
0.0
 20
0.0
  9
$PLIMMAX
 10
12.0
 20
9.0
  9
$UNITMODE
 70
     0
  9
$VISRETAIN
 70
     1
  9
$PLINEGEN
 70
     0
  9
$PSLTSCALE
 70
     1
  0
ENDSEC
  0
SECTION
  2
TABLES
  0
TABLE
  2
VPORT
 70
     1
  0
VPORT
  2
*ACTIVE
 70
     0
 10
0.0
 20
0.0
 11
1.0
 21
1.0
 12
515.9244049352536194
 22
45.3795332539850733
 13
0.0
 23
0.0
 14
1.0
 24
1.0
 15
0.0
 25
0.0
 16
0.0
 26
0.0
 36
24.1179433675886514
 17
466.74220170783002
 27
89.133147119929788
 37
0.0
 40
7.1830885000736941
 41
2.6055226824457591
 42
50.0
 43
0.0
 44
0.0
 50
0.0
 51
0.0
 71
     0
 72
   100
 73
     1
 74
     1
 75
     0
 76
     0
 77
     0
 78
     0
  0
ENDTAB
  0
TABLE
  2
LTYPE
 70
     2
  0
LTYPE
  2
CONTINUOUS
 70
     0
  3
Solid line
 72
    65
 73
     0
 40
0.0
  0
LTYPE
  2
PHANTOM2
 70
     0
  3
___ _ _ ___ _ _ ___ _ _ ___ _ _
 72
    65
 73
     6
 40
1.25
 49
0.625
 49
-0.125
 49
0.125
 49
-0.125
 49
0.125
 49
-0.125
  0
ENDTAB
  0
TABLE
  2
LAYER
 70
     2
  0
LAYER
  2
0
 70
     0
 62
   255
  6
CONTINUOUS
  0
LAYER
  2
DEFPOINTS
 70
     0
 62
     7
  6
CONTINUOUS
  0
ENDTAB
  0
TABLE
  2
STYLE
 70
     1
  0
STYLE
  2
STANDARD
 70
     0
 40
0.0
 41
0.8
 50
0.0
 71
     0
 42
0.2
  3
txt
  4

  0
ENDTAB
  0
TABLE
  2
VIEW
 70
     0
  0
ENDTAB
  0
TABLE
  2
UCS
 70
     0
  0
ENDTAB
  0
TABLE
  2
APPID
 70
    11
  0
APPID
  2
ACAD
 70
     0
  0
APPID
  2
ACAD_MLEADERVER
 70
     0
  0
APPID
  2
ACAD_EXEMPT_FROM_CAD_STANDARDS
 70
     0
  0
APPID
  2
ACAD_DSTYLE_DIMJAG
 70
     0
  0
APPID
  2
ACAD_DSTYLE_DIMTALN
 70
     0
  0
APPID
  2
ACAD_NAV_VCDISPLAY
 70
     0
  0
APPID
  2
ACAECLAYERSTANDARD
 70
     0
  0
APPID
  2
ACCMTRANSPARENCY
 70
     0
  0
APPID
  2
DCO15
 70
     0
  0
APPID
  2
ACDBATTR
 70
     0
  0
APPID
  2
ACADANNOTATIVE
 70
     0
  0
ENDTAB
  0
TABLE
  2
DIMSTYLE
 70
     1
  0
DIMSTYLE
  2
STANDARD
 70
     0
  3

  4

  5

  6

  7

 40
1.0
 41
0.1875
 42
0.0625
 43
0.38
 44
0.125
 45
0.0
 46
0.0
 47
0.01
 48
0.01
140
0.15625
141
0.09
142
0.0
143
25.3999999999999986
144
1.0
145
0.0
146
1.0
147
0.09
 71
     1
 72
     0
 73
     1
 74
     1
 75
     0
 76
     0
 77
     0
 78
     4
170
     0
171
     2
172
     0
173
     0
174
     0
175
     0
176
     0
177
     0
178
     0
  0
ENDTAB
  0
ENDSEC
  0
SECTION
  2
BLOCKS
  0
BLOCK
  8
0
  2
$MODEL_SPACE
 70
     0
 10
0.0
 20
0.0
 30
0.0
  3
$MODEL_SPACE
  1

  0
ENDBLK
  5
21
  8
0
  0
BLOCK
 67
     1
  8
0
  2
$PAPER_SPACE
 70
     0
 10
0.0
 20
0.0
 30
0.0
  3
$PAPER_SPACE
  1

  0
ENDBLK
  5
1D
 67
     1
  8
0
  0
ENDSEC
  0
SECTION
  2
ENTITIES
  0
ATTDEF
  5
829
  8
DEFPOINTS
 10
982.6615903760051651
 20
134.5165916638507042
 30
0.0
 40
0.001
  1
K-99961T-4V
  3

  2
MODELNUMBER
 70
     0
1001
ACDBATTR
1070
     0
1070
     1
  0
ATTDEF
  5
82A
  8
DEFPOINTS
 10
982.6615903760051651
 20
134.5149249971840959
 30
0.0
 40
0.001
  1
MODULO
  3

  2
TRADENAME
 70
     0
1001
ACDBATTR
1070
     0
1070
     1
  0
ATTDEF
  5
82B
  8
DEFPOINTS
 10
982.6615903760051651
 20
134.5132583305174023
 30
0.0
 40
0.001
  1
VALVE TRIM
  3

  2
PRODUCT
 70
     0
1001
ACDBATTR
1070
     0
1070
     1
  0
ARC
  5
B61A
  8
0
 10
979.9679109915855406
 20
137.9955135211685047
 30
0.0
 40
0.0587384093858139
 50
89.9102026887685923
 51
180.0897974024096868
  0
ARC
  5
B61B
  8
0
 10
979.967910991415124
 20
131.026376022290691
 30
0.0
 40
0.0587384092157815
 50
179.9102025283096111
 51
270.0897974852210837
  0
LINE
  5
B61C
  8
0
 10
979.9091726543392724
 20
137.9954214628272098
 30
0.0
 11
979.9091726543392724
 21
131.0264680807026991
 31
0.0
  0
ARC
  5
B61D
  8
0
 10
985.3622453404996122
 20
137.995513522849393
 30
0.0
 40
0.0587384093858139
 50
359.9102026332989226
 51
90.0897973469399744
  0
ARC
  5
B61E
  8
0
 10
985.3622453421412501
 20
131.0263760251584984
 30
0.0
 40
0.058738412085781
 50
269.9102011628364721
 51
0.0897963662751367
  0
LINE
  5
B61F
  8
0
 10
985.4209836777457667
 20
137.9954214645447053
 30
0.0
 11
985.420983682088945
 21
131.0264680824417951
 31
0.0
  0
LINE
  5
B620
  8
0
 10
979.9680030498333281
 20
138.0542518584146876
 30
0.0
 11
985.3621532822153313
 21
138.0542518600956043
 31
0.0
  0
LINE
  5
B621
  8
0
 10
979.9680030498410588
 20
130.9676376852146973
 30
0.0
 11
982.1035637569459595
 21
130.9676376852146973
 31
0.0
  0
LINE
  5
B622
  8
0
 10
982.1035637569459595
 20
130.9676376852146973
 30
0.0
 11
982.1138970637458669
 21
130.9779709919147024
 31
0.0
  0
LINE
  5
B623
  8
0
 10
982.1138970637458669
 20
130.9779709919147024
 30
0.0
 11
982.4288576936460231
 21
130.9779709919147024
 31
0.0
  0
LINE
  5
B624
  8
0
 10
982.4288576936460231
 20
130.9779709919147024
 30
0.0
 11
982.4391910003458861
 21
130.9676376852146973
 31
0.0
  0
LINE
  5
B625
  8
0
 10
982.4391910003458861
 20
130.9676376852146973
 30
0.0
 11
982.8909653317459743
 21
130.9676376852146973
 31
0.0
  0
LINE
  5
B626
  8
0
 10
982.8909653317459743
 20
130.9676376852146973
 30
0.0
 11
982.9012986385459953
 21
130.9779709919147024
 31
0.0
  0
LINE
  5
B627
  8
0
 10
982.9012986385459953
 20
130.9779709919147024
 30
0.0
 11
983.2162592684460378
 21
130.9779709919147024
 31
0.0
  0
LINE
  5
B628
  8
0
 10
983.2162592684460378
 20
130.9779709919147024
 30
0.0
 11
983.2265925751460145
 21
130.9676376852146973
 31
0.0
  0
LINE
  5
B629
  8
0
 10
983.2265925751460145
 20
130.9676376852146973
 30
0.0
 11
985.3621532823249254
 21
130.9676376852146973
 31
0.0
  0
ARC
  5
B632
  8
0
 10
980.5728031843372037
 20
137.3906212398437106
 30
0.0
 40
0.0658290052963632
 50
98.916412190305067
 51
171.0834480979011971
  0
ARC
  5
B633
  8
0
 10
980.5728033378342161
 20
131.6312683830066135
 30
0.0
 40
0.0658291698526323
 50
188.9166028384206868
 51
261.083477482873775
  0
ARC
  5
B634
  8
0
 10
984.7573521957350522
 20
137.3906203756245077
 30
0.0
 40
0.0658300395733025
 50
8.9170592831968953
 51
81.0829001722218266
  0
ARC
  5
B635
  8
0
 10
984.757352855889053
 20
131.6312687585806884
 30
0.0
 40
0.0658295333001722
 50
278.9165897967163801
 51
351.0832360762886992
  0
LINE
  5
B636
  8
0
 10
980.5626001244460213
 20
137.455654735114706
 30
0.0
 11
984.7675561964458666
 21
137.4556547702146929
 31
0.0
  0
LINE
  5
B637
  8
0
 10
984.8223865975461422
 20
137.4008243303146912
 30
0.0
 11
984.822386810145872
 21
131.6210652176146993
 31
0.0
  0
LINE
  5
B638
  8
0
 10
980.5626001272111125
 20
131.5662347448146932
 30
0.0
 11
984.7675561992109579
 21
131.5662347733147044
 31
0.0
  0
LINE
  5
B639
  8
0
 10
980.5077697139458905
 20
137.4008244583147018
 30
0.0
 11
980.5077697139458905
 21
131.6210650812147094
 31
0.0
  0
LINE
  5
B63A
  8
0
 10
979.9263753372360952
 20
130.9848430215670021
 30
0.0
 11
980.5262531817643321
 21
131.5847220343495962
 31
0.0
  0
LINE
  5
B63B
  8
0
 10
984.8039010795929471
 20
137.4371692265428067
 30
0.0
 11
985.4037796680995598
 21
138.0370478504351013
 31
0.0
  0
LINE
  5
B63C
  8
0
 10
979.9263765271915645
 20
138.0370477119600139
 30
0.0
 11
980.5262551275658325
 21
137.4371694551597898
 31
0.0
  0
LINE
  5
B63D
  8
0
 10
984.8039229794633229
 20
131.5847418734547034
 30
0.0
 11
985.4039196639211013
 21
130.9849821613794916
 31
0.0
  0
ARC
  5
B63E
  8
0
 10
982.6650781668937498
 20
135.5542518592552028
 30
0.0
 40
0.9700000000000006
 50
286.5925021024208945
 51
253.4074977908352082
  0
ARC
  5
B63F
  8
0
 10
982.6650781668937498
 20
135.5542518592552028
 30
0.0
 40
0.3901286138
 50
224.3506960174844096
 51
225.5729939873027945
  0
ARC
  5
B640
  8
0
 10
982.6650781668937498
 20
135.5542518592552028
 30
0.0
 40
0.3901286138
 50
314.4270056550307118
 51
222.4234155906657975
  0
ARC
  5
B641
  8
0
 10
982.6650781668937498
 20
135.5542518592552028
 30
0.0
 40
0.5326037920521109
 50
300.8468597389497177
 51
239.1531400431267969
  0
ARC
  5
B642
  8
0
 10
982.6650781659742506
 20
135.5542518592552028
 30
0.0
 40
0.9940944881999993
 50
286.2007096112259887
 51
253.7992903947495051
  0
LINE
  5
B643
  8
0
 10
982.9521089666535545
 20
132.781241716355197
 30
0.0
 11
982.3780473653949912
 21
132.781241716355197
 31
0.0
  0
LINE
  5
B644
  8
0
 10
982.2655189240398386
 20
132.886633161551714
 30
0.0
 11
982.3638234577471167
 21
132.7871818283319953
 31
0.0
  0
ARC
  5
B645
  8
0
 10
973.4824321969131233
 20
134.2922694108771111
 30
0.0
 40
8.8866951619233721
 50
351.0136689779573089
 51
353.7197119451222989
  0
ARC
  5
B646
  8
0
 10
982.2797428316875994
 20
132.9006930495748122
 30
0.0
 40
0.02
 50
169.9650352785153871
 51
224.6677416630652999
  0
ARC
  5
B647
  8
0
 10
982.3780473653949912
 20
132.8012417163552072
 30
0.0
 40
0.02
 50
224.6677416630629978
 51
269.9999999999869829
  0
ARC
  5
B648
  8
0
 10
971.1683930996578056
 20
134.530202405255892
 30
0.0
 40
11.2128872839851201
 50
353.8047039669471019
 51
356.8436490438087958
  0
ARC
  5
B649
  8
0
 10
966.0222516841208744
 20
134.8139838592043986
 30
0.0
 40
16.3668472549500983
 50
356.8436490438087958
 51
359.0615287974347893
  0
ARC
  5
B64A
  8
0
 10
938.0317200466724898
 20
135.2493246848866022
 30
0.0
 40
44.3607606110375485
 50
359.0914490982988241
 51
359.7300054494547794
  0
LINE
  5
B64B
  8
0
 10
982.3919881274506452
 20
135.040284518264599
 30
0.0
 11
982.3919881274506452
 21
135.8073418947736002
 31
0.0
  0
ARC
  5
B64C
  8
0
 10
982.2883400923473118
 20
135.2375362067203923
 30
0.0
 40
0.1036480388705565
 50
0.0154474739166021
 51
31.0971690206519611
  0
LINE
  5
B64D
  8
0
 10
982.4119881274508543
 20
135.8273418947736104
 30
0.0
 11
982.9181682045976913
 21
135.8273418947736104
 31
0.0
  0
ARC
  5
B64E
  8
0
 10
982.4119881274508543
 20
135.8073418947736002
 30
0.0
 40
0.02
 50
90.0
 51
179.9999999999967031
  0
LINE
  5
B64F
  8
0
 10
983.0646374080087071
 20
132.886633161551714
 30
0.0
 11
982.9663328743013153
 21
132.7871818283319953
 31
0.0
  0
ARC
  5
B650
  8
0
 10
982.9521089666535545
 20
132.8012417163552072
 30
0.0
 40
0.02
 50
270.0
 51
315.3322583369370022
  0
ARC
  5
B651
  8
0
 10
991.847724135135195
 20
134.2922694108771111
 30
0.0
 40
8.8866951619233721
 50
186.2802880548777011
 51
188.9863310220426911
  0
ARC
  5
B652
  8
0
 10
983.0504135003607189
 20
132.9006930495748122
 30
0.0
 40
0.02
 50
315.3322583369301242
 51
10.0349647214844904
  0
ARC
  5
B653
  8
0
 10
994.1617632323907401
 20
134.530202405255892
 30
0.0
 40
11.2128872839851201
 50
183.1563509561910905
 51
186.1952960330528128
  0
ARC
  5
B654
  8
0
 10
999.3079046479276712
 20
134.8139838592043986
 30
0.0
 40
16.3668472549500983
 50
180.938471202565097
 51
183.1563509561910905
  0
ARC
  5
B655
  8
0
 10
1027.2984362853760558
 20
135.2493246848866022
 30
0.0
 40
44.3607606110375485
 50
180.2699945505451922
 51
180.9085509017012043
  0
LINE
  5
B656
  8
0
 10
982.9381682045975595
 20
135.040284518264599
 30
0.0
 11
982.9381682045975595
 21
135.8073418947736002
 31
0.0
  0
ARC
  5
B657
  8
0
 10
982.9181682045976913
 20
135.8073418947736002
 30
0.0
 40
0.02
 50
0.0000000000048853
 51
90.0
  0
LINE
  5
B659
  8
0
 10
982.2655189240398386
 20
132.886633161551714
 30
0.0
 11
983.0646374080087071
 21
132.886633161551714
 31
0.0
  0
ENDSEC
  0
EOF
