  0
SECTION
  2
HEADER
  9
$ACADVER
  1
AC1009
  9
$INSBASE
 10
576.1774930879461181
 20
209.8866765718912859
 30
0.0
  9
$EXTMIN
 10
572.9664247890990509
 20
205.6193276114973116
 30
-0.0000000000112498
  9
$EXTMAX
 10
579.3761367579946864
 20
209.895189570146897
 30
0.0000000000002956
  9
$LIMMIN
 10
0.0
 20
0.0
  9
$LIMMAX
 10
11.6929133858000007
 20
8.2677165353999982
  9
$ORTHOMODE
 70
     0
  9
$REGENMODE
 70
     1
  9
$FILLMODE
 70
     1
  9
$QTEXTMODE
 70
     0
  9
$MIRRTEXT
 70
     0
  9
$DRAGMODE
 70
     2
  9
$LTSCALE
 40
0.6431102362
  9
$OSMODE
 70
  4095
  9
$ATTMODE
 70
     1
  9
$TEXTSIZE
 40
0.2
  9
$TRACEWID
 40
0.05
  9
$TEXTSTYLE
  7
STANDARD
  9
$CLAYER
  8
0
  9
$CELTYPE
  6
BYLAYER
  9
$CECOLOR
 62
   256
  9
$DIMSCALE
 40
1.0
  9
$DIMASZ
 40
0.1875
  9
$DIMEXO
 40
0.0625
  9
$DIMDLI
 40
0.4443307087
  9
$DIMRND
 40
0.0
  9
$DIMDLE
 40
0.0
  9
$DIMEXE
 40
0.125
  9
$DIMTP
 40
0.01
  9
$DIMTM
 40
0.01
  9
$DIMTXT
 40
1.0
  9
$DIMCEN
 40
0.1052362205
  9
$DIMTSZ
 40
0.0
  9
$DIMTOL
 70
     1
  9
$DIMLIM
 70
     0
  9
$DIMTIH
 70
     0
  9
$DIMTOH
 70
     1
  9
$DIMSE1
 70
     0
  9
$DIMSE2
 70
     0
  9
$DIMTAD
 70
     0
  9
$DIMZIN
 70
     0
  9
$DIMBLK
  1

  9
$DIMASO
 70
     1
  9
$DIMSHO
 70
     1
  9
$DIMPOST
  1
\X
  9
$DIMAPOST
  1

  9
$DIMALT
 70
     1
  9
$DIMALTD
 70
     2
  9
$DIMALTF
 40
25.3999999999999986
  9
$DIMLFAC
 40
1.0
  9
$DIMTOFL
 70
     0
  9
$DIMTVP
 40
0.0
  9
$DIMTIX
 70
     0
  9
$DIMSOXD
 70
     0
  9
$DIMSAH
 70
     0
  9
$DIMBLK1
  1

  9
$DIMBLK2
  1

  9
$DIMSTYLE
  2
STANDARD
  9
$DIMCLRD
 70
     0
  9
$DIMCLRE
 70
     0
  9
$DIMCLRT
 70
     0
  9
$DIMTFAC
 40
1.0
  9
$DIMGAP
 40
0.09
  9
$LUNITS
 70
     2
  9
$LUPREC
 70
     4
  9
$SKETCHINC
 40
0.1
  9
$FILLETRAD
 40
0.0
  9
$AUNITS
 70
     0
  9
$AUPREC
 70
     0
  9
$MENU
  1
.
  9
$ELEVATION
 40
0.0
  9
$PELEVATION
 40
0.0
  9
$THICKNESS
 40
0.0
  9
$LIMCHECK
 70
     0
  9
$BLIPMODE
 70
     0
  9
$CHAMFERA
 40
0.0
  9
$CHAMFERB
 40
0.0
  9
$SKPOLY
 70
     0
  9
$TDCREATE
 40
2458172.5207638889551163
  9
$TDUPDATE
 40
2459892.8528009261935949
  9
$TDINDWG
 40
0.4813295023
  9
$TDUSRTIMER
 40
0.4813295023
  9
$USRTIMER
 70
     1
  9
$ANGBASE
 50
0.0
  9
$ANGDIR
 70
     0
  9
$PDMODE
 70
     0
  9
$PDSIZE
 40
0.3125
  9
$PLINEWID
 40
0.0
  9
$COORDS
 70
     1
  9
$SPLFRAME
 70
     0
  9
$SPLINETYPE
 70
     6
  9
$SPLINESEGS
 70
     8
  9
$ATTDIA
 70
     1
  9
$ATTREQ
 70
     1
  9
$HANDLING
 70
     1
  9
$HANDSEED
  5
9E38
  9
$SURFTAB1
 70
     6
  9
$SURFTAB2
 70
     6
  9
$SURFTYPE
 70
     6
  9
$SURFU
 70
     6
  9
$SURFV
 70
     6
  9
$UCSNAME
  2

  9
$UCSORG
 10
0.0
 20
0.0
 30
0.0
  9
$UCSXDIR
 10
1.0
 20
0.0
 30
0.0
  9
$UCSYDIR
 10
0.0
 20
1.0
 30
0.0
  9
$PUCSNAME
  2

  9
$PUCSORG
 10
0.0
 20
0.0
 30
0.0
  9
$PUCSXDIR
 10
1.0
 20
0.0
 30
0.0
  9
$PUCSYDIR
 10
0.0
 20
1.0
 30
0.0
  9
$USERI1
 70
     0
  9
$USERI2
 70
     0
  9
$USERI3
 70
     0
  9
$USERI4
 70
     0
  9
$USERI5
 70
     0
  9
$USERR1
 40
0.0
  9
$USERR2
 40
0.0
  9
$USERR3
 40
0.0
  9
$USERR4
 40
0.0
  9
$USERR5
 40
0.0
  9
$WORLDVIEW
 70
     1
  9
$SHADEDGE
 70
     3
  9
$SHADEDIF
 70
    70
  9
$TILEMODE
 70
     1
  9
$MAXACTVP
 70
    64
  9
$PLIMCHECK
 70
     0
  9
$PEXTMIN
 10
1.0000000000000000E+20
 20
1.0000000000000000E+20
 30
1.0000000000000000E+20
  9
$PEXTMAX
 10
-1.0000000000000000E+20
 20
-1.0000000000000000E+20
 30
-1.0000000000000000E+20
  9
$PLIMMIN
 10
0.0
 20
0.0
  9
$PLIMMAX
 10
12.0
 20
9.0
  9
$UNITMODE
 70
     0
  9
$VISRETAIN
 70
     1
  9
$PLINEGEN
 70
     0
  9
$PSLTSCALE
 70
     1
  0
ENDSEC
  0
SECTION
  2
TABLES
  0
TABLE
  2
VPORT
 70
     1
  0
VPORT
  2
*ACTIVE
 70
     0
 10
0.0
 20
0.0
 11
1.0
 21
1.0
 12
73.5392522728600397
 22
117.8612406510713981
 13
0.0
 23
0.0
 14
1.0
 24
1.0
 15
0.0
 25
0.0
 16
0.0
 26
0.0
 36
15.0514596368723108
 17
502.6320285006868858
 27
89.8960179397507062
 37
0.0
 40
4.309223690446685
 41
2.095052083333333
 42
50.0
 43
0.0
 44
0.0
 50
0.0
 51
0.0
 71
     0
 72
   100
 73
     1
 74
     1
 75
     0
 76
     0
 77
     0
 78
     0
  0
ENDTAB
  0
TABLE
  2
LTYPE
 70
     2
  0
LTYPE
  2
CONTINUOUS
 70
     0
  3
Solid line
 72
    65
 73
     0
 40
0.0
  0
LTYPE
  2
PHANTOM2
 70
     0
  3
___ _ _ ___ _ _ ___ _ _ ___ _ _
 72
    65
 73
     6
 40
1.25
 49
0.625
 49
-0.125
 49
0.125
 49
-0.125
 49
0.125
 49
-0.125
  0
ENDTAB
  0
TABLE
  2
LAYER
 70
     2
  0
LAYER
  2
0
 70
     0
 62
   255
  6
CONTINUOUS
  0
LAYER
  2
DEFPOINTS
 70
     0
 62
     7
  6
CONTINUOUS
  0
ENDTAB
  0
TABLE
  2
STYLE
 70
     1
  0
STYLE
  2
STANDARD
 70
     0
 40
0.0
 41
0.8
 50
0.0
 71
     0
 42
0.2
  3
txt
  4

  0
ENDTAB
  0
TABLE
  2
VIEW
 70
     0
  0
ENDTAB
  0
TABLE
  2
UCS
 70
     0
  0
ENDTAB
  0
TABLE
  2
APPID
 70
    10
  0
APPID
  2
ACAD
 70
     0
  0
APPID
  2
ACAD_MLEADERVER
 70
     0
  0
APPID
  2
ACAD_EXEMPT_FROM_CAD_STANDARDS
 70
     0
  0
APPID
  2
ACAD_DSTYLE_DIMJAG
 70
     0
  0
APPID
  2
ACAD_DSTYLE_DIMTALN
 70
     0
  0
APPID
  2
ACAD_NAV_VCDISPLAY
 70
     0
  0
APPID
  2
ACAECLAYERSTANDARD
 70
     0
  0
APPID
  2
ACCMTRANSPARENCY
 70
     0
  0
APPID
  2
DCO15
 70
     0
  0
APPID
  2
ACDBATTR
 70
     0
  0
ENDTAB
  0
TABLE
  2
DIMSTYLE
 70
     1
  0
DIMSTYLE
  2
STANDARD
 70
     0
  3

  4

  5

  6

  7

 40
1.0
 41
0.1875
 42
0.0625
 43
0.38
 44
0.125
 45
0.0
 46
0.0
 47
0.01
 48
0.01
140
0.15625
141
0.09
142
0.0
143
25.3999999999999986
144
1.0
145
0.0
146
1.0
147
0.09
 71
     1
 72
     0
 73
     1
 74
     1
 75
     0
 76
     0
 77
     0
 78
     4
170
     0
171
     2
172
     0
173
     0
174
     0
175
     0
176
     0
177
     0
178
     0
  0
ENDTAB
  0
ENDSEC
  0
SECTION
  2
BLOCKS
  0
BLOCK
  8
0
  2
$MODEL_SPACE
 70
     0
 10
0.0
 20
0.0
 30
0.0
  3
$MODEL_SPACE
  1

  0
ENDBLK
  5
21
  8
0
  0
BLOCK
 67
     1
  8
0
  2
$PAPER_SPACE
 70
     0
 10
0.0
 20
0.0
 30
0.0
  3
$PAPER_SPACE
  1

  0
ENDBLK
  5
1D
 67
     1
  8
0
  0
BLOCK
  8
0
  2
_FILLED
 70
     0
 10
0.0
 20
0.0
 30
0.0
  3
_FILLED
  1

  0
SOLID
  5
9C9F
  8
0
  6
BYBLOCK
 62
     0
 10
0.0
 20
0.0
 30
0.0
 11
-1.0
 21
0.1666666667
 31
0.0
 12
-1.0
 22
-0.1666666667
 32
0.0
 13
-1.0
 23
-0.1666666667
 33
0.0
  0
ENDBLK
  5
9CA0
  8
0
  6
BYBLOCK
 62
     0
  0
ENDSEC
  0
SECTION
  2
ENTITIES
  0
ATTDEF
  5
829
  8
DEFPOINTS
 10
576.1782263200493617
 20
209.8909857974755937
 30
0.0
 40
0.001
  1
K-C14488W-4
  3

  2
MODELNUMBER
 70
     0
1001
ACDBATTR
1070
     0
1070
     1
  0
ATTDEF
  5
82A
  8
DEFPOINTS
 10
576.1782263200493617
 20
209.8893191308089001
 30
0.0
 40
0.001
  1
PURIST
  3

  2
TRADENAME
 70
     0
1001
ACDBATTR
1070
     0
1070
     1
  0
ATTDEF
  5
82B
  8
DEFPOINTS
 10
576.1782263200493617
 20
209.8876524641422066
 30
0.0
 40
0.001
  1
VALVE TRIM
  3

  2
PRODUCT
 70
     0
1001
ACDBATTR
1070
     0
1070
     1
  0
LINE
  5
9CC9
  8
0
 10
575.388993087946119
 20
207.1846419647795017
 30
0.0
 11
576.9659930879461172
 21
207.1846419647795017
 31
0.0
  0
ARC
  5
9CCA
  8
0
 10
575.4624930879460862
 20
207.1846419647795017
 30
0.0
 40
0.0200000000000014
 50
270.0000000000064801
 51
359.9999999999951115
  0
LINE
  5
9CCB
  8
0
 10
576.9459930879460217
 20
207.1646419647794914
 30
0.0
 11
575.4089998904460117
 21
207.1646419647794914
 31
0.0
  0
ARC
  5
9CCC
  8
0
 10
575.4090566861991647
 20
207.1444980110499046
 30
0.0
 40
0.0201440337970371
 50
90.1615446685565729
 51
174.8780771921545067
  0
ARC
  5
9CCD
  8
0
 10
575.4090037157436655
 20
207.0947327186401878
 30
0.0
 40
0.0200907539367935
 50
185.1188342242571991
 51
269.9950121239594978
  0
LINE
  5
9CCE
  8
0
 10
575.4090019667460183
 20
207.074641964779488
 30
0.0
 11
576.9459821593339939
 21
207.074641964779488
 31
0.0
  0
ARC
  5
9CCF
  8
0
 10
575.6099761308416873
 20
206.7681874032805922
 30
0.0
 40
0.3086527542900852
 50
4.916841564978002
 51
83.1578352263330345
  0
ARC
  5
9CD0
  8
0
 10
576.8924930879460362
 20
207.1846419647795017
 30
0.0
 40
0.0200000000000014
 50
180.0000000000048885
 51
269.9999999999935199
  0
ARC
  5
9CD1
  8
0
 10
576.9464376853362637
 20
207.1450096078341119
 30
0.0
 40
0.019637390510763
 50
5.2374735571102491
 51
91.2973073362466039
  0
ARC
  5
9CD2
  8
0
 10
576.9459724305663713
 20
207.0947427938540955
 30
0.0
 40
0.0201008314289893
 50
270.0277310591247897
 51
354.8809191750339096
  0
ARC
  5
9CD3
  8
0
 10
576.7362642939579018
 20
206.776644098303592
 30
0.0
 40
0.2993128075098075
 50
95.3726338306611865
 51
176.5526893780381954
  0
ARC
  5
9CD4
  8
0
 10
573.7723763610683818
 20
200.383931843597793
 30
0.0
 40
9.0000000166593566
 50
79.7663775775632331
 51
85.7054450824248732
  0
ARC
  5
9CD5
  8
0
 10
575.3838555243752353
 20
209.3100571901053968
 30
0.0
 40
0.0704232811994166
 50
259.7603550349494981
 51
269.1333575406305272
  0
LINE
  5
9CD6
  8
0
 10
575.3827903590361075
 20
209.2396419647795085
 30
0.0
 11
576.972195816856015
 21
209.2396419647795085
 31
0.0
  0
ARC
  5
9CD7
  8
0
 10
578.5824923202653736
 20
200.3848536157194076
 30
0.0
 40
8.9990720343102684
 50
94.2942484253804167
 51
100.2339289146288053
  0
ARC
  5
9CD8
  8
0
 10
576.9711306519543541
 20
209.3100571856070928
 30
0.0
 40
0.0704232766950015
 50
270.8666421589327911
 51
280.2396452654763834
  0
LINE
  5
9CD9
  8
0
 10
575.9174930879461272
 20
206.7946419647794869
 30
0.0
 11
575.9174930879461272
 21
206.1046036985470948
 31
0.0
  0
LINE
  5
9CDA
  8
0
 10
576.437493087946109
 20
206.7946419647794869
 30
0.0
 11
576.437493087946109
 21
206.1046235471951888
 31
0.0
  0
CIRCLE
  5
9CDB
  8
0
 10
576.1774930879461181
 20
205.9346419647795017
 30
0.0
 40
0.3000000000000007
  0
CIRCLE
  5
9CDC
  8
0
 10
576.1774930879461181
 20
205.9346419647795017
 30
0.0
 40
0.2617474349000002
  0
ARC
  5
9CDD
  8
0
 10
575.9374396666140683
 20
206.1046228316635052
 30
0.0
 40
0.0199465878443876
 50
180.0549591234170066
 51
219.4654345540741076
  0
ARC
  5
9CDE
  8
0
 10
576.4175187997046805
 20
206.1046327559851932
 30
0.0
 40
0.0199742903640542
 50
320.5631093579439721
 51
359.9735848025835026
  0
LINE
  5
9CDF
  8
0
 10
575.388993087946119
 20
209.2396419647795085
 30
0.0
 11
575.388993087946119
 21
207.1846419647795017
 31
0.0
  0
LINE
  5
9CE0
  8
0
 10
575.388993087946119
 20
207.1462963777397022
 30
0.0
 11
575.388993087946119
 21
207.0929401872205915
 31
0.0
  0
LINE
  5
9CE1
  8
0
 10
576.9659930879461172
 20
209.2396419647795085
 30
0.0
 11
576.9659930879461172
 21
207.1846419647795017
 31
0.0
  0
LINE
  5
9CE2
  8
0
 10
576.9659930879461172
 20
207.1468021855428958
 30
0.0
 11
576.9659930879461172
 21
207.0929492771348066
 31
0.0
  0
LINE
  5
9CE3
  8
0
 10
572.9874911808901743
 20
209.8866765718912859
 30
0.0
 11
572.9946968700334082
 21
209.4739515180912974
 31
0.0
  0
ARC
  5
9CE4
  8
0
 10
573.1086206917849495
 20
209.4906567341145092
 30
0.0
 40
0.115142092261486
 50
188.342113682362907
 51
266.7770550909311851
  0
LINE
  5
9CE5
  8
0
 10
573.1021472490333508
 20
209.3756967586913049
 30
0.0
 11
579.2528389270429443
 21
209.3756967586913049
 31
0.0
  0
LINE
  5
9CE6
  8
0
 10
579.3674949950019482
 20
209.8866765718912859
 30
0.0
 11
579.3602885848180222
 21
209.4739515181501872
 31
0.0
  0
ARC
  5
9CE7
  8
0
 10
579.24648882335282
 20
209.4905210164612015
 30
0.0
 40
0.1149997129965196
 50
273.1653930129019727
 51
351.7158212942849218
  0
LINE
  5
9CE8
  8
0
 10
572.9874911808901743
 20
209.8866765718912859
 30
0.0
 11
579.3674949950019482
 21
209.8866765718912859
 31
0.0
  0
ENDSEC
  0
EOF
