  0
SECTION
  2
HEADER
  9
$ACADVER
  1
AC1009
  9
$INSBASE
 10
3239.8518417128839246
 20
144.1013576928860971
 30
0.0
  9
$EXTMIN
 10
3237.6018400095890684
 20
140.0758000167838873
 30
0.0
  9
$EXTMAX
 10
3242.1018434161778714
 20
144.1013576928860971
 30
0.0
  9
$LIMMIN
 10
0.0
 20
0.0
  9
$LIMMAX
 10
11.6929133858000007
 20
8.2677165353999982
  9
$ORTHOMODE
 70
     0
  9
$REGENMODE
 70
     1
  9
$FILLMODE
 70
     1
  9
$QTEXTMODE
 70
     0
  9
$MIRRTEXT
 70
     0
  9
$DRAGMODE
 70
     2
  9
$LTSCALE
 40
0.6431102362
  9
$OSMODE
 70
  4095
  9
$ATTMODE
 70
     1
  9
$TEXTSIZE
 40
0.2
  9
$TRACEWID
 40
0.05
  9
$TEXTSTYLE
  7
STANDARD
  9
$CLAYER
  8
0
  9
$CELTYPE
  6
BYLAYER
  9
$CECOLOR
 62
   256
  9
$DIMSCALE
 40
1.0
  9
$DIMASZ
 40
0.1875
  9
$DIMEXO
 40
0.0625
  9
$DIMDLI
 40
0.4443307087
  9
$DIMRND
 40
0.0
  9
$DIMDLE
 40
0.0
  9
$DIMEXE
 40
0.125
  9
$DIMTP
 40
0.01
  9
$DIMTM
 40
0.01
  9
$DIMTXT
 40
2.0
  9
$DIMCEN
 40
0.1052362205
  9
$DIMTSZ
 40
0.0
  9
$DIMTOL
 70
     1
  9
$DIMLIM
 70
     0
  9
$DIMTIH
 70
     1
  9
$DIMTOH
 70
     1
  9
$DIMSE1
 70
     0
  9
$DIMSE2
 70
     0
  9
$DIMTAD
 70
     0
  9
$DIMZIN
 70
     0
  9
$DIMBLK
  1

  9
$DIMASO
 70
     1
  9
$DIMSHO
 70
     1
  9
$DIMPOST
  1
\X
  9
$DIMAPOST
  1

  9
$DIMALT
 70
     1
  9
$DIMALTD
 70
     2
  9
$DIMALTF
 40
25.3999999999999986
  9
$DIMLFAC
 40
1.0
  9
$DIMTOFL
 70
     0
  9
$DIMTVP
 40
0.0
  9
$DIMTIX
 70
     0
  9
$DIMSOXD
 70
     0
  9
$DIMSAH
 70
     0
  9
$DIMBLK1
  1

  9
$DIMBLK2
  1

  9
$DIMSTYLE
  2
STANDARD
  9
$DIMCLRD
 70
     0
  9
$DIMCLRE
 70
     0
  9
$DIMCLRT
 70
     0
  9
$DIMTFAC
 40
1.0
  9
$DIMGAP
 40
0.09
  9
$LUNITS
 70
     2
  9
$LUPREC
 70
     4
  9
$SKETCHINC
 40
0.1
  9
$FILLETRAD
 40
0.0
  9
$AUNITS
 70
     0
  9
$AUPREC
 70
     0
  9
$MENU
  1
.
  9
$ELEVATION
 40
0.0
  9
$PELEVATION
 40
0.0
  9
$THICKNESS
 40
0.0
  9
$LIMCHECK
 70
     0
  9
$BLIPMODE
 70
     0
  9
$CHAMFERA
 40
0.0
  9
$CHAMFERB
 40
0.0
  9
$SKPOLY
 70
     0
  9
$TDCREATE
 40
2458060.468368056230247
  9
$TDUPDATE
 40
2459780.655567130073905
  9
$TDINDWG
 40
0.6579121528
  9
$TDUSRTIMER
 40
0.6579121528
  9
$USRTIMER
 70
     1
  9
$ANGBASE
 50
0.0
  9
$ANGDIR
 70
     0
  9
$PDMODE
 70
     0
  9
$PDSIZE
 40
0.3125
  9
$PLINEWID
 40
0.0
  9
$COORDS
 70
     1
  9
$SPLFRAME
 70
     0
  9
$SPLINETYPE
 70
     6
  9
$SPLINESEGS
 70
     8
  9
$ATTDIA
 70
     1
  9
$ATTREQ
 70
     1
  9
$HANDLING
 70
     1
  9
$HANDSEED
  5
28B9B
  9
$SURFTAB1
 70
     6
  9
$SURFTAB2
 70
     6
  9
$SURFTYPE
 70
     6
  9
$SURFU
 70
     6
  9
$SURFV
 70
     6
  9
$UCSNAME
  2

  9
$UCSORG
 10
0.0
 20
0.0
 30
0.0
  9
$UCSXDIR
 10
1.0
 20
0.0
 30
0.0
  9
$UCSYDIR
 10
0.0
 20
1.0
 30
0.0
  9
$PUCSNAME
  2

  9
$PUCSORG
 10
0.0
 20
0.0
 30
0.0
  9
$PUCSXDIR
 10
1.0
 20
0.0
 30
0.0
  9
$PUCSYDIR
 10
0.0
 20
1.0
 30
0.0
  9
$USERI1
 70
     0
  9
$USERI2
 70
     0
  9
$USERI3
 70
     0
  9
$USERI4
 70
     0
  9
$USERI5
 70
     0
  9
$USERR1
 40
0.0
  9
$USERR2
 40
0.0
  9
$USERR3
 40
0.0
  9
$USERR4
 40
0.0
  9
$USERR5
 40
0.0
  9
$WORLDVIEW
 70
     1
  9
$SHADEDGE
 70
     3
  9
$SHADEDIF
 70
    70
  9
$TILEMODE
 70
     1
  9
$MAXACTVP
 70
    64
  9
$PLIMCHECK
 70
     0
  9
$PEXTMIN
 10
1.0000000000000000E+20
 20
1.0000000000000000E+20
 30
1.0000000000000000E+20
  9
$PEXTMAX
 10
-1.0000000000000000E+20
 20
-1.0000000000000000E+20
 30
-1.0000000000000000E+20
  9
$PLIMMIN
 10
0.0
 20
0.0
  9
$PLIMMAX
 10
12.0
 20
9.0
  9
$UNITMODE
 70
     0
  9
$VISRETAIN
 70
     1
  9
$PLINEGEN
 70
     0
  9
$PSLTSCALE
 70
     1
  0
ENDSEC
  0
SECTION
  2
TABLES
  0
TABLE
  2
VPORT
 70
     1
  0
VPORT
  2
*ACTIVE
 70
     0
 10
0.0
 20
0.0
 11
1.0
 21
1.0
 12
0.0
 22
0.0
 13
0.0
 23
0.0
 14
1.0
 24
1.0
 15
0.0
 25
0.0
 16
0.0
 26
0.0
 36
17.1647579935602401
 17
3239.8518066406259095
 27
142.0885848999022869
 37
0.0
 40
6.0402646828840458
 41
2.127494456762749
 42
50.0
 43
0.0
 44
0.0
 50
0.0
 51
0.0
 71
     0
 72
   100
 73
     1
 74
     1
 75
     0
 76
     0
 77
     0
 78
     0
  0
ENDTAB
  0
TABLE
  2
LTYPE
 70
     2
  0
LTYPE
  2
CONTINUOUS
 70
     0
  3
Solid line
 72
    65
 73
     0
 40
0.0
  0
LTYPE
  2
PHANTOM2
 70
     0
  3
___ _ _ ___ _ _ ___ _ _ ___ _ _
 72
    65
 73
     6
 40
1.25
 49
0.625
 49
-0.125
 49
0.125
 49
-0.125
 49
0.125
 49
-0.125
  0
ENDTAB
  0
TABLE
  2
LAYER
 70
     2
  0
LAYER
  2
0
 70
     0
 62
   255
  6
CONTINUOUS
  0
LAYER
  2
DEFPOINTS
 70
     0
 62
     7
  6
CONTINUOUS
  0
ENDTAB
  0
TABLE
  2
STYLE
 70
     1
  0
STYLE
  2
STANDARD
 70
     0
 40
0.0
 41
0.8
 50
0.0
 71
     0
 42
0.2
  3
txt
  4

  0
ENDTAB
  0
TABLE
  2
VIEW
 70
     0
  0
ENDTAB
  0
TABLE
  2
UCS
 70
     0
  0
ENDTAB
  0
TABLE
  2
APPID
 70
     9
  0
APPID
  2
ACAD
 70
     0
  0
APPID
  2
ACAD_MLEADERVER
 70
     0
  0
APPID
  2
ACAD_EXEMPT_FROM_CAD_STANDARDS
 70
     0
  0
APPID
  2
ACAD_NAV_VCDISPLAY
 70
     0
  0
APPID
  2
ACAECLAYERSTANDARD
 70
     0
  0
APPID
  2
ACCMTRANSPARENCY
 70
     0
  0
APPID
  2
ACAD_DSTYLE_DIMJAG
 70
     0
  0
APPID
  2
ACAD_DSTYLE_DIMTALN
 70
     0
  0
APPID
  2
ACDBATTR
 70
     0
  0
ENDTAB
  0
TABLE
  2
DIMSTYLE
 70
     1
  0
DIMSTYLE
  2
STANDARD
 70
     0
  3

  4

  5

  6

  7

 40
1.0
 41
0.1875
 42
0.0625
 43
0.38
 44
0.125
 45
0.0
 46
0.0
 47
0.01
 48
0.01
140
0.15625
141
0.09
142
0.0
143
25.3999999999999986
144
1.0
145
0.0
146
1.0
147
0.09
 71
     1
 72
     0
 73
     1
 74
     1
 75
     0
 76
     0
 77
     0
 78
     4
170
     0
171
     2
172
     0
173
     0
174
     0
175
     0
176
     0
177
     0
178
     0
  0
ENDTAB
  0
ENDSEC
  0
SECTION
  2
BLOCKS
  0
BLOCK
  8
0
  2
$MODEL_SPACE
 70
     0
 10
0.0
 20
0.0
 30
0.0
  3
$MODEL_SPACE
  1

  0
ENDBLK
  5
21
  8
0
  0
BLOCK
 67
     1
  8
0
  2
$PAPER_SPACE
 70
     0
 10
0.0
 20
0.0
 30
0.0
  3
$PAPER_SPACE
  1

  0
ENDBLK
  5
1D
 67
     1
  8
0
  0
ENDSEC
  0
SECTION
  2
ENTITIES
  0
ATTDEF
  5
28604
  8
DEFPOINTS
 10
3239.8518767477480651
 20
144.1001000535125911
 30
0.0
 40
0.001
  1
K-C72771-9M
  3

  2
MODELNUMBER
 70
     0
1001
ACDBATTR
1070
     0
1070
     1
  0
ATTDEF
  5
28605
  8
DEFPOINTS
 10
3239.8518767477480651
 20
144.0984333868458975
 30
0.0
 40
0.001
  1
ARTIFACTS
  3

  2
TRADENAME
 70
     0
1001
ACDBATTR
1070
     0
1070
     1
  0
ATTDEF
  5
28606
  8
DEFPOINTS
 10
3239.8518767477480651
 20
144.096766720179204
 30
0.0
 40
0.001
  1
VALVE TRIM
  3

  2
PRODUCT
 70
     0
1001
ACDBATTR
1070
     0
1070
     1
  0
ARC
  5
28A6E
  8
0
 10
3239.8518365427830759
 20
140.576356905386092
 30
0.0
 40
0.4430043479999997
 50
124.3389547201087026
 51
230.6782879437052998
  0
ARC
  5
28A6F
  8
0
 10
3239.8518505683841795
 20
140.576364701724799
 30
0.0
 40
0.442989998837978
 50
309.360584118592385
 51
55.6619786001969672
  0
ARC
  5
28A70
  8
0
 10
3239.8518365420582086
 20
140.5763569057293978
 30
0.0
 40
0.4334311525687969
 50
130.3481261945524921
 51
227.536514097869599
  0
ARC
  5
28A71
  8
0
 10
3239.8518365427830759
 20
140.576356905386092
 30
0.0
 40
0.4334311533
 50
312.3232445958861945
 51
52.4709876505552089
  0
LINE
  5
28A72
  8
0
 10
3239.5712385404840461
 20
140.2306040853860907
 30
0.0
 11
3239.5730934894781967
 21
140.1769583892354945
 31
0.0
  0
ARC
  5
28A73
  8
0
 10
3239.5880843518862093
 20
140.177481881687612
 30
0.0
 40
0.0150000000029946
 50
182.0000000055599116
 51
232.2690727752151076
  0
ARC
  5
28A74
  8
0
 10
3239.8667011038910459
 20
140.5466586350607088
 30
0.0
 40
0.4775124836603032
 50
232.9365903266134126
 51
251.6449358098971061
  0
ARC
  5
28A75
  8
0
 10
3239.8415669051260011
 20
140.4829291763645074
 30
0.0
 40
0.4091280170054578
 50
252.175252729017501
 51
262.1434668149576055
  0
ARC
  5
28A76
  8
0
 10
3239.8157249199780381
 20
140.3224479508558886
 30
0.0
 40
0.2466479340719073
 50
262.9943462791093793
 51
278.4158370791017774
  0
ARC
  5
28A77
  8
0
 10
3239.8910778352328634
 20
140.5295831008180016
 30
0.0
 40
0.4944847682439871
 50
127.8304202723348055
 51
130.3045602771443896
  0
ARC
  5
28A78
  8
0
 10
3239.5491401282511106
 20
140.9699235876030059
 30
0.0
 40
0.0630285856386904
 50
307.8304202723347771
 51
317.7501252862929277
  0
ARC
  5
28A79
  8
0
 10
3239.5790575561418336
 20
140.9427486288277862
 30
0.0
 40
0.0226116229125438
 50
317.7501252862929277
 51
340.3247745258913142
  0
ARC
  5
28A7A
  8
0
 10
3239.5720453536741843
 20
140.9452559405665113
 30
0.0
 40
0.030058608585356
 50
340.3247745258913142
 51
354.0733378567675231
  0
ARC
  5
28A7B
  8
0
 10
3239.5384242973468645
 20
140.9487461518941984
 30
0.0
 40
0.063860339364692
 50
354.0733378567675231
 51
0.0500117890209901
  0
ARC
  5
28A7C
  8
0
 10
3578.9078161199718124
 20
135.0555994755937945
 30
0.0
 40
339.3567054684315849
 50
178.9851120175507049
 51
179.0049626412663031
  0
LINE
  5
28A7D
  8
0
 10
3239.6043467278827848
 20
141.0663569053859874
 30
0.0
 11
3240.0993263575828678
 21
141.0663569053859874
 31
0.0
  0
LINE
  5
28A7E
  8
0
 10
3240.0993365427830213
 20
141.0663569053859874
 30
0.0
 11
3240.1013884730828067
 21
140.9488018936860954
 31
0.0
  0
ARC
  5
28A7F
  8
0
 10
3240.1998081185961382
 20
140.9505198149369107
 30
0.0
 40
0.0984346375845765
 50
180.9999999698596014
 51
184.8763902378674118
  0
ARC
  5
28A80
  8
0
 10
3240.1273220363341352
 20
140.9443356532476912
 30
0.0
 40
0.0256852322425298
 50
184.8763902378674118
 51
224.7576357085652887
  0
ARC
  5
28A81
  8
0
 10
3240.1715459303859461
 20
140.9881869820519
 30
0.0
 40
0.0879643767695485
 50
224.7576357085652887
 51
230.7301382629445925
  0
LINE
  5
28A82
  8
0
 10
3239.6018365426421042
 20
141.0843569053859881
 30
0.0
 11
3240.101836542924957
 21
141.0843569053859881
 31
0.0
  0
LINE
  5
28A83
  8
0
 10
3239.6118365427828394
 20
141.0663569053859874
 30
0.0
 11
3239.6118365427828394
 21
141.0843569053859881
 31
0.0
  0
ARC
  5
28A84
  8
0
 10
3239.6807635039481283
 20
141.5249779734160995
 30
0.0
 40
0.4476342154182286
 50
246.0434984386338897
 51
259.8445043560691943
  0
ARC
  5
28A85
  8
0
 10
3239.5881198617080372
 20
141.3164710718889978
 30
0.0
 40
0.2194720528411051
 50
211.4237301318653124
 51
246.0434984386338897
  0
ARC
  5
28A86
  8
0
 10
3239.5801553807150412
 20
141.2979017762592946
 30
0.0
 40
0.2033308574754647
 50
184.1213532758335134
 51
208.1268633541720874
  0
ARC
  5
28A87
  8
0
 10
3239.3426145640860341
 20
141.2827886739696908
 30
0.0
 40
0.0347393557129886
 50
0.8244864981194556
 51
39.0982911212966968
  0
ARC
  5
28A88
  8
0
 10
3239.3452827565060943
 20
141.2799765924208089
 30
0.0
 40
0.034658299378062
 50
45.5011818505631922
 51
79.4450939764819282
  0
LINE
  5
28A89
  8
0
 10
3239.351631383583026
 20
141.3140484671860122
 30
0.0
 11
3239.323993443882955
 21
141.3215343926860896
 31
0.0
  0
ARC
  5
28A8A
  8
0
 10
3239.3318347198810443
 20
141.350484281805393
 30
0.0
 40
0.0299930273445198
 50
212.3275200745906943
 51
254.8446762202997888
  0
ARC
  5
28A8B
  8
0
 10
3239.331651257023168
 20
141.3504067561906083
 30
0.0
 40
0.0297965606658076
 50
179.8379836221720041
 51
212.3902041827604137
  0
LINE
  5
28A8C
  8
0
 10
3239.301854815482784
 20
141.3504910123861009
 30
0.0
 11
3239.301854815482784
 21
141.5020568525339115
 31
0.0
  0
ARC
  5
28A8D
  8
0
 10
3239.3307852571751937
 20
141.5022119731060002
 30
0.0
 40
0.0289308575548237
 50
166.0970943853907045
 51
180.3072082003841103
  0
ARC
  5
28A8E
  8
0
 10
3239.3319452439609449
 20
141.5020040306883971
 30
0.0
 40
0.0301069236781385
 50
144.373898849856289
 51
166.2433799625254096
  0
ARC
  5
28A8F
  8
0
 10
3239.331910396334024
 20
141.5020290031582988
 30
0.0
 40
0.0300640519933475
 50
123.6260673256603013
 51
144.373898849856289
  0
ARC
  5
28A90
  8
0
 10
3239.2986320452291693
 20
141.5520675428988113
 30
0.0
 40
0.0300300751046673
 50
303.6260673256603013
 51
57.308251963342471
  0
LINE
  5
28A91
  8
0
 10
3240.3520417019840352
 20
141.3140484671860122
 30
0.0
 11
3239.351631383583026
 21
141.3140484671860122
 31
0.0
  0
ARC
  5
28A92
  8
0
 10
3239.3335521083649837
 20
141.3625638119389123
 30
0.0
 40
0.0317007950475139
 50
180.8516770270736913
 51
206.9316526832081991
  0
ARC
  5
28A93
  8
0
 10
3239.3317880891318055
 20
141.3622556522554135
 30
0.0
 40
0.029993096014565
 50
207.9331463847275927
 51
256.1148831393451246
  0
ARC
  5
28A94
  8
0
 10
3239.4790173362048336
 20
142.3549409074051937
 30
0.0
 40
1.0334054468844729
 50
261.4058188634044768
 51
278.543957833690115
  0
ARC
  5
28A95
  8
0
 10
3239.8507505100969865
 20
143.4029935942203906
 30
0.0
 40
2.0814583782408018
 50
263.9825514548085152
 51
276.0527814510556937
  0
ARC
  5
28A96
  8
0
 10
3240.2246557751668661
 20
142.3549411021066078
 30
0.0
 40
1.0334056412818819
 50
261.4058267241666158
 51
278.5941794954034094
  0
ARC
  5
28A97
  8
0
 10
3240.371880739126027
 20
141.3622729800520972
 30
0.0
 40
0.0300109471449207
 50
283.8851150020275895
 51
326.1492939352859821
  0
ARC
  5
28A98
  8
0
 10
3240.3722343082458792
 20
141.36205220202649
 30
0.0
 40
0.029594333839976
 50
326.1229743643294796
 51
0.0839971260848138
  0
ARC
  5
28A99
  8
0
 10
3239.3313146187829261
 20
141.4866299554796001
 30
0.0
 40
0.0294598223206651
 50
140.5992042342394939
 51
180.0651086758647921
  0
ARC
  5
28A9A
  8
0
 10
3239.3317003893698711
 20
141.4863486561351067
 30
0.0
 40
0.0299364817283352
 50
108.0440445503356983
 51
140.6518320917053018
  0
ARC
  5
28A9B
  8
0
 10
3239.4774884767589356
 20
140.5395211806267923
 30
0.0
 40
0.9875412166329267
 50
80.9662505199550537
 51
99.033799917640394
  0
ARC
  5
28A9C
  8
0
 10
3239.851836560177162
 20
139.5581021343002988
 30
0.0
 40
1.968960262959369
 50
83.6317828256997871
 51
96.3944420470944578
  0
ARC
  5
28A9D
  8
0
 10
3240.2254194217280201
 20
140.5294732599350027
 30
0.0
 40
0.9975849774832388
 50
81.013409640910595
 51
98.9496295337637122
  0
ARC
  5
28A9E
  8
0
 10
3240.3719734809269539
 20
141.4863509496842937
 30
0.0
 40
0.0299340519707847
 50
33.8351769038936894
 51
71.9559688084516438
  0
ARC
  5
28A9F
  8
0
 10
3240.3724052748470967
 20
141.48662400777269
 30
0.0
 40
0.0294233483205689
 50
359.946379964753703
 51
33.8616826053411799
  0
LINE
  5
28AA0
  8
0
 10
3239.6325484709841476
 20
141.5148129588860115
 30
0.0
 11
3239.6325484709841476
 21
141.333004016837009
 31
0.0
  0
LINE
  5
28AA1
  8
0
 10
3240.0702290195831665
 20
141.3331389702860861
 30
0.0
 11
3240.0702290195831665
 21
141.5149131243520912
 31
0.0
  0
LINE
  5
28AA2
  8
0
 10
3240.0918365427828576
 20
141.0843569053859881
 30
0.0
 11
3240.0918365427828576
 21
141.0663569053859874
 31
0.0
  0
ARC
  5
28AA3
  8
0
 10
3240.0646718049629271
 20
141.3949363320957104
 30
0.0
 40
0.3127951374822929
 50
276.823714773211691
 51
309.9407997758992224
  0
ARC
  5
28AA4
  8
0
 10
3240.1389614183399317
 20
141.2936934230399117
 30
0.0
 40
0.1876500321637333
 50
312.3961439924705132
 51
356.8214188172984223
  0
ARC
  5
28AA5
  8
0
 10
3240.3559199307551353
 20
141.2846738075826067
 30
0.0
 40
0.0296295677529366
 50
97.5210535988758096
 51
182.6796881283090102
  0
LINE
  5
28AA6
  8
0
 10
3240.3520417019840352
 20
141.3140484671860122
 30
0.0
 11
3240.3796796417841506
 21
141.3215343926860896
 31
0.0
  0
ARC
  5
28AA7
  8
0
 10
3240.371836988053019
 20
141.3504893684842898
 30
0.0
 40
0.0299982973019707
 50
285.1553237273857917
 51
347.6024124530076733
  0
ARC
  5
28AA8
  8
0
 10
3240.3462059643788962
 20
141.3532148949580005
 30
0.0
 40
0.0556893012486683
 50
350.5264938308877163
 51
357.1964225106848971
  0
LINE
  5
28AA9
  8
0
 10
3240.4018286102827915
 20
141.3504910123861009
 30
0.0
 11
3240.4018286102841557
 21
141.5020568544813955
 31
0.0
  0
ARC
  5
28AAA
  8
0
 10
3240.3731837078971694
 20
141.5024110171337952
 30
0.0
 40
0.0286470917183741
 50
359.29163691763938
 51
28.8794014666221983
  0
ARC
  5
28AAB
  8
0
 10
3240.3711780785470182
 20
141.5014575861146966
 30
0.0
 40
0.030864063721255
 50
28.6310278202821991
 51
56.0576882153588016
  0
ARC
  5
28AAC
  8
0
 10
3240.4053632733939594
 20
141.5522494588869904
 30
0.0
 40
0.0303604565827831
 50
175.3499050170599105
 51
236.0576882153578993
  0
ARC
  5
28AAD
  8
0
 10
3240.4045820948331311
 20
141.5523129984935906
 30
0.0
 40
0.0295766981848763
 50
122.200338043376604
 51
175.3499050170582905
  0
ARC
  5
28AAE
  8
0
 10
3240.2560366107159098
 20
141.7636424809437017
 30
0.0
 40
0.2287797636473261
 50
305.4789400228048066
 51
342.599911146504212
  0
ARC
  5
28AAF
  8
0
 10
3239.3278772151370504
 20
141.4923380979431897
 30
0.0
 40
0.0859945880052555
 50
89.9142259551810668
 51
98.7119600887525337
  0
ARC
  5
28AB0
  8
0
 10
3239.4518122822091755
 20
224.279048084692306
 30
0.0
 40
82.7008081666062083
 50
269.9142259551809957
 51
270.0817175588442183
  0
ARC
  5
28AB1
  8
0
 10
3239.773285058015972
 20
-1.1195205097629071
 30
0.0
 40
142.697989676627401
 50
89.9183085987349955
 51
90.0817175588442041
  0
ARC
  5
28AB2
  8
0
 10
3240.1736709044348572
 20
279.6983290250345249
 30
0.0
 40
138.1201452900697006
 50
269.9183085987349955
 51
270.0837918798757755
  0
ARC
  5
28AB3
  8
0
 10
3240.3757901972257969
 20
141.4919276934612924
 30
0.0
 40
0.0864038356224871
 50
81.3235992829588241
 51
90.0837918798758466
  0
LINE
  5
28AB4
  8
0
 10
3239.3152555046881389
 20
141.5270623972596979
 30
0.0
 11
3240.3884176156661852
 21
141.5270623972596979
 31
0.0
  0
ARC
  5
28AB5
  8
0
 10
3239.8206507164650247
 20
140.3556204527922944
 30
0.0
 40
0.2803715016930223
 50
242.0480902577425013
 51
256.2827422994532753
  0
ARC
  5
28AB6
  8
0
 10
3239.8098812695661763
 20
140.3353249922978989
 30
0.0
 40
0.2573957165445411
 50
233.6105370814165099
 51
242.0480902577425013
  0
ARC
  5
28AB7
  8
0
 10
3239.691370725221077
 20
140.1745192932399107
 30
0.0
 40
0.057637808139567
 50
216.4226557687549928
 51
233.6105370814165099
  0
ARC
  5
28AB8
  8
0
 10
3239.6548437038909469
 20
140.1475669497702086
 30
0.0
 40
0.0122434020324615
 50
198.3782484285187024
 51
216.4226557687549928
  0
ARC
  5
28AB9
  8
0
 10
3239.6476277609699537
 20
140.145169567248189
 30
0.0
 40
0.0046396348612924
 50
168.9028340910226973
 51
198.3782484285547127
  0
ARC
  5
28ABA
  8
0
 10
3239.6451834876470457
 20
140.1454202717976045
 30
0.0
 40
0.0022042663110476
 50
118.9014771395505932
 51
163.058788970333211
  0
ARC
  5
28ABB
  8
0
 10
3239.6464839166510501
 20
140.1425647903006961
 30
0.0
 40
0.0053380776800644
 50
87.4323288714957698
 51
116.3073442886753952
  0
LINE
  5
28ABC
  8
0
 10
3239.6467230588827988
 20
140.1478975085861123
 30
0.0
 11
3239.6783315219818178
 21
140.1478975084071124
 31
0.0
  0
ARC
  5
28ABD
  8
0
 10
3239.6782200761958848
 20
140.1244560042806029
 30
0.0
 40
0.0234417690432404
 50
76.2051560413339502
 51
89.7276060000825879
  0
ARC
  5
28ABE
  8
0
 10
3239.6593640146429607
 20
140.0510594674784102
 30
0.0
 40
0.099220705793535
 50
64.4141551478866745
 51
75.7367995000398935
  0
ARC
  5
28ABF
  8
0
 10
3239.5022198384858712
 20
139.7285529352595859
 30
0.0
 40
0.4579733346480606
 50
58.1084862166517411
 51
64.1069049806510236
  0
ARC
  5
28AC0
  8
0
 10
3239.8987120540891738
 20
140.3722174691860971
 30
0.0
 40
0.2980213907564706
 50
238.7649284547117077
 51
249.1638958529665899
  0
ARC
  5
28AC1
  8
0
 10
3239.8960337336648081
 20
140.3724048369593049
 30
0.0
 40
0.2972549456260234
 50
249.6592317169584874
 51
261.44674933069399
  0
ARC
  5
28AC2
  8
0
 10
3239.8882094837258592
 20
140.3389339479425928
 30
0.0
 40
0.2630071017456266
 50
262.047838446870287
 51
267.6379703510173726
  0
ARC
  5
28AC3
  8
0
 10
3239.8872735790810111
 20
140.3562159885375991
 30
0.0
 40
0.2802407288993054
 50
267.9747789955317785
 51
285.9568333917230802
  0
ARC
  5
28AC4
  8
0
 10
3239.8518365427830759
 20
140.518356905386014
 30
0.0
 40
0.4459999999999681
 50
284.6074262848372882
 51
303.3555770021322928
  0
ARC
  5
28AC5
  8
0
 10
3239.8518365524091678
 20
140.5183568913539034
 30
0.0
 40
0.4459999829866676
 50
303.355576960395581
 51
307.731285483223985
  0
ARC
  5
28AC6
  8
0
 10
3240.1155887320169313
 20
140.1774818820844928
 30
0.0
 40
0.0150000015755499
 50
307.7415797953249239
 51
357.9999984981270131
  0
LINE
  5
28AC7
  8
0
 10
3240.1305795959838179
 20
140.1769583891860123
 30
0.0
 11
3240.132445139884112
 21
140.2306040853860907
 31
0.0
  0
ARC
  5
28AC8
  8
0
 10
3240.1750430615620644
 20
140.227528380173311
 30
0.0
 40
0.042708815177118
 50
144.1083300519383101
 51
175.8702294050144985
  0
ARC
  5
28AC9
  8
0
 10
3239.9849574958248013
 20
140.4065262529551887
 30
0.0
 40
0.218813772802751
 50
315.2826149878069941
 51
316.4968684146303985
  0
ARC
  5
28ACA
  8
0
 10
3239.3323825406318974
 20
140.2224162222372001
 30
0.0
 40
0.2389962965568335
 50
1.963301636585894
 51
3.1872490889306362
  0
ARC
  5
28ACB
  8
0
 10
3239.5423610861730594
 20
140.2326907010576917
 30
0.0
 40
0.0288061272217847
 50
6.0049779672926098
 51
39.9749700386439173
  0
ARC
  5
28ACC
  8
0
 10
3239.5227792603031958
 20
140.2162741703434108
 30
0.0
 40
0.0543590210910506
 50
39.9749700386439173
 51
47.9065111685640304
  0
LINE
  5
28ACD
  8
0
 10
3239.5789063413749318
 20
140.1656174758360862
 30
0.0
 11
3240.1247667441912199
 21
140.1656174758360862
 31
0.0
  0
LINE
  5
28ACE
  8
0
 10
3239.5712385404840461
 20
140.2306040853860907
 30
0.0
 11
3240.132445139884112
 21
140.2306040853860907
 31
0.0
  0
CIRCLE
  5
28ACF
  8
0
 10
3239.851841840184079
 20
140.5763576928860914
 30
0.0
 40
0.2662558630011651
  0
LINE
  5
28AD0
  8
0
 10
3239.6022772433611863
 20
140.9488018936860954
 30
0.0
 11
3240.1013933865701802
 21
140.9488018936860954
 31
0.0
  0
ARC
  5
28AD1
  8
0
 10
3239.4474779773231603
 20
141.7635760017251982
 30
0.0
 40
0.2286336461845011
 50
197.3941054776427961
 51
234.5437353382083074
  0
ARC
  5
28AD2
  8
0
 10
3236.3067529362501773
 20
142.0265802037710046
 30
0.0
 40
2.8750843112579458
 50
0.1558187056244428
 51
8.1788416589536652
  0
ARC
  5
28AD3
  8
0
 10
3244.218307933232154
 20
141.9765298826891069
 30
0.0
 40
3.694383527071937
 50
173.0664843404815088
 51
178.6851375324719129
  0
ARC
  5
28AD4
  8
0
 10
3237.8485716158670584
 20
142.2559139194694069
 30
0.0
 40
1.316344196186304
 50
7.8455695198761459
 51
29.5013085621721203
  0
ARC
  5
28AD5
  8
0
 10
3238.6227488021700083
 20
142.6897559330971035
 30
0.0
 40
0.4289162274150172
 50
29.9884218863821594
 51
61.8709944753184828
  0
ARC
  5
28AD6
  8
0
 10
3238.8382052928168378
 20
143.0949160409381875
 30
0.0
 40
0.0299854374955291
 50
179.9828049906263061
 51
243.7966133014309094
  0
LINE
  5
28AD7
  8
0
 10
3238.8082198566721672
 20
143.0949250398535924
 30
0.0
 11
3238.8082198566721672
 21
143.1499665500535912
 31
0.0
  0
ARC
  5
28AD8
  8
0
 10
3238.7765864610960307
 20
143.1486720704394884
 30
0.0
 40
0.0316598703915515
 50
2.3433102649941291
 51
73.8770122859117748
  0
ARC
  5
28AD9
  8
0
 10
3238.8184059757791147
 20
143.2904890954071107
 30
0.0
 40
0.1271849126012854
 50
112.6764538744069029
 51
177.3721017828615913
  0
ARC
  5
28ADA
  8
0
 10
3238.8241657042381121
 20
143.3065159914754929
 30
0.0
 40
0.133201656516948
 50
184.3898371726573089
 51
253.0706505611906891
  0
ARC
  5
28ADB
  8
0
 10
3238.7597792355759339
 20
143.4342650897754936
 30
0.0
 40
0.0281106029424126
 50
289.954770109366109
 51
3.3487093100591339
  0
LINE
  5
28ADC
  8
0
 10
3238.7878418401837735
 20
143.4359071069538061
 30
0.0
 11
3238.7878418401837735
 21
143.5233576928860941
 31
0.0
  0
LINE
  5
28ADD
  8
0
 10
3240.9657468656459969
 20
143.5233629627084895
 30
0.0
 11
3238.7379363682248368
 21
143.5233632578591028
 31
0.0
  0
ARC
  5
28ADE
  8
0
 10
3241.9048750953279523
 20
142.2598824525946952
 30
0.0
 40
1.3636649156053331
 50
155.560357200580313
 51
173.1508719511737979
  0
ARC
  5
28ADF
  8
0
 10
3241.1206416457011983
 20
142.6374678887152925
 30
0.0
 40
0.4938573741065723
 50
119.3316545259619943
 51
157.7987178213745949
  0
ARC
  5
28AE0
  8
0
 10
3240.8608894746730584
 20
143.0977708469685012
 30
0.0
 40
0.034690903949066
 50
300.9268087487208732
 51
355.2945541812584906
  0
LINE
  5
28AE1
  8
0
 10
3240.8954634562010142
 20
143.0949250398535924
 30
0.0
 11
3240.8954634562010142
 21
143.1499665500535912
 31
0.0
  0
ARC
  5
28AE2
  8
0
 10
3240.9359965432490753
 20
143.1416911171259869
 30
0.0
 40
0.0413692390034353
 50
115.3182569324055038
 51
168.4608003108353955
  0
ARC
  5
28AE3
  8
0
 10
3240.8878981376979027
 20
143.2997856563846142
 30
0.0
 40
0.1244701875144097
 50
284.139972389766001
 51
358.5525838638807272
  0
ARC
  5
28AE4
  8
0
 10
3240.8783703689509821
 20
143.2856340195793052
 30
0.0
 40
0.134409736666298
 50
4.6975406148919392
 51
65.4031568024053911
  0
ARC
  5
28AE5
  8
0
 10
3240.9440170009011126
 20
143.4343456834423023
 30
0.0
 40
0.0282183933754033
 50
176.8280019297091883
 51
249.8921095845471996
  0
LINE
  5
28AE6
  8
0
 10
3240.8787186110012044
 20
143.0680121387536019
 30
0.0
 11
3238.8249649563781531
 21
143.0680121387536019
 31
0.0
  0
LINE
  5
28AE7
  8
0
 10
3240.9183174588301881
 20
143.1790897367536104
 30
0.0
 11
3238.7853784104718216
 21
143.1790866889535891
 31
0.0
  0
LINE
  5
28AE8
  8
0
 10
3240.9343293384140452
 20
143.4078421821535869
 30
0.0
 11
3238.7693727724931705
 21
143.4078421821535869
 31
0.0
  0
ARC
  5
28AE9
  8
0
 10
3240.4660769663560131
 20
142.0412440071019944
 30
0.0
 40
1.2842685918365579
 50
180.3053757897974947
 51
195.6301595523738968
  0
ARC
  5
28AEA
  8
0
 10
3239.1045607607529746
 20
142.0709034392004924
 30
0.0
 40
1.4203688523858811
 50
344.6632480164457206
 51
359.6127549610998813
  0
ARC
  5
28AEB
  8
0
 10
3238.7379430589408003
 20
143.5833645289754088
 30
0.0
 40
0.0600012714893691
 50
207.4062083366974889
 51
270.0110005868152143
  0
ARC
  5
28AEC
  8
0
 10
3238.6328854922790015
 20
143.5171217102347043
 30
0.0
 40
0.0646073265976729
 50
36.7149463009868384
 51
90.2920745257035833
  0
ARC
  5
28AED
  8
0
 10
3234.062234613984856
 20
-4.1925080812004856
 30
0.0
 40
147.8448942190366893
 50
88.2285363302350731
 51
88.4566395438605468
  0
LINE
  5
28AEE
  8
0
 10
3238.632556147383184
 20
143.5817281973860986
 30
0.0
 11
3241.0711275399839906
 21
143.5817283010860876
 31
0.0
  0
ARC
  5
28AEF
  8
0
 10
3245.1493269049360606
 20
12.8143305422994906
 30
0.0
 40
130.8309750275714123
 50
91.5285185127534078
 51
91.7862854612075978
  0
LINE
  5
28AF0
  8
0
 10
3241.7168415855840067
 20
143.6586944573861047
 30
0.0
 11
3241.7168415855840067
 21
143.6871929200860905
 31
0.0
  0
ARC
  5
28AF1
  8
0
 10
3241.7795236968968311
 20
143.6850434377884937
 30
0.0
 40
0.0627189552921513
 50
104.5471168665519031
 51
178.0359943057954126
  0
ARC
  5
28AF2
  8
0
 10
3241.7257106691831723
 20
144.1204401927853098
 30
0.0
 40
0.3766164961392664
 50
275.8000089367865826
 51
357.0956793475809263
  0
ARC
  5
28AF3
  8
0
 10
3237.9691276959028983
 20
144.1164779586923999
 30
0.0
 40
0.3675987853026044
 50
182.3573850738835915
 51
239.5731090622342094
  0
ARC
  5
28AF4
  8
0
 10
3238.0695239802557808
 20
144.380197079658501
 30
0.0
 40
0.6475490754579502
 50
243.7343290319898017
 51
258.4539487708664183
  0
ARC
  5
28AF5
  8
0
 10
3237.9281675854190325
 20
143.6882553573553025
 30
0.0
 40
0.0586838729559236
 50
358.9626366777006865
 51
78.4539487708664325
  0
LINE
  5
28AF6
  8
0
 10
3237.9868418401829331
 20
143.6871929200860905
 30
0.0
 11
3237.9868418401829331
 21
143.6586944573861047
 31
0.0
  0
ARC
  5
28AF7
  8
0
 10
3238.0528008838100504
 20
143.6643975806042022
 30
0.0
 40
0.0662051436864292
 50
184.9417667944661048
 51
262.543982456789081
  0
LINE
  5
28AF8
  8
0
 10
3237.9399134841728483
 20
143.7457517120861041
 30
0.0
 11
3241.7637701961939456
 21
143.7457517120861041
 31
0.0
  0
LINE
  5
28AF9
  8
0
 10
3237.6018400095890684
 20
144.1013576928860971
 30
0.0
 11
3242.1018434161778714
 21
144.1013576928860971
 31
0.0
  0
ARC
  5
28AFA
  8
0
 10
3241.6608163559299101
 20
143.6549451674856925
 30
0.0
 40
0.0561505434737918
 50
268.6950867113105232
 51
3.828608305729019
  0
LINE
  5
28AFB
  8
0
 10
3240.9158418401830204
 20
143.4359071068859919
 30
0.0
 11
3240.9158420637340896
 21
143.5233576904732899
 31
0.0
  0
ARC
  5
28AFC
  8
0
 10
3240.9657406456831268
 20
143.5833641873861097
 30
0.0
 40
0.0600012250000018
 50
269.9889859633054243
 51
332.5944192224068274
  0
ARC
  5
28AFD
  8
0
 10
3241.0690410488818998
 20
143.5205728095409086
 30
0.0
 40
0.0611595795461022
 50
89.3375296957236884
 51
144.8924892133491085
  0
ENDSEC
  0
EOF
