  0
SECTION
  2
HEADER
  9
$ACADVER
  1
AC1009
  9
$INSBASE
 10
3240.1667466233338928
 20
144.1773711959330058
 30
0.0
  9
$EXTMIN
 10
3236.1402323520960636
 20
140.8755674057015028
 30
0.0
  9
$EXTMAX
 10
3240.1774949319128609
 20
146.4246620310300955
 30
0.0
  9
$LIMMIN
 10
0.0
 20
0.0
  9
$LIMMAX
 10
11.6929133858000007
 20
8.2677165353999982
  9
$ORTHOMODE
 70
     0
  9
$REGENMODE
 70
     1
  9
$FILLMODE
 70
     1
  9
$QTEXTMODE
 70
     0
  9
$MIRRTEXT
 70
     0
  9
$DRAGMODE
 70
     2
  9
$LTSCALE
 40
0.6431102362
  9
$OSMODE
 70
  4095
  9
$ATTMODE
 70
     1
  9
$TEXTSIZE
 40
0.2
  9
$TRACEWID
 40
0.05
  9
$TEXTSTYLE
  7
STANDARD
  9
$CLAYER
  8
0
  9
$CELTYPE
  6
BYLAYER
  9
$CECOLOR
 62
   256
  9
$DIMSCALE
 40
1.0
  9
$DIMASZ
 40
0.1875
  9
$DIMEXO
 40
0.0625
  9
$DIMDLI
 40
0.4443307087
  9
$DIMRND
 40
0.0
  9
$DIMDLE
 40
0.0
  9
$DIMEXE
 40
0.125
  9
$DIMTP
 40
0.01
  9
$DIMTM
 40
0.01
  9
$DIMTXT
 40
2.0
  9
$DIMCEN
 40
0.1052362205
  9
$DIMTSZ
 40
0.0
  9
$DIMTOL
 70
     1
  9
$DIMLIM
 70
     0
  9
$DIMTIH
 70
     1
  9
$DIMTOH
 70
     1
  9
$DIMSE1
 70
     0
  9
$DIMSE2
 70
     0
  9
$DIMTAD
 70
     0
  9
$DIMZIN
 70
     0
  9
$DIMBLK
  1

  9
$DIMASO
 70
     1
  9
$DIMSHO
 70
     1
  9
$DIMPOST
  1
\X
  9
$DIMAPOST
  1

  9
$DIMALT
 70
     1
  9
$DIMALTD
 70
     2
  9
$DIMALTF
 40
25.3999999999999986
  9
$DIMLFAC
 40
1.0
  9
$DIMTOFL
 70
     0
  9
$DIMTVP
 40
0.0
  9
$DIMTIX
 70
     0
  9
$DIMSOXD
 70
     0
  9
$DIMSAH
 70
     0
  9
$DIMBLK1
  1

  9
$DIMBLK2
  1

  9
$DIMSTYLE
  2
STANDARD
  9
$DIMCLRD
 70
     0
  9
$DIMCLRE
 70
     0
  9
$DIMCLRT
 70
     0
  9
$DIMTFAC
 40
1.0
  9
$DIMGAP
 40
0.09
  9
$LUNITS
 70
     2
  9
$LUPREC
 70
     4
  9
$SKETCHINC
 40
0.1
  9
$FILLETRAD
 40
0.0
  9
$AUNITS
 70
     0
  9
$AUPREC
 70
     0
  9
$MENU
  1
.
  9
$ELEVATION
 40
0.0
  9
$PELEVATION
 40
0.0
  9
$THICKNESS
 40
0.0
  9
$LIMCHECK
 70
     0
  9
$BLIPMODE
 70
     0
  9
$CHAMFERA
 40
0.0
  9
$CHAMFERB
 40
0.0
  9
$SKPOLY
 70
     0
  9
$TDCREATE
 40
2458060.468368056230247
  9
$TDUPDATE
 40
2459780.6556481481529772
  9
$TDINDWG
 40
0.6612802083
  9
$TDUSRTIMER
 40
0.6612802083
  9
$USRTIMER
 70
     1
  9
$ANGBASE
 50
0.0
  9
$ANGDIR
 70
     0
  9
$PDMODE
 70
     0
  9
$PDSIZE
 40
0.3125
  9
$PLINEWID
 40
0.0
  9
$COORDS
 70
     1
  9
$SPLFRAME
 70
     0
  9
$SPLINETYPE
 70
     6
  9
$SPLINESEGS
 70
     8
  9
$ATTDIA
 70
     1
  9
$ATTREQ
 70
     1
  9
$HANDLING
 70
     1
  9
$HANDSEED
  5
28C50
  9
$SURFTAB1
 70
     6
  9
$SURFTAB2
 70
     6
  9
$SURFTYPE
 70
     6
  9
$SURFU
 70
     6
  9
$SURFV
 70
     6
  9
$UCSNAME
  2

  9
$UCSORG
 10
0.0
 20
0.0
 30
0.0
  9
$UCSXDIR
 10
1.0
 20
0.0
 30
0.0
  9
$UCSYDIR
 10
0.0
 20
1.0
 30
0.0
  9
$PUCSNAME
  2

  9
$PUCSORG
 10
0.0
 20
0.0
 30
0.0
  9
$PUCSXDIR
 10
1.0
 20
0.0
 30
0.0
  9
$PUCSYDIR
 10
0.0
 20
1.0
 30
0.0
  9
$USERI1
 70
     0
  9
$USERI2
 70
     0
  9
$USERI3
 70
     0
  9
$USERI4
 70
     0
  9
$USERI5
 70
     0
  9
$USERR1
 40
0.0
  9
$USERR2
 40
0.0
  9
$USERR3
 40
0.0
  9
$USERR4
 40
0.0
  9
$USERR5
 40
0.0
  9
$WORLDVIEW
 70
     1
  9
$SHADEDGE
 70
     3
  9
$SHADEDIF
 70
    70
  9
$TILEMODE
 70
     1
  9
$MAXACTVP
 70
    64
  9
$PLIMCHECK
 70
     0
  9
$PEXTMIN
 10
1.0000000000000000E+20
 20
1.0000000000000000E+20
 30
1.0000000000000000E+20
  9
$PEXTMAX
 10
-1.0000000000000000E+20
 20
-1.0000000000000000E+20
 30
-1.0000000000000000E+20
  9
$PLIMMIN
 10
0.0
 20
0.0
  9
$PLIMMAX
 10
12.0
 20
9.0
  9
$UNITMODE
 70
     0
  9
$VISRETAIN
 70
     1
  9
$PLINEGEN
 70
     0
  9
$PSLTSCALE
 70
     1
  0
ENDSEC
  0
SECTION
  2
TABLES
  0
TABLE
  2
VPORT
 70
     1
  0
VPORT
  2
*ACTIVE
 70
     0
 10
0.0
 20
0.0
 11
1.0
 21
1.0
 12
0.0
 22
0.0
 13
0.0
 23
0.0
 14
1.0
 24
1.0
 15
0.0
 25
0.0
 16
0.0
 26
0.0
 36
19.5090302964392599
 17
3238.1588158254890004
 27
143.6501159667969034
 37
0.0
 40
6.8624196201120107
 41
2.127494456762749
 42
50.0
 43
0.0
 44
0.0
 50
0.0
 51
0.0
 71
     0
 72
   100
 73
     1
 74
     1
 75
     0
 76
     0
 77
     0
 78
     0
  0
ENDTAB
  0
TABLE
  2
LTYPE
 70
     2
  0
LTYPE
  2
CONTINUOUS
 70
     0
  3
Solid line
 72
    65
 73
     0
 40
0.0
  0
LTYPE
  2
PHANTOM2
 70
     0
  3
___ _ _ ___ _ _ ___ _ _ ___ _ _
 72
    65
 73
     6
 40
1.25
 49
0.625
 49
-0.125
 49
0.125
 49
-0.125
 49
0.125
 49
-0.125
  0
ENDTAB
  0
TABLE
  2
LAYER
 70
     2
  0
LAYER
  2
0
 70
     0
 62
   255
  6
CONTINUOUS
  0
LAYER
  2
DEFPOINTS
 70
     0
 62
     7
  6
CONTINUOUS
  0
ENDTAB
  0
TABLE
  2
STYLE
 70
     1
  0
STYLE
  2
STANDARD
 70
     0
 40
0.0
 41
0.8
 50
0.0
 71
     0
 42
0.2
  3
txt
  4

  0
ENDTAB
  0
TABLE
  2
VIEW
 70
     0
  0
ENDTAB
  0
TABLE
  2
UCS
 70
     0
  0
ENDTAB
  0
TABLE
  2
APPID
 70
     9
  0
APPID
  2
ACAD
 70
     0
  0
APPID
  2
ACAD_MLEADERVER
 70
     0
  0
APPID
  2
ACAD_EXEMPT_FROM_CAD_STANDARDS
 70
     0
  0
APPID
  2
ACAD_NAV_VCDISPLAY
 70
     0
  0
APPID
  2
ACAECLAYERSTANDARD
 70
     0
  0
APPID
  2
ACCMTRANSPARENCY
 70
     0
  0
APPID
  2
ACAD_DSTYLE_DIMJAG
 70
     0
  0
APPID
  2
ACAD_DSTYLE_DIMTALN
 70
     0
  0
APPID
  2
ACDBATTR
 70
     0
  0
ENDTAB
  0
TABLE
  2
DIMSTYLE
 70
     1
  0
DIMSTYLE
  2
STANDARD
 70
     0
  3

  4

  5

  6

  7

 40
1.0
 41
0.1875
 42
0.0625
 43
0.38
 44
0.125
 45
0.0
 46
0.0
 47
0.01
 48
0.01
140
0.15625
141
0.09
142
0.0
143
25.3999999999999986
144
1.0
145
0.0
146
1.0
147
0.09
 71
     1
 72
     0
 73
     1
 74
     1
 75
     0
 76
     0
 77
     0
 78
     4
170
     0
171
     2
172
     0
173
     0
174
     0
175
     0
176
     0
177
     0
178
     0
  0
ENDTAB
  0
ENDSEC
  0
SECTION
  2
BLOCKS
  0
BLOCK
  8
0
  2
$MODEL_SPACE
 70
     0
 10
0.0
 20
0.0
 30
0.0
  3
$MODEL_SPACE
  1

  0
ENDBLK
  5
21
  8
0
  0
BLOCK
 67
     1
  8
0
  2
$PAPER_SPACE
 70
     0
 10
0.0
 20
0.0
 30
0.0
  3
$PAPER_SPACE
  1

  0
ENDBLK
  5
1D
 67
     1
  8
0
  0
ENDSEC
  0
SECTION
  2
ENTITIES
  0
ATTDEF
  5
28604
  8
DEFPOINTS
 10
3240.1668282652449307
 20
144.180725575944706
 30
0.0
 40
0.001
  1
K-C72771-9M
  3

  2
MODELNUMBER
 70
     0
1001
ACDBATTR
1070
     0
1070
     1
  0
ATTDEF
  5
28605
  8
DEFPOINTS
 10
3240.1668282652449307
 20
144.1790589092780124
 30
0.0
 40
0.001
  1
ARTIFACTS
  3

  2
TRADENAME
 70
     0
1001
ACDBATTR
1070
     0
1070
     1
  0
ATTDEF
  5
28606
  8
DEFPOINTS
 10
3240.1668282652449307
 20
144.1773922426112904
 30
0.0
 40
0.001
  1
VALVE TRIM
  3

  2
PRODUCT
 70
     0
1001
ACDBATTR
1070
     0
1070
     1
  0
ARC
  5
28AC5
  8
0
 10
3236.6410557985600462
 20
144.916400332578803
 30
0.0
 40
0.1071821592808527
 50
90.1597528409280784
 51
109.9212516770561052
  0
ARC
  5
28AC6
  8
0
 10
3236.6798649008610482
 20
144.8266456737227088
 30
0.0
 40
0.2048745338716521
 50
111.5728567298416039
 51
131.6189179263843982
  0
ARC
  5
28AC7
  8
0
 10
3235.2228151659460309
 20
146.3831659658812896
 30
0.0
 40
1.9272784606150231
 50
310.2090588877944128
 51
313.2679273941229212
  0
ARC
  5
28AC8
  8
0
 10
3236.3484226267491977
 20
145.0470689050042097
 30
0.0
 40
0.180265193365487
 50
285.2005125475070031
 51
311.1422293027843011
  0
ARC
  5
28AC9
  8
0
 10
3236.4034855070049161
 20
144.8456135564044871
 30
0.0
 40
0.0285811743939525
 50
105.8326114734958026
 51
152.631892159694587
  0
ARC
  5
28ACA
  8
0
 10
3236.4340374872240318
 20
144.8383583238951076
 30
0.0
 40
0.059536086578047
 50
159.9676179657436137
 51
179.258473253431788
  0
LINE
  5
28ACB
  8
0
 10
3236.3745063866499549
 20
144.839128823372306
 30
0.0
 11
3236.3745063866499549
 21
144.775110131835703
 31
0.0
  0
ARC
  5
28ACC
  8
0
 10
3236.4330554559010125
 20
144.7750085346943081
 30
0.0
 40
0.058549157398774
 50
179.9005777265913082
 51
195.8642488026904118
  0
ARC
  5
28ACD
  8
0
 10
3236.405667424512103
 20
144.7708353680463063
 30
0.0
 40
0.0312569996526033
 50
202.2427839257331073
 51
257.8905743563466899
  0
ARC
  5
28ACE
  8
0
 10
3236.3593881512720145
 20
144.615350608120508
 30
0.0
 40
0.1310865206446312
 50
356.8479134460756086
 51
72.360752620027796
  0
ARC
  5
28ACF
  8
0
 10
3236.4559148604639631
 20
144.603308872790393
 30
0.0
 40
0.03469981342115
 50
325.9688261027405929
 51
8.0074370699865032
  0
ARC
  5
28AD0
  8
0
 10
3236.4566960795459636
 20
144.6060042067622078
 30
0.0
 40
0.0356609815552901
 50
288.6108807365391158
 51
321.6734950052490944
  0
ARC
  5
28AD1
  8
0
 10
3236.6367210475868887
 20
144.181795810489092
 30
0.0
 40
0.4252793652328687
 50
113.3626222765241067
 51
137.8341502394605129
  0
ARC
  5
28AD2
  8
0
 10
3236.2944960937820724
 20
144.4916090604222916
 30
0.0
 40
0.0363506497452478
 50
270.8007947029232128
 51
317.9812426273870187
  0
ARC
  5
28AD3
  8
0
 10
3237.9579766134779675
 20
95.6804046066238385
 30
0.0
 40
48.8031985367409789
 50
91.9527358002414843
 51
92.0157545439812878
  0
ARC
  5
28AD4
  8
0
 10
3236.241881928363
 20
144.4384125189710915
 30
0.0
 40
0.0149999996618462
 50
91.9999997122581874
 51
142.2690742611025883
  0
ARC
  5
28AD5
  8
0
 10
3236.5804956745218988
 20
144.1757893472232013
 30
0.0
 40
0.4435209341304564
 50
142.2056610411852944
 51
171.5047384368014889
  0
ARC
  5
28AD6
  8
0
 10
3236.3186878387227807
 20
144.2174022840748933
 30
0.0
 40
0.17845548662641
 50
172.3010418639898944
 51
193.8086740240622987
  0
ARC
  5
28AD7
  8
0
 10
3236.6406856997809882
 20
144.9196619752866013
 30
0.0
 40
0.1039201243761479
 50
79.3217912828557559
 51
89.9607153469528669
  0
ARC
  5
28AD8
  8
0
 10
3236.6363475079920136
 20
144.8967141876325968
 30
0.0
 40
0.1272743695424542
 50
54.5240016797289329
 51
79.3168361971509341
  0
ARC
  5
28AD9
  8
0
 10
3236.3742035357267923
 20
144.5288760516324089
 30
0.0
 40
0.5789649234523849
 50
45.2249021590101776
 51
54.5240016797289329
  0
ARC
  5
28ADA
  8
0
 10
3237.048914170065018
 20
145.208904447596808
 30
0.0
 40
0.3789876115964288
 50
225.2249021590102132
 51
235.0425829359571139
  0
ARC
  5
28ADB
  8
0
 10
3236.9308757715471074
 20
145.0400612032300955
 30
0.0
 40
0.1729752219382634
 50
235.0425829359571139
 51
252.7534620831995937
  0
ARC
  5
28ADC
  8
0
 10
3236.7694822844919145
 20
142.0471044574399002
 30
0.0
 40
1.1785877374316509
 50
259.3677856862474869
 51
263.7296888275237166
  0
ARC
  5
28ADD
  8
0
 10
3236.6269717236859833
 20
141.2221643997505964
 30
0.0
 40
0.3417324103726442
 50
225.1057890193503965
 51
257.331795954912991
  0
ARC
  5
28ADE
  8
0
 10
3236.7699500114831608
 20
141.3572587198910071
 30
0.0
 40
0.5383815542281885
 50
198.9485036471068895
 51
224.4738575735206041
  0
ARC
  5
28ADF
  8
0
 10
3237.3916367439119313
 20
141.5706978142642072
 30
0.0
 40
1.1956871454759961
 50
174.2133689726366867
 51
198.9485036471068895
  0
ARC
  5
28AE0
  8
0
 10
3241.0191711651600599
 20
141.2030814397195968
 30
0.0
 40
4.841801210637767
 50
168.6912745449417912
 51
174.2133689726366867
  0
ARC
  5
28AE1
  8
0
 10
3223.3174737057888706
 20
144.7430331047314098
 30
0.0
 40
13.2103828880714502
 50
348.6912745449417912
 51
350.3425641154698837
  0
ARC
  5
28AE2
  8
0
 10
3234.4690800708231109
 20
142.8453794420744885
 30
0.0
 40
1.8984681985038581
 50
350.3425641154698837
 51
0.0624506832773665
  0
ARC
  5
28AE3
  8
0
 10
3235.5204816142440905
 20
142.8465254387141954
 30
0.0
 40
0.8470660305323233
 50
0.0624506832773665
 51
13.3386936301219308
  0
ARC
  5
28AE4
  8
0
 10
3235.7145219150947923
 20
142.8925330083513927
 30
0.0
 40
0.6476460344974658
 50
13.3386936301219308
 51
26.7608701820018489
  0
ARC
  5
28AE5
  8
0
 10
3235.8071337324249725
 20
142.9343777930450017
 30
0.0
 40
0.5461294029293244
 50
27.2158998321556389
 51
40.2410774522713623
  0
ARC
  5
28AE6
  8
0
 10
3236.2478757764401962
 20
143.3096959048448014
 30
0.0
 40
0.0328088389209939
 50
140.5720912314430961
 51
223.3355723378847131
  0
ARC
  5
28AE7
  8
0
 10
3236.4528047451281054
 20
143.1583404987491122
 30
0.0
 40
0.2875328555759731
 50
128.1350256873400042
 51
143.2115564669207117
  0
ARC
  5
28AE8
  8
0
 10
3236.4407443812501697
 20
143.1699300935356973
 30
0.0
 40
0.2709795055000328
 50
111.6381569379022949
 51
127.6424919595606013
  0
ARC
  5
28AE9
  8
0
 10
3236.3301561862508606
 20
143.4493907267249995
 30
0.0
 40
0.0295676396389801
 50
291.1456232101297132
 51
353.5872666531515733
  0
ARC
  5
28AEA
  8
0
 10
3236.3246821773091142
 20
143.4500059670812959
 30
0.0
 40
0.0350761144364701
 50
353.5872666531515733
 51
359.4992696676853825
  0
LINE
  5
28AEB
  8
0
 10
3236.3597569522498816
 20
143.4496994270357106
 30
0.0
 11
3236.3597569522498816
 21
143.5112281826357048
 31
0.0
  0
ARC
  5
28AEC
  8
0
 10
3236.4155676407149258
 20
143.5107919991284859
 30
0.0
 40
0.0558123929162144
 50
170.5186350322287012
 51
179.5522190115478054
  0
ARC
  5
28AED
  8
0
 10
3236.3773104936421987
 20
143.5171812593306981
 30
0.0
 40
0.0170253854506013
 50
126.5642940795102049
 51
170.5186350322287012
  0
ARC
  5
28AEE
  8
0
 10
3236.3821105381830421
 20
143.5107095720263999
 30
0.0
 40
0.0250828766336077
 50
106.7820283593947011
 51
126.5642940795428046
  0
ARC
  5
28AEF
  8
0
 10
3236.3863523969312155
 20
143.4842068105342889
 30
0.0
 40
0.0518062522070207
 50
95.3087958469815817
 51
102.8073472735314056
  0
ARC
  5
28AF0
  8
0
 10
3236.3675325050799074
 20
143.6533580261724126
 30
0.0
 40
0.1184009658229937
 50
276.8036329682881842
 51
283.7499241397335936
  0
ARC
  5
28AF1
  8
0
 10
3236.3817444888049977
 20
143.6005858293216022
 30
0.0
 40
0.0637756034343586
 50
282.6164661188705054
 51
311.7439697966809149
  0
ARC
  5
28AF2
  8
0
 10
3236.3808469513419368
 20
143.5988622201128919
 30
0.0
 40
0.0631133227560448
 50
313.3939514129942268
 51
334.5136472737842155
  0
ARC
  5
28AF3
  8
0
 10
3236.2570586150300187
 20
143.6457414330938036
 30
0.0
 40
0.1953345507061822
 50
337.7267134158493036
 51
357.7968193344506176
  0
ARC
  5
28AF4
  8
0
 10
3234.5649670261150277
 20
143.7431813560226033
 30
0.0
 40
1.890197536040567
 50
356.8171361336101199
 51
0.7429123061967975
  0
ARC
  5
28AF5
  8
0
 10
3236.4275627151159824
 20
143.7660542061196907
 30
0.0
 40
0.0274916332825138
 50
3.4101002519752011
 51
59.2647267533200406
  0
ARC
  5
28AF6
  8
0
 10
3236.6424848871552058
 20
144.1773546898288885
 30
0.0
 40
0.4366209724063989
 50
222.5711853888165024
 51
242.6090032053153038
  0
ARC
  5
28AF7
  8
0
 10
3236.2856040157939788
 20
143.8507928680784005
 30
0.0
 40
0.0471297480337906
 50
41.4288327257346083
 51
58.0037453051017522
  0
ARC
  5
28AF8
  8
0
 10
3236.3002857082151422
 20
143.8715005316128952
 30
0.0
 40
0.0218387807667054
 50
61.8871179638141484
 51
80.5775813877017839
  0
ARC
  5
28AF9
  8
0
 10
3236.2917903465681775
 20
143.8203085293542927
 30
0.0
 40
0.0737309021798941
 50
80.5775813877017839
 51
87.5068698080324623
  0
ARC
  5
28AFA
  8
0
 10
3236.1332343080980536
 20
140.1787588392325006
 30
0.0
 40
3.718730787359787
 50
87.5068698080324623
 51
88.3341796243008304
  0
ARC
  5
28AFB
  8
0
 10
3236.2417670829499912
 20
143.9106844246452965
 30
0.0
 40
0.0147726528790928
 50
217.3172723112515996
 51
268.3341796243008162
  0
ARC
  5
28AFC
  8
0
 10
3236.5827569571470121
 20
144.1746603303953123
 30
0.0
 40
0.4460000055645668
 50
205.4323174781351895
 51
217.7309271029305933
  0
ARC
  5
28AFD
  8
0
 10
3236.5584343478130904
 20
144.1664560588284871
 30
0.0
 40
0.4205221016308559
 50
191.4336055234479943
 51
205.845972269787012
  0
ARC
  5
28AFE
  8
0
 10
3236.331916809032009
 20
144.1307118072722062
 30
0.0
 40
0.1916683260822692
 50
166.6989591743129893
 51
194.3848226332274862
  0
ARC
  5
28AFF
  8
0
 10
3236.3455417414447766
 20
144.2225630980084929
 30
0.0
 40
0.205769795603267
 50
193.4194465606589119
 51
206.4393723833339891
  0
ARC
  5
28B00
  8
0
 10
3236.4103781021999566
 20
144.2564851870683071
 30
0.0
 40
0.2789325559806775
 50
206.748643483226914
 51
216.5840683854221993
  0
ARC
  5
28B01
  8
0
 10
3236.0134339694091068
 20
143.965629963910601
 30
0.0
 40
0.2131786090359812
 50
26.5218531449846218
 51
35.770348536169557
  0
ARC
  5
28B02
  8
0
 10
3236.1100452869868604
 20
144.0135558432037044
 30
0.0
 40
0.1053338062739104
 50
18.6345012180965703
 51
26.6623953519634291
  0
ARC
  5
28B03
  8
0
 10
3236.170073062785832
 20
144.032966933668888
 30
0.0
 40
0.0422578237696503
 50
2.2758177023456878
 51
19.7018784978749792
  0
LINE
  5
28B04
  8
0
 10
3236.2122975554498225
 20
144.0346449947356859
 30
0.0
 11
3236.2122987079501399
 21
143.9969759796358062
 31
0.0
  0
ARC
  5
28B05
  8
0
 10
3236.2044680540989248
 20
143.9965613281135859
 30
0.0
 40
0.0078405386711188
 50
320.7842843362781196
 51
3.040530963826221
  0
ARC
  5
28B06
  8
0
 10
3236.2076165269700141
 20
143.9948298239002042
 30
0.0
 40
0.0043551037198231
 50
271.7935135513188243
 51
312.2130909352334811
  0
ARC
  5
28B07
  8
0
 10
3236.2074704428378027
 20
143.9995845350003094
 30
0.0
 40
0.009112058047561
 50
250.2182355256857136
 51
271.7759168271052772
  0
ARC
  5
28B08
  8
0
 10
3236.2128397807009605
 20
144.013883104266398
 30
0.0
 40
0.0243849710242984
 50
233.0620387117494943
 51
249.7170526059412055
  0
ARC
  5
28B09
  8
0
 10
3236.2481695998949363
 20
144.0581277860839862
 30
0.0
 40
0.0809974118790676
 50
214.9689789863751912
 51
231.8949149481834127
  0
ARC
  5
28B0A
  8
0
 10
3236.3661537516682074
 20
144.1475362674162
 30
0.0
 40
0.2289935548809086
 50
204.066471447801888
 51
216.3818661847546139
  0
ARC
  5
28B0B
  8
0
 10
3236.3412213146179965
 20
144.1358453537663991
 30
0.0
 40
0.2014615489455553
 50
196.4636117641996123
 51
203.9221938099771023
  0
ARC
  5
28B0C
  8
0
 10
3236.2972272404240357
 20
144.1292463545067903
 30
0.0
 40
0.1575207387707664
 50
193.9284204327412908
 51
198.6974222271890085
  0
LINE
  5
28B0D
  8
0
 10
3236.2300179957028377
 20
144.4475911420313992
 30
0.0
 11
3236.2300179957028377
 21
143.9017295150123914
 31
0.0
  0
LINE
  5
28B0E
  8
0
 10
3236.295004132250142
 20
144.4552619610356885
 30
0.0
 11
3236.295004132250142
 21
143.8939692387467062
 31
0.0
  0
LINE
  5
28B0F
  8
0
 10
3236.9845016945259886
 20
144.4386719123459955
 30
0.0
 11
3236.9845016945259886
 21
143.9106487431255061
 31
0.0
  0
LINE
  5
28B10
  8
0
 10
3237.1307569522500671
 20
144.4221603277358099
 30
0.0
 11
3237.1307569522500671
 21
143.9271603277358054
 31
0.0
  0
LINE
  5
28B11
  8
0
 10
3237.1487569522500962
 20
144.4246603278778025
 30
0.0
 11
3237.1487569522500962
 21
143.9246603275936991
 31
0.0
  0
ARC
  5
28B12
  8
0
 10
3236.8705248678020325
 20
144.8300646841643129
 30
0.0
 40
0.0457068888662371
 50
58.3112424843172477
 51
78.5587707029066564
  0
ARC
  5
28B13
  8
0
 10
3236.8821160999568747
 20
144.8488407280686943
 30
0.0
 40
0.0236411577982058
 50
16.9104057813177491
 51
58.3112424843172477
  0
ARC
  5
28B14
  8
0
 10
3236.8541458608901848
 20
144.8403371706558005
 30
0.0
 40
0.0528754657627303
 50
358.690522675506827
 51
16.9104057813177491
  0
LINE
  5
28B15
  8
0
 10
3236.9070075178501611
 20
144.8391288234356864
 30
0.0
 11
3236.9070075178501611
 21
144.7751101319358042
 31
0.0
  0
ARC
  5
28B16
  8
0
 10
3236.8463223007797751
 20
144.7740824038232859
 30
0.0
 40
0.0606939189355524
 50
349.7056788706771044
 51
0.9702338049884222
  0
ARC
  5
28B17
  8
0
 10
3236.8763035622678217
 20
144.7701983064964963
 30
0.0
 40
0.0305398287114637
 50
281.5216513809755838
 51
346.8223627929990016
  0
ARC
  5
28B18
  8
0
 10
3236.923146220362014
 20
144.6136092733765963
 30
0.0
 40
0.1330559593342696
 50
107.8308040972294037
 51
142.70738871610601
  0
ARC
  5
28B19
  8
0
 10
3236.9484824208411737
 20
144.6075325984490121
 30
0.0
 40
0.1572460502317224
 50
146.5421636701628074
 51
179.7777280685075993
  0
ARC
  5
28B1A
  8
0
 10
3236.8328844178408872
 20
144.6040738047950924
 30
0.0
 40
0.0418451488903933
 50
174.4200342286746945
 51
200.8403710816903924
  0
ARC
  5
28B1B
  8
0
 10
3236.8230868589530473
 20
144.6032774140226138
 30
0.0
 40
0.0325210110051349
 50
205.6758362629510088
 51
252.7491977386441988
  0
ARC
  5
28B1C
  8
0
 10
3236.640620509792825
 20
144.1745264814962013
 30
0.0
 40
0.4336208918646893
 50
37.5289534065279469
 51
66.5120800579711187
  0
ARC
  5
28B1D
  8
0
 10
3237.0155099175249234
 20
144.4607753069414002
 30
0.0
 40
0.038079786236536
 50
215.4820734225845058
 51
245.6101211012739896
  0
ARC
  5
28B1E
  8
0
 10
3237.0119542655311307
 20
144.4639355866270023
 30
0.0
 40
0.0397502485186906
 50
252.1732238892649889
 51
271.7984795015510144
  0
LINE
  5
28B1F
  8
0
 10
3237.0132017966498097
 20
144.4242049193358071
 30
0.0
 11
3237.1307569522500671
 21
144.4221603277358099
 31
0.0
  0
LINE
  5
28B20
  8
0
 10
3237.1307569522500671
 20
144.414660327735703
 30
0.0
 11
3237.1487569522500962
 21
144.414660327735703
 31
0.0
  0
ARC
  5
28B21
  8
0
 10
3237.5893780202800372
 20
144.3457333665710109
 30
0.0
 40
0.4476342154182286
 50
156.0434984386448036
 51
169.84450435606621
  0
ARC
  5
28B22
  8
0
 10
3237.3808711187530207
 20
144.4383770088105905
 30
0.0
 40
0.2194720528411051
 50
121.4237301318705988
 51
156.0434984386448036
  0
ARC
  5
28B23
  8
0
 10
3237.3623018231241986
 20
144.446341489804496
 30
0.0
 40
0.2033308574754647
 50
94.1213532758372367
 51
118.1268633541663036
  0
ARC
  5
28B24
  8
0
 10
3237.3471887208329463
 20
144.6838823064331052
 30
0.0
 40
0.0347393557129886
 50
270.8244864981081719
 51
309.0982911213151851
  0
ARC
  5
28B25
  8
0
 10
3237.3443766392852012
 20
144.6812141140127892
 30
0.0
 40
0.034658299378062
 50
315.5011818505378756
 51
349.4450939764734017
  0
LINE
  5
28B26
  8
0
 10
3237.3784485140499783
 20
144.6748654869356869
 30
0.0
 11
3237.3859344395500557
 21
144.7025034266357011
 31
0.0
  0
ARC
  5
28B27
  8
0
 10
3237.4148843286698138
 20
144.6946621506384929
 30
0.0
 40
0.0299930273445198
 50
122.3275200745744939
 51
164.8446762203124933
  0
ARC
  5
28B28
  8
0
 10
3237.4149021031807933
 20
144.6946340640193114
 30
0.0
 40
0.0300262657475141
 50
90.0210739035398149
 51
122.3275200746052036
  0
LINE
  5
28B29
  8
0
 10
3237.4148910592498396
 20
144.7246603277357053
 30
0.0
 11
3237.5664568993979628
 21
144.7246603277357053
 31
0.0
  0
ARC
  5
28B2A
  8
0
 10
3237.5663887034102117
 20
144.6944888290491917
 30
0.0
 40
0.0301715757573449
 50
76.2433799625250828
 51
89.8704958044930748
  0
ARC
  5
28B2B
  8
0
 10
3237.5664040775532158
 20
144.6945516265577965
 30
0.0
 40
0.0301069236781385
 50
54.3738988498589322
 51
76.2433799625250828
  0
ARC
  5
28B2C
  8
0
 10
3237.5664290500230891
 20
144.694586474184689
 30
0.0
 40
0.0300640519933475
 50
33.6260673256291511
 51
54.3738988498589322
  0
ARC
  5
28B2D
  8
0
 10
3237.6164675897630332
 20
144.727864825290311
 30
0.0
 40
0.0300300751046673
 50
213.6260673256290943
 51
327.3082519633622951
  0
ARC
  5
28B2E
  8
0
 10
3237.8229369379760101
 20
144.584434122604307
 30
0.0
 40
0.2213927220320563
 50
109.2246143160571989
 51
144.9288094077024027
  0
ARC
  5
28B2F
  8
0
 10
3238.1021023863831942
 20
143.6307027605938913
 30
0.0
 40
1.2149082168062111
 50
90.1558187056244407
 51
106.8451717604106932
  0
ARC
  5
28B30
  8
0
 10
3238.0909794631670593
 20
147.7206801639788978
 30
0.0
 40
2.8750843112579458
 50
270.1558187056244265
 51
278.1788416589487838
  0
LINE
  5
28B31
  8
0
 10
3236.4902763643940489
 20
144.6081428650358021
 30
0.0
 11
3236.7912375548248747
 21
144.6081428650358021
 31
0.0
  0
LINE
  5
28B32
  8
0
 10
3237.3784485140499783
 20
143.6744551685357862
 30
0.0
 11
3237.3784485140499783
 21
144.6748654869358006
 31
0.0
  0
ARC
  5
28B33
  8
0
 10
3237.4264886406758706
 20
144.6950238589743094
 30
0.0
 40
0.0296364695868523
 50
89.9864771006390356
 51
117.9331463847327939
  0
ARC
  5
28B34
  8
0
 10
3237.4266556991201469
 20
144.6947087813875896
 30
0.0
 40
0.029993096014565
 50
117.9331463847327939
 51
166.114883139334097
  0
ARC
  5
28B35
  8
0
 10
3238.4193409542690461
 20
144.5474795343141921
 30
0.0
 40
1.0334054468844729
 50
171.4058188633970872
 51
188.5439578336903139
  0
ARC
  5
28B36
  8
0
 10
3239.4673936410840724
 20
144.1757463604226075
 30
0.0
 40
2.0814583782408018
 50
173.9825514548228966
 51
186.0527814510695919
  0
ARC
  5
28B37
  8
0
 10
3238.4193411489709433
 20
143.80184109535179
 30
0.0
 40
1.0334056412818819
 50
171.4058267241601925
 51
188.5941794953922965
  0
ARC
  5
28B38
  8
0
 10
3237.4266730269168875
 20
143.6546161313931123
 30
0.0
 40
0.0300109471449207
 50
193.8851150020485079
 51
236.1492939352986866
  0
ARC
  5
28B39
  8
0
 10
3237.4264918174530976
 20
143.6543459614555047
 30
0.0
 40
0.0296856339652609
 50
236.1492939352978055
 51
270.0073680923820234
  0
ARC
  5
28B3A
  8
0
 10
3237.5509517599521132
 20
144.6950441431804109
 30
0.0
 40
0.0296162183871555
 50
50.6518320917307889
 51
89.9133964319314032
  0
ARC
  5
28B3B
  8
0
 10
3237.5507487029990443
 20
144.6947964811494955
 30
0.0
 40
0.0299364817283352
 50
18.0440445503280209
 51
50.6518320917307889
  0
ARC
  5
28B3C
  8
0
 10
3236.6039212274909005
 20
144.54900839376009
 30
0.0
 40
0.9875412166329267
 50
350.9662505199511884
 51
9.0337999176459665
  0
ARC
  5
28B3D
  8
0
 10
3235.6225021811651459
 20
144.1746603103424036
 30
0.0
 40
1.968960262959369
 50
353.6317828256906068
 51
6.3944420470978711
  0
ARC
  5
28B3E
  8
0
 10
3236.5938733067978319
 20
143.8010774487908066
 30
0.0
 40
0.9975849774832388
 50
351.0134096408964979
 51
8.9496295337701408
  0
ARC
  5
28B3F
  8
0
 10
3237.5507509965477766
 20
143.6545233895921001
 30
0.0
 40
0.0299340519707847
 50
303.8351769038869179
 51
341.9559688084675031
  0
ARC
  5
28B40
  8
0
 10
3237.5509843867139352
 20
143.6541752181269089
 30
0.0
 40
0.029514892885455
 50
270.0235554691340099
 51
303.8351769038869179
  0
LINE
  5
28B41
  8
0
 10
3237.5792130057498071
 20
144.3939483995357023
 30
0.0
 11
3237.3974040637008329
 21
144.3939483995357023
 31
0.0
  0
LINE
  5
28B42
  8
0
 10
3237.3975390171499384
 20
143.9562678509358022
 30
0.0
 11
3237.5793131712161994
 21
143.9562678509358022
 31
0.0
  0
ARC
  5
28B43
  8
0
 10
3236.2194391580260344
 20
144.0162888752641095
 30
0.0
 40
3.1688548014925511
 50
277.6404489420286836
 51
279.2623973375385162
  0
ARC
  5
28B44
  8
0
 10
3236.6545421807140883
 20
141.2221643997505964
 30
0.0
 40
0.3417324103726449
 50
282.668204045087009
 51
314.8942109806495182
  0
ARC
  5
28B45
  8
0
 10
3236.5115638929178203
 20
141.3572587198910071
 30
0.0
 40
0.5383815542281885
 50
315.5261424264793959
 51
341.0514963528930252
  0
ARC
  5
28B46
  8
0
 10
3235.8898771604881404
 20
141.5706978142642072
 30
0.0
 40
1.1956871454759961
 50
341.0514963528930252
 51
5.7866310273632564
  0
ARC
  5
28B47
  8
0
 10
3232.2623427392400117
 20
141.2030814397195968
 30
0.0
 40
4.841801210637767
 50
5.7866310273632564
 51
11.3087254550581608
  0
ARC
  5
28B48
  8
0
 10
3249.964040198611201
 20
144.7430331047314098
 30
0.0
 40
13.2103828880714502
 50
189.6574358845300878
 51
191.3087254550565888
  0
ARC
  5
28B49
  8
0
 10
3238.8124338335760513
 20
142.8453794420744885
 30
0.0
 40
1.8984681985038581
 50
179.9375493167225954
 51
189.6574358845300878
  0
ARC
  5
28B4A
  8
0
 10
3237.7610322901559812
 20
142.8465254387141954
 30
0.0
 40
0.8470660305323233
 50
166.6613063698781048
 51
179.9375493167225954
  0
ARC
  5
28B4B
  8
0
 10
3237.566991989303915
 20
142.8925330083513927
 30
0.0
 40
0.6476460344974658
 50
153.239129817998105
 51
166.6613063698781048
  0
ARC
  5
28B4C
  8
0
 10
3237.0336381279598754
 20
143.3096959048448014
 30
0.0
 40
0.0328088389209939
 50
316.6644276621153153
 51
39.4279087685568825
  0
ARC
  5
28B4D
  8
0
 10
3236.8287091592719662
 20
143.1583404987491122
 30
0.0
 40
0.2875328555759731
 50
36.788443533079267
 51
51.8649743126600526
  0
ARC
  5
28B4E
  8
0
 10
3236.8407695231499019
 20
143.1699300935356973
 30
0.0
 40
0.2709795055000328
 50
52.3575080404393702
 51
68.3618430620976341
  0
ARC
  5
28B4F
  8
0
 10
3236.951357718149211
 20
143.4493907267249995
 30
0.0
 40
0.0295676396389801
 50
186.4127333468483982
 51
248.8543767898702015
  0
ARC
  5
28B50
  8
0
 10
3236.9568317270909574
 20
143.4500059670812959
 30
0.0
 40
0.0350761144364701
 50
180.5007303323145038
 51
186.4127333468483982
  0
LINE
  5
28B51
  8
0
 10
3236.92175695215019
 20
143.4496994270357106
 30
0.0
 11
3236.92175695215019
 21
143.5112281826357048
 31
0.0
  0
ARC
  5
28B52
  8
0
 10
3236.8659462636851458
 20
143.5107919991284859
 30
0.0
 40
0.0558123929162144
 50
0.4477809884522344
 51
9.4813649677713503
  0
ARC
  5
28B53
  8
0
 10
3236.9042034107578729
 20
143.5171812593306981
 30
0.0
 40
0.0170253854506013
 50
9.4813649677713503
 51
53.4357059204897524
  0
ARC
  5
28B54
  8
0
 10
3236.8994033662170295
 20
143.5107095720263999
 30
0.0
 40
0.0250828766336077
 50
53.4357059204571812
 51
73.2179716406052847
  0
ARC
  5
28B55
  8
0
 10
3236.8951615074688561
 20
143.4842068105342889
 30
0.0
 40
0.0518062522070207
 50
77.1926527264685944
 51
84.6912041530184183
  0
ARC
  5
28B56
  8
0
 10
3236.9139813993210737
 20
143.6533580261724126
 30
0.0
 40
0.1184009658229937
 50
256.2500758602662927
 51
263.1963670317118158
  0
ARC
  5
28B57
  8
0
 10
3236.899769415595074
 20
143.6005858293216022
 30
0.0
 40
0.0637756034343586
 50
228.2560302033191135
 51
257.3835338811296083
  0
ARC
  5
28B58
  8
0
 10
3237.0244552893700529
 20
143.6457414330938036
 30
0.0
 40
0.1953345507061822
 50
182.2031806655494108
 51
202.2732865841493037
  0
ARC
  5
28B59
  8
0
 10
3238.7165468782850439
 20
143.7431813560226033
 30
0.0
 40
1.890197536040567
 50
179.2570876938031859
 51
183.1828638663899085
  0
ARC
  5
28B5A
  8
0
 10
3236.8539511892849987
 20
143.7660542061196907
 30
0.0
 40
0.0274916332825138
 50
120.7352732466798955
 51
176.5898997480248056
  0
ARC
  5
28B5B
  8
0
 10
3236.6390290172457753
 20
144.1773546898288885
 30
0.0
 40
0.4366209724063989
 50
297.3909967946847246
 51
317.4288146111834976
  0
ARC
  5
28B5C
  8
0
 10
3237.4734908000550604
 20
142.934869203575289
 30
0.0
 40
0.5451137506507616
 50
139.7364164750927102
 51
152.7872803831928934
  0
ARC
  5
28B5D
  8
0
 10
3236.8950990895928044
 20
143.5948100668929897
 30
0.0
 40
0.0563577861213468
 50
204.2032419738382032
 51
227.8891593393942117
  0
ARC
  5
28B5E
  8
0
 10
3236.4572940754569572
 20
144.3295739459533991
 30
0.0
 40
0.6735218888107634
 50
318.3514072972221811
 51
321.5289338504010175
  0
ARC
  5
28B5F
  8
0
 10
3237.0328976741161568
 20
143.8721925690514922
 30
0.0
 40
0.0616768780051195
 50
127.7754267952196017
 51
141.5289338504009891
  0
ARC
  5
28B60
  8
0
 10
3237.0092784641979051
 20
143.8976935523824068
 30
0.0
 40
0.027223236793017
 50
94.1224899179501051
 51
121.3470261099815986
  0
ARC
  5
28B61
  8
0
 10
3237.0150197723569363
 20
143.8209632782831875
 30
0.0
 40
0.1041679313101104
 50
90.999992976065343
 51
94.2382135620895411
  0
LINE
  5
28B62
  8
0
 10
3237.013201940450017
 20
143.9248463529075082
 30
0.0
 11
3237.1307569522500671
 21
143.9271603277358054
 31
0.0
  0
LINE
  5
28B63
  8
0
 10
3237.1487569522500962
 20
143.9346603277357133
 30
0.0
 11
3237.1307569522500671
 21
143.9346603277357133
 31
0.0
  0
ARC
  5
28B64
  8
0
 10
3237.4593363789599607
 20
143.9618250655566101
 30
0.0
 40
0.3127951374822929
 50
186.8237147732291987
 51
219.9407997759188049
  0
ARC
  5
28B65
  8
0
 10
3237.3580934699039062
 20
143.8875354521794065
 30
0.0
 40
0.1876500321637333
 50
222.3961439924773913
 51
266.8214188172914874
  0
ARC
  5
28B66
  8
0
 10
3237.3490738544469423
 20
143.6705769397638903
 30
0.0
 40
0.0296295677529366
 50
7.5210535988682778
 51
92.679688128314254
  0
LINE
  5
28B67
  8
0
 10
3237.3784485140499783
 20
143.6744551685357862
 30
0.0
 11
3237.3859344395500557
 21
143.6468172287356992
 31
0.0
  0
ARC
  5
28B68
  8
0
 10
3237.4148894153490801
 20
143.6546598824664045
 30
0.0
 40
0.0299982973019707
 50
195.155323727367886
 51
257.6024124530163135
  0
ARC
  5
28B69
  8
0
 10
3237.4149010076062041
 20
143.6547126176675988
 30
0.0
 40
0.0300522915784308
 50
257.6024124530163135
 51
269.9810330986665008
  0
LINE
  5
28B6A
  8
0
 10
3237.4148910592498396
 20
143.624660327735711
 30
0.0
 11
3237.566456901345191
 21
143.6246101541539986
 31
0.0
  0
ARC
  5
28B6B
  8
0
 10
3237.566466697650867
 20
143.6542031263059016
 30
0.0
 40
0.0295929737733413
 50
269.9810330986665008
 51
298.6310278202610107
  0
ARC
  5
28B6C
  8
0
 10
3237.5658576329778953
 20
143.6553187919724905
 30
0.0
 40
0.030864063721255
 50
298.6310278202610107
 51
326.0576882153674205
  0
ARC
  5
28B6D
  8
0
 10
3237.6166495057509565
 20
143.6211335971254073
 30
0.0
 40
0.0303604565827831
 50
85.3499050170508582
 51
146.0576882153673921
  0
ARC
  5
28B6E
  8
0
 10
3237.6167130453568461
 20
143.6219147756866903
 30
0.0
 40
0.0295766981848763
 50
32.2003380433906088
 51
85.3499050170508582
  0
ARC
  5
28B6F
  8
0
 10
3237.8280425278080656
 20
143.7704602598028885
 30
0.0
 40
0.2287797636473261
 50
215.4789400228038119
 51
252.5999111465133922
  0
ARC
  5
28B70
  8
0
 10
3238.1216417458172145
 20
144.8479259173224989
 30
0.0
 40
1.3453961186002881
 50
254.3906988529249986
 51
270.1729518054789878
  0
ARC
  5
28B71
  8
0
 10
3238.0409291420860427
 20
139.8091251669970916
 30
0.0
 40
3.694383527071937
 50
83.0664843404820914
 51
88.6851375324720834
  0
ARC
  5
28B72
  8
0
 10
3237.5567381448067863
 20
144.6986196553822026
 30
0.0
 40
0.0859945880052555
 50
359.9142259551875895
 51
8.7119600887328534
  0
ARC
  5
28B73
  8
0
 10
3320.3434481315562152
 20
144.574684588309708
 30
0.0
 40
82.7008081666062083
 50
179.9142259551875895
 51
180.0817175588458099
  0
ARC
  5
28B74
  8
0
 10
3094.94487953710086
 20
144.2532118125035083
 30
0.0
 40
142.697989676627401
 50
359.9183085987236268
 51
0.0817175588458214
  0
ARC
  5
28B75
  8
0
 10
3375.7627290718987751
 20
143.8528259660843105
 30
0.0
 40
138.1201452900697006
 50
179.91830859872519
 51
180.0837918798806925
  0
ARC
  5
28B76
  8
0
 10
3237.5563277403248321
 20
143.6507066732933993
 30
0.0
 40
0.0864038356224871
 50
351.3235992829497718
 51
0.0837918798806965
  0
LINE
  5
28B77
  8
0
 10
3237.591462444123863
 20
144.7112413658313983
 30
0.0
 11
3237.591462444123863
 21
143.6380792548534941
 31
0.0
  0
ARC
  5
28B78
  8
0
 10
3238.3203131788659448
 20
146.1788614843615903
 30
0.0
 40
1.316344196186304
 50
277.8455695198666717
 51
299.5013085621648088
  0
ARC
  5
28B79
  8
0
 10
3238.747530564994122
 20
145.4081416943421061
 30
0.0
 40
0.4352403940813302
 50
300.5162693212441241
 51
332.1648681840899826
  0
ARC
  5
28B7A
  8
0
 10
3239.1593149755399281
 20
145.1916753128506059
 30
0.0
 40
0.0299850162347024
 50
89.982184127002057
 51
153.7968434097018928
  0
LINE
  5
28B7B
  8
0
 10
3239.1593242992498745
 20
145.2216603276357887
 30
0.0
 11
3239.2143658094501006
 21
145.2216603276357887
 31
0.0
  0
ARC
  5
28B7C
  8
0
 10
3239.2130710361038837
 20
145.2532940486856035
 30
0.0
 40
0.0316602076031777
 50
272.3438173071031088
 51
343.8768153736784257
  0
ARC
  5
28B7D
  8
0
 10
3239.3572689864681706
 20
145.2109422800884033
 30
0.0
 40
0.1242528705577914
 50
22.2848149342664286
 51
88.4085912039282533
  0
ARC
  5
28B7E
  8
0
 10
3239.3660861423259121
 20
145.2070734168746924
 30
0.0
 40
0.1281861887915787
 50
92.3993537751139939
 51
163.0231488294789131
  0
ARC
  5
28B7F
  8
0
 10
3239.5007613498678438
 20
145.2693185277483963
 30
0.0
 40
0.0306615759218804
 50
201.5415694323874902
 51
269.149763462927524
  0
LINE
  5
28B80
  8
0
 10
3239.5003063663511966
 20
145.2386603277358006
 30
0.0
 11
3239.5887466233339183
 21
145.2386653541358044
 31
0.0
  0
LINE
  5
28B81
  8
0
 10
3239.5887401157810928
 20
143.0607818438743095
 30
0.0
 11
3239.5887466233339183
 21
145.2885501022358028
 31
0.0
  0
ARC
  5
28B82
  8
0
 10
3238.3242817119908068
 20
142.1225580049012933
 30
0.0
 40
1.3636649156053331
 50
65.5603572006033772
 51
83.1508719511741532
  0
ARC
  5
28B83
  8
0
 10
3238.6967096295538795
 20
142.9037192530254003
 30
0.0
 40
0.4986637350895325
 50
29.1039574231286409
 51
67.383437859834828
  0
ARC
  5
28B84
  8
0
 10
3239.1621705276661487
 20
143.1640967154706061
 30
0.0
 40
0.0346914782684991
 50
210.927038082373997
 51
265.293934090609298
  0
LINE
  5
28B85
  8
0
 10
3239.1593242992498745
 20
143.1295221923610086
 30
0.0
 11
3239.2143658094501006
 21
143.1295221923610086
 31
0.0
  0
ARC
  5
28B86
  8
0
 10
3239.2151684608338655
 20
143.058390029728713
 30
0.0
 40
0.0711366910249381
 50
85.5679289627805417
 51
90.6464949648840559
  0
ARC
  5
28B87
  8
0
 10
3239.2187018846880164
 20
143.1039773662567995
 30
0.0
 40
0.0254126236658967
 50
52.2932705957940271
 51
85.5679289627805417
  0
ARC
  5
28B88
  8
0
 10
3239.2066883133220472
 20
143.0982942377794132
 30
0.0
 40
0.0377411887145801
 50
12.8387325820443792
 51
43.1016727993415927
  0
ARC
  5
28B89
  8
0
 10
3239.3608886884289859
 20
143.1366301252294875
 30
0.0
 40
0.1211626028409687
 50
194.3109622909981056
 51
338.0094960237573787
  0
ARC
  5
28B8A
  8
0
 10
3239.4977836335760912
 20
143.0857544157512962
 30
0.0
 40
0.0251573415002518
 50
81.9742899138646663
 51
167.3577213748204997
  0
LINE
  5
28B8B
  8
0
 10
3239.5012960373342139
 20
143.11066535413579
 30
0.0
 11
3239.5887466233339183
 21
143.11066535413579
 31
0.0
  0
LINE
  5
28B8C
  8
0
 10
3239.1324113981499977
 20
143.1462671648610012
 30
0.0
 11
3239.1324113981499977
 21
145.2049153552302982
 31
0.0
  0
LINE
  5
28B8D
  8
0
 10
3239.243488996150063
 20
143.1066683170326996
 30
0.0
 11
3239.2434859483500986
 21
145.2445019011356919
 31
0.0
  0
LINE
  5
28B8E
  8
0
 10
3239.4732362185350212
 20
143.0912604348357888
 30
0.0
 11
3239.472241441550068
 21
145.2580603277357909
 31
0.0
  0
LINE
  5
28B8F
  8
0
 10
3236.4016477088562169
 20
144.8748404794357896
 30
0.0
 11
3236.8797035304301062
 21
144.8748404794357896
 31
0.0
  0
LINE
  5
28B90
  8
0
 10
3236.3991025874288425
 20
144.7402755424357963
 30
0.0
 11
3236.8824116985369983
 21
144.7402755424357963
 31
0.0
  0
LINE
  5
28B91
  8
0
 10
3236.2225349434288546
 20
143.3305350441357859
 30
0.0
 11
3237.0589789609721265
 21
143.3305350441357859
 31
0.0
  0
LINE
  5
28B92
  8
0
 10
3236.3408274656821959
 20
143.4218159355357898
 30
0.0
 11
3236.9406864387187852
 21
143.4218159355357898
 31
0.0
  0
LINE
  5
28B93
  8
0
 10
3236.3815730641968003
 20
143.5357925065355005
 30
0.0
 11
3236.8999408402028166
 21
143.5357925065355005
 31
0.0
  0
LINE
  5
28B94
  8
0
 10
3236.4550055709519256
 20
143.7676911435358136
 30
0.0
 11
3236.8265083334490555
 21
143.7676911435358136
 31
0.0
  0
LINE
  5
28B95
  8
0
 10
3240.1667466233338928
 20
146.4246620310300955
 30
0.0
 11
3240.1667466233338928
 21
141.9300803608358024
 31
0.0
  0
ARC
  5
28B96
  8
0
 10
3240.2291366379167812
 20
147.8136127407711058
 30
0.0
 40
5.8838657869001878
 50
268.9055045299235189
 51
269.3924484957157119
  0
LINE
  5
28B97
  8
0
 10
3240.1167466233341656
 20
141.9308189345358073
 30
0.0
 11
3240.1167466233341656
 21
141.9272840436358081
 31
0.0
  0
ARC
  5
28B98
  8
0
 10
3240.1460462794648265
 20
142.2340011734704888
 30
0.0
 40
0.3081134005256341
 50
221.8127047113804053
 51
264.5432847562652796
  0
ARC
  5
28B99
  8
0
 10
3240.3329540481709046
 20
142.3566153679975059
 30
0.0
 40
0.5302095502297443
 50
190.1989528539293133
 51
218.2201712316125111
  0
ARC
  5
28B9A
  8
0
 10
3239.7531054204641805
 20
142.2503422985892882
 30
0.0
 40
0.0593253659477906
 50
12.0554450854037292
 51
90.5056645876239543
  0
LINE
  5
28B9B
  8
0
 10
3239.7525818505341704
 20
142.3096653541358023
 30
0.0
 11
3239.7240833878340709
 21
142.3096653541358023
 31
0.0
  0
ARC
  5
28B9C
  8
0
 10
3239.7218824155747825
 20
142.3673658639035011
 30
0.0
 40
0.0577424722915517
 50
180.3236123722051047
 51
272.1844748434094186
  0
ARC
  5
28B9D
  8
0
 10
3258.6741216230520877
 20
143.2016653542362121
 30
0.0
 40
19.0282938904174301
 50
180.7413643621970891
 51
182.5139338810984952
  0
LINE
  5
28B9E
  8
0
 10
3239.6474206085340484
 20
142.9554603903166026
 30
0.0
 11
3239.6474206085340484
 21
145.3938703179549066
 31
0.0
  0
ARC
  5
28B9F
  8
0
 10
3259.2951204613441405
 20
145.1300193737031918
 30
0.0
 40
19.6494714134225603
 50
177.5140863188495928
 51
179.230615442627311
  0
ARC
  5
28BA0
  8
0
 10
3239.7240130952218351
 20
145.9797334096836039
 30
0.0
 40
0.0599268319778883
 50
89.9327935283535993
 51
177.553978839349611
  0
LINE
  5
28BA1
  8
0
 10
3239.7240833878340709
 20
146.0396602004356907
 30
0.0
 11
3239.7525818505341704
 21
146.0396602004356907
 31
0.0
  0
ARC
  5
28BA2
  8
0
 10
3239.7487752079978236
 20
146.1044083011971964
 30
0.0
 40
0.0648599034813603
 50
273.3646358685651876
 51
344.0580904320516993
  0
ARC
  5
28BA3
  8
0
 10
3240.3206097229458464
 20
145.9971734583774889
 30
0.0
 40
0.5172569238973123
 50
140.175402070062006
 51
170.0450407170800133
  0
ARC
  5
28BA4
  8
0
 10
3240.1956536488842175
 20
145.9955775704160033
 30
0.0
 40
0.4300570781497236
 50
93.8541402288196167
 51
129.2848144979853089
  0
ARC
  5
28BA5
  8
0
 10
3239.7778283310790357
 20
145.3771234557455898
 30
0.0
 40
0.1314786352694593
 50
172.6821702203081941
 51
177.7816328767165999
  0
ARC
  5
28BA6
  8
0
 10
3239.5989440697931059
 20
145.3840529255733998
 30
0.0
 40
0.0475397897259703
 50
297.7651159810399122
 51
357.7816328767166283
  0
ARC
  5
28BA7
  8
0
 10
3239.6492856659829158
 20
145.2884140700251123
 30
0.0
 40
0.060539195482195
 50
117.7578631858187066
 51
179.8712556708954082
  0
ARC
  5
28BA8
  8
0
 10
3239.6491066295329802
 20
143.0608155687951921
 30
0.0
 40
0.0603665368263512
 50
180.0475947337523053
 51
242.3480669871323983
  0
ARC
  5
28BA9
  8
0
 10
3239.5991583143290882
 20
142.9654838121257114
 30
0.0
 40
0.0472577077535133
 50
13.7205550721372003
 51
62.3480669871323698
  0
ARC
  5
28BAA
  8
0
 10
3239.4518053062488434
 20
142.944527362894803
 30
0.0
 40
0.1959205899766062
 50
3.1989588063921062
 51
9.4493371237592232
  0
LINE
  5
28BAB
  8
0
 10
3239.8111406425341556
 20
142.262631662746486
 30
0.0
 11
3239.8111406425341556
 21
146.0865937101465875
 31
0.0
  0
ENDSEC
  0
EOF
