  0
SECTION
  2
HEADER
  9
$ACADVER
  1
AC1009
  9
$INSBASE
 10
233.4230193616106135
 20
-10.3959120848994093
 30
0.0
  9
$EXTMIN
 10
228.2350242785950059
 20
-10.3974355031436403
 30
-0.0015258207003583
  9
$EXTMAX
 10
235.7899791668083935
 20
26.8084585166453202
 30
0.0000000349246037
  9
$LIMMIN
 10
0.0
 20
0.0
  9
$LIMMAX
 10
22.0
 20
17.0
  9
$ORTHOMODE
 70
     0
  9
$REGENMODE
 70
     1
  9
$FILLMODE
 70
     1
  9
$QTEXTMODE
 70
     0
  9
$MIRRTEXT
 70
     0
  9
$DRAGMODE
 70
     2
  9
$LTSCALE
 40
1.2099999999999991
  9
$OSMODE
 70
     7
  9
$ATTMODE
 70
     1
  9
$TEXTSIZE
 40
0.2
  9
$TRACEWID
 40
0.05
  9
$TEXTSTYLE
  7
STANDARD
  9
$CLAYER
  8
0
  9
$CELTYPE
  6
BYLAYER
  9
$CECOLOR
 62
   256
  9
$DIMSCALE
 40
1.0
  9
$DIMASZ
 40
0.1875
  9
$DIMEXO
 40
0.0625
  9
$DIMDLI
 40
0.38
  9
$DIMRND
 40
0.0
  9
$DIMDLE
 40
0.0
  9
$DIMEXE
 40
0.125
  9
$DIMTP
 40
1.5
  9
$DIMTM
 40
1.5
  9
$DIMTXT
 40
1.5
  9
$DIMCEN
 40
0.09
  9
$DIMTSZ
 40
0.0
  9
$DIMTOL
 70
     0
  9
$DIMLIM
 70
     0
  9
$DIMTIH
 70
     1
  9
$DIMTOH
 70
     1
  9
$DIMSE1
 70
     0
  9
$DIMSE2
 70
     0
  9
$DIMTAD
 70
     0
  9
$DIMZIN
 70
     4
  9
$DIMBLK
  1

  9
$DIMASO
 70
     1
  9
$DIMSHO
 70
     1
  9
$DIMPOST
  1

  9
$DIMAPOST
  1

  9
$DIMALT
 70
     0
  9
$DIMALTD
 70
     2
  9
$DIMALTF
 40
25.3999999999999986
  9
$DIMLFAC
 40
1.0
  9
$DIMTOFL
 70
     0
  9
$DIMTVP
 40
0.0
  9
$DIMTIX
 70
     0
  9
$DIMSOXD
 70
     0
  9
$DIMSAH
 70
     0
  9
$DIMBLK1
  1

  9
$DIMBLK2
  1

  9
$DIMSTYLE
  2
STANDARD
  9
$DIMCLRD
 70
     0
  9
$DIMCLRE
 70
     0
  9
$DIMCLRT
 70
     0
  9
$DIMTFAC
 40
1.0
  9
$DIMGAP
 40
0.09
  9
$LUNITS
 70
     2
  9
$LUPREC
 70
     4
  9
$SKETCHINC
 40
0.1
  9
$FILLETRAD
 40
0.0
  9
$AUNITS
 70
     0
  9
$AUPREC
 70
     0
  9
$MENU
  1
.
  9
$ELEVATION
 40
0.0
  9
$PELEVATION
 40
0.0
  9
$THICKNESS
 40
0.0
  9
$LIMCHECK
 70
     0
  9
$BLIPMODE
 70
     0
  9
$CHAMFERA
 40
0.0
  9
$CHAMFERB
 40
0.0
  9
$SKPOLY
 70
     0
  9
$TDCREATE
 40
2457827.4934837957844138
  9
$TDUPDATE
 40
2459550.5753124998882413
  9
$TDINDWG
 40
0.3972010417
  9
$TDUSRTIMER
 40
0.3972010417
  9
$USRTIMER
 70
     1
  9
$ANGBASE
 50
0.0
  9
$ANGDIR
 70
     0
  9
$PDMODE
 70
     0
  9
$PDSIZE
 40
0.3125
  9
$PLINEWID
 40
0.0
  9
$COORDS
 70
     1
  9
$SPLFRAME
 70
     0
  9
$SPLINETYPE
 70
     6
  9
$SPLINESEGS
 70
     8
  9
$ATTDIA
 70
     1
  9
$ATTREQ
 70
     1
  9
$HANDLING
 70
     1
  9
$HANDSEED
  5
7471
  9
$SURFTAB1
 70
     6
  9
$SURFTAB2
 70
     6
  9
$SURFTYPE
 70
     6
  9
$SURFU
 70
     6
  9
$SURFV
 70
     6
  9
$UCSNAME
  2

  9
$UCSORG
 10
0.0
 20
0.0
 30
0.0
  9
$UCSXDIR
 10
1.0
 20
0.0
 30
0.0
  9
$UCSYDIR
 10
0.0
 20
1.0
 30
0.0
  9
$PUCSNAME
  2

  9
$PUCSORG
 10
0.0
 20
0.0
 30
0.0
  9
$PUCSXDIR
 10
1.0
 20
0.0
 30
0.0
  9
$PUCSYDIR
 10
0.0
 20
1.0
 30
0.0
  9
$USERI1
 70
     0
  9
$USERI2
 70
     0
  9
$USERI3
 70
     0
  9
$USERI4
 70
     0
  9
$USERI5
 70
     0
  9
$USERR1
 40
0.0
  9
$USERR2
 40
0.0
  9
$USERR3
 40
0.0
  9
$USERR4
 40
0.0
  9
$USERR5
 40
0.0
  9
$WORLDVIEW
 70
     1
  9
$SHADEDGE
 70
     3
  9
$SHADEDIF
 70
    70
  9
$TILEMODE
 70
     1
  9
$MAXACTVP
 70
    48
  9
$PLIMCHECK
 70
     0
  9
$PEXTMIN
 10
1.0000000000000000E+20
 20
1.0000000000000000E+20
 30
1.0000000000000000E+20
  9
$PEXTMAX
 10
-1.0000000000000000E+20
 20
-1.0000000000000000E+20
 30
-1.0000000000000000E+20
  9
$PLIMMIN
 10
0.0
 20
0.0
  9
$PLIMMAX
 10
12.0
 20
9.0
  9
$UNITMODE
 70
     0
  9
$VISRETAIN
 70
     1
  9
$PLINEGEN
 70
     0
  9
$PSLTSCALE
 70
     1
  0
ENDSEC
  0
SECTION
  2
TABLES
  0
TABLE
  2
VPORT
 70
     1
  0
VPORT
  2
*ACTIVE
 70
     0
 10
0.0
 20
0.0
 11
1.0
 21
1.0
 12
21.0335741103970015
 22
1.0030623211902769
 13
0.0
 23
0.0
 14
1.0
 24
1.0
 15
0.0
 25
0.0
 16
-0.0000000000000284
 26
0.0
 36
157.2215818301446859
 17
210.9789276123046875
 27
7.2024491855605604
 37
0.0
 40
37.4722846690953304
 41
2.2831541218637992
 42
50.0
 43
0.0
 44
0.0
 50
0.0
 51
0.0
 71
     0
 72
   100
 73
     1
 74
     1
 75
     0
 76
     0
 77
     0
 78
     0
  0
ENDTAB
  0
TABLE
  2
LTYPE
 70
     2
  0
LTYPE
  2
CONTINUOUS
 70
     0
  3
Solid line
 72
    65
 73
     0
 40
0.0
  0
LTYPE
  2
PHANTOM2
 70
     0
  3
___ _ _ ___ _ _ ___ _ _ ___ _ _
 72
    65
 73
     6
 40
1.25
 49
0.625
 49
-0.125
 49
0.125
 49
-0.125
 49
0.125
 49
-0.125
  0
ENDTAB
  0
TABLE
  2
LAYER
 70
     2
  0
LAYER
  2
0
 70
     0
 62
     7
  6
CONTINUOUS
  0
LAYER
  2
DEFPOINTS
 70
     0
 62
     7
  6
CONTINUOUS
  0
ENDTAB
  0
TABLE
  2
STYLE
 70
     1
  0
STYLE
  2
STANDARD
 70
     0
 40
0.0
 41
0.8
 50
0.0
 71
     0
 42
0.2
  3
txt
  4

  0
ENDTAB
  0
TABLE
  2
VIEW
 70
     0
  0
ENDTAB
  0
TABLE
  2
UCS
 70
     0
  0
ENDTAB
  0
TABLE
  2
APPID
 70
     9
  0
APPID
  2
ACAD
 70
     0
  0
APPID
  2
ACAD_MLEADERVER
 70
     0
  0
APPID
  2
ACAD_EXEMPT_FROM_CAD_STANDARDS
 70
     0
  0
APPID
  2
ACAD_NAV_VCDISPLAY
 70
     0
  0
APPID
  2
ACADANNOMONITORALERTICONDI
 70
     0
  0
APPID
  2
ACAD_DSTYLE_DIMJAG
 70
     0
  0
APPID
  2
ACAD_DSTYLE_DIMTALN
 70
     0
  0
APPID
  2
ACDBATTR
 70
     0
  0
APPID
  2
DCO15
 70
     0
  0
ENDTAB
  0
TABLE
  2
DIMSTYLE
 70
     1
  0
DIMSTYLE
  2
STANDARD
 70
     0
  3

  4

  5

  6

  7

 40
1.0
 41
0.1875
 42
0.0625
 43
0.38
 44
0.125
 45
0.0
 46
0.0
 47
1.5
 48
1.5
140
1.5
141
0.09
142
0.0
143
25.3999999999999986
144
1.0
145
0.0
146
1.0
147
0.09
 71
     0
 72
     0
 73
     1
 74
     1
 75
     0
 76
     0
 77
     0
 78
     4
170
     0
171
     2
172
     0
173
     0
174
     0
175
     0
176
     0
177
     0
178
     0
  0
ENDTAB
  0
ENDSEC
  0
SECTION
  2
BLOCKS
  0
BLOCK
  8
0
  2
$MODEL_SPACE
 70
     0
 10
0.0
 20
0.0
 30
0.0
  3
$MODEL_SPACE
  1

  0
ENDBLK
  5
21
  8
0
  0
BLOCK
 67
     1
  8
0
  2
$PAPER_SPACE
 70
     0
 10
0.0
 20
0.0
 30
0.0
  3
$PAPER_SPACE
  1

  0
ENDBLK
  5
1D
 67
     1
  8
0
  0
ENDSEC
  0
SECTION
  2
ENTITIES
  0
ATTDEF
  5
4EF9
  8
DEFPOINTS
 10
233.423049170194588
 20
-10.3925464951425504
 30
0.0
 40
0.001
  1
K-C97367D
  3

  2
MODELNUMBER
 70
     0
1001
ACDBATTR
1070
     0
1070
     1
  0
ATTDEF
  5
4EFA
  8
DEFPOINTS
 10
233.423049170194588
 20
-10.3942131618092297
 30
0.0
 40
0.001
  1
COMPOSED
  3

  2
TRADENAME
 70
     0
1001
ACDBATTR
1070
     0
1070
     1
  0
ATTDEF
  5
4EFB
  8
DEFPOINTS
 10
233.423049170194588
 20
-10.3958798284759109
 30
0.0
 40
0.001
  1
BATH FILLER
  3

  2
PRODUCT
 70
     0
1001
ACDBATTR
1070
     0
1070
     1
  0
LINE
  5
6CAE
  8
0
 10
231.0608146372105125
 20
-10.3959120848994004
 30
0.0
 11
235.7852240860104871
 21
-10.3959120848994004
 31
0.0
  0
LINE
  5
6CB0
  8
0
 10
230.0431158476627047
 20
17.3716246754005894
 30
0.0
 11
234.5844561955163101
 21
17.3716246754005894
 31
0.0
  0
LINE
  5
6CB1
  8
0
 10
232.2712051239765003
 20
15.5999605302005993
 30
0.0
 11
234.574833599244613
 21
15.5999605302005993
 31
0.0
  0
LINE
  5
6CB2
  8
0
 10
231.1080344346628976
 20
-9.7069357068994027
 30
0.0
 11
235.738004288558102
 21
-9.7069357068994027
 31
0.0
  0
ARC
  5
6CB3
  8
0
 10
231.1080587423857082
 20
-9.7541798058211722
 30
0.0
 40
0.0472441051750938
 50
90.0294794445779161
 51
179.9999946374528861
  0
LINE
  5
6CB4
  8
0
 10
231.0608146372105125
 20
-9.7541798013994025
 30
0.0
 11
231.0608146372105125
 21
-10.3959120848994004
 31
0.0
  0
LINE
  5
6CB5
  8
0
 10
232.2419169994105062
 20
-9.7069357068994027
 30
0.0
 11
232.2419169994105062
 21
15.5684708828989606
 31
0.0
  0
LINE
  5
6CB6
  8
0
 10
232.2419169994105062
 20
15.6296531782880699
 30
0.0
 11
232.2419169994105062
 21
15.7099425598505693
 31
0.0
  0
LINE
  5
6CB7
  8
0
 10
232.2419169994105062
 20
17.3912843772519814
 30
0.0
 11
232.2419169994105062
 21
21.4716097333266696
 31
0.0
  0
LINE
  5
6CB8
  8
0
 10
232.2419169994105062
 20
22.3857275834247602
 30
0.0
 11
232.2419169994105062
 21
23.7347509276005617
 31
0.0
  0
ARC
  5
6CB9
  8
0
 10
232.2735468109399903
 20
15.5684174749909605
 30
0.0
 40
0.0316298566198744
 50
94.2457241904330232
 51
179.9032544059226097
  0
ARC
  5
6CBA
  8
0
 10
232.2718253193204987
 20
15.6298631563117194
 30
0.0
 40
0.0299090569996158
 50
180.4022511768712036
 51
268.8118273763670913
  0
LINE
  5
6CBB
  8
0
 10
230.8763140596105075
 20
16.2822462476006002
 30
0.0
 11
231.8257628058105126
 21
16.2340227512006017
 31
0.0
  0
ARC
  5
6CBC
  8
0
 10
231.7582683387261966
 20
14.9092989658735302
 30
0.0
 40
1.3264420871256579
 50
81.6332639341390944
 51
87.0833111598440439
  0
ARC
  5
6CBD
  8
0
 10
231.9019952729040881
 20
15.8865414086968499
 30
0.0
 40
0.3386869435483252
 50
36.0612595913310798
 51
81.6332639341390944
  0
ARC
  5
6CBE
  8
0
 10
231.8195518535189876
 20
15.8826061979482294
 30
0.0
 40
0.4101643666986391
 50
11.3842862890125307
 51
29.7134702023601989
  0
ARC
  5
6CBF
  8
0
 10
231.080534144951713
 20
15.7514404744123002
 30
0.0
 40
1.1606615283404631
 50
1.043294979209431
 51
10.5308118249902591
  0
ARC
  5
6CC0
  8
0
 10
227.2714144969334029
 20
15.6687491576494597
 30
0.0
 40
4.9706731962096136
 50
0.4748320828506421
 51
1.196848251332536
  0
ARC
  5
6CC1
  8
0
 10
229.7577225309923961
 20
16.4910785199034784
 30
0.0
 40
0.0295739470260949
 50
180.0
 51
267.2706404408448861
  0
LINE
  5
6CC2
  8
0
 10
229.7563142700105061
 20
16.4615381214006007
 30
0.0
 11
230.1100012411104956
 21
16.4406239799006002
 31
0.0
  0
ARC
  5
6CC3
  8
0
 10
230.1103119737447003
 20
16.44954475026503
 30
0.0
 40
0.0089261805193932
 50
268.0050519639422077
 51
295.478391855732923
  0
ARC
  5
6CC4
  8
0
 10
230.6355625978530952
 20
15.6547175446126605
 30
0.0
 40
0.9438617017059062
 50
116.2817266952733064
 51
123.5333951313127017
  0
ARC
  5
6CC5
  8
0
 10
230.42626157900321
 20
16.0936373076969694
 30
0.0
 40
0.4576874636149074
 50
102.916927592460695
 51
117.1182587012178971
  0
ARC
  5
6CC6
  8
0
 10
230.3878900826437928
 20
16.2494401055639202
 30
0.0
 40
0.297260866980671
 50
74.6651208432947016
 51
102.4210533867878041
  0
ARC
  5
6CC7
  8
0
 10
230.2747942907043068
 20
15.9225959875488705
 30
0.0
 40
0.6427761138623841
 50
57.5280756776048534
 51
72.64733755453247
  0
ARC
  5
6CC8
  8
0
 10
229.6922597418947873
 20
15.0087594757740295
 30
0.0
 40
1.7264935185785331
 50
50.9025275168337217
 51
57.5004749996091675
  0
ARC
  5
6CC9
  8
0
 10
229.4902518789770056
 20
14.7400896032505706
 30
0.0
 40
2.0624347029866299
 50
48.9304749688220326
 51
51.2542687421363183
  0
ARC
  5
6CCA
  8
0
 10
230.8789859454223858
 20
16.3330876405802705
 30
0.0
 40
0.050911552853016
 50
228.4513405837003006
 51
266.9916819926669973
  0
LINE
  5
6CCB
  8
0
 10
229.728148584010512
 20
16.4910785199034784
 30
0.0
 11
229.728148584010512
 21
17.056657411811269
 31
0.0
  0
ARC
  5
6CCC
  8
0
 10
230.0431158476627047
 20
17.056657411811269
 30
0.0
 40
0.3149672636645338
 50
90.0
 51
180.0
  0
ARC
  5
6CCD
  8
0
 10
232.2615889007832948
 20
17.391296579525541
 30
0.0
 40
0.0196719051572833
 50
180.035539965724098
 51
270.0185620247199836
  0
ARC
  5
6CCE
  8
0
 10
232.5920866858940883
 20
25.5161865132889396
 30
0.0
 40
0.1996927559446417
 50
164.7079932717012127
 51
195.2920067282979062
  0
ARC
  5
6CCF
  8
0
 10
234.1466915045116934
 20
25.1635887748651683
 30
0.0
 40
1.793611570017275
 50
158.8374086353605037
 51
166.9413220311818975
  0
ARC
  5
6CD0
  8
0
 10
202.3865800802556976
 20
37.3825676186754521
 30
0.0
 40
32.2359109353439806
 50
338.9635570204767987
 51
340.7604727665275277
  0
LINE
  5
6CD1
  8
0
 10
233.0514714097936064
 20
26.8077112059262888
 30
0.0
 11
233.7945673134277911
 21
26.8077112059262888
 31
0.0
  0
ARC
  5
6CD2
  8
0
 10
233.053769281152114
 20
25.4907147594576493
 30
0.0
 40
1.3169984511091131
 50
90.0999685287362837
 51
95.2756927722555673
  0
ARC
  5
6CD3
  8
0
 10
232.980472704559304
 20
26.2958069206652709
 30
0.0
 40
0.5085784045069222
 50
95.3929321246879738
 51
102.754324607184202
  0
ARC
  5
6CD4
  8
0
 10
232.8977972808471009
 20
26.6743460456599699
 30
0.0
 40
0.1211626962470935
 50
104.1423807997473006
 51
119.4078411175702996
  0
ARC
  5
6CD5
  8
0
 10
232.860206143338786
 20
26.745309222979639
 30
0.0
 40
0.0409390020614365
 50
122.3441835257612951
 51
158.5919092429128057
  0
ARC
  5
6CD6
  8
0
 10
232.5188948717662072
 20
25.4997564938153189
 30
0.0
 40
0.1248069630976112
 50
196.8784042361471904
 51
235.6120708634288121
  0
ARC
  5
6CD7
  8
0
 10
232.6061531142800902
 20
25.6272515544634096
 30
0.0
 40
0.2793028898279851
 50
235.6120708634288121
 51
249.3891350464143102
  0
ARC
  5
6CD8
  8
0
 10
233.0646168474133049
 20
25.2831833874065595
 30
0.0
 40
0.5602412521975039
 50
149.6578404060954028
 51
162.965459424059901
  0
ARC
  5
6CD9
  8
0
 10
233.547903331966495
 20
25.1396936844254206
 30
0.0
 40
1.064369219860638
 50
163.2014171798263931
 51
168.5270115393338131
  0
ARC
  5
6CDA
  8
0
 10
232.4072702616913091
 20
25.6337309075549911
 30
0.0
 40
0.2986995291032696
 50
286.2303823297074814
 51
291.8538727434445263
  0
ARC
  5
6CDB
  8
0
 10
232.4465172562630073
 20
25.4722206822319883
 30
0.0
 40
0.1362625553920036
 50
301.8676960634700208
 51
306.7131765599203845
  0
ARC
  5
6CDC
  8
0
 10
232.5776263314307073
 20
25.3128692798927908
 30
0.0
 40
0.0705475170924343
 50
122.9500337752239005
 51
134.7311700927702134
  0
ARC
  5
6CDD
  8
0
 10
234.7562812336126115
 20
22.267232094823509
 30
0.0
 40
3.8151299848575801
 50
122.5232389075655988
 51
125.5289479836899034
  0
ARC
  5
6CDE
  8
0
 10
232.7262049783035991
 20
25.4541368029148813
 30
0.0
 40
0.0366028111550864
 50
96.5388957559795102
 51
125.1951016814061006
  0
LINE
  5
6CDF
  8
0
 10
232.7220367349839876
 20
25.4905015046472485
 30
0.0
 11
234.124001988237012
 21
25.4905015046472485
 31
0.0
  0
LINE
  5
6CE0
  8
0
 10
229.9598214216105134
 20
17.9199815945518885
 30
0.0
 11
229.9598214216105134
 21
17.6710947645847298
 31
0.0
  0
LINE
  5
6CE1
  8
0
 10
229.9598214216105134
 20
17.5732315202920617
 30
0.0
 11
229.9598214216105134
 21
17.3604112854803283
 31
0.0
  0
LINE
  5
6CE2
  8
0
 10
230.0422997489106081
 20
17.7408418398837107
 30
0.0
 11
230.0422997489106081
 21
17.5700794019689504
 31
0.0
  0
LINE
  5
6CE3
  8
0
 10
230.3300987017105115
 20
17.623348402386771
 30
0.0
 11
230.3300987017105115
 21
17.452591115650339
 31
0.0
  0
ARC
  5
6CE4
  8
0
 10
230.257939607829087
 20
18.0010898007200701
 30
0.0
 40
0.3379786233978475
 50
208.1078929977628036
 51
230.3550634558883132
  0
ARC
  5
6CE5
  8
0
 10
230.2579414512917992
 20
17.8303284889105598
 30
0.0
 40
0.3379806666953289
 50
208.1078439009401109
 51
230.3549446190739047
  0
ARC
  5
6CE6
  8
0
 10
230.5926518868490973
 20
18.5069804760387804
 30
0.0
 40
1.0865869032556801
 50
239.5692760594394031
 51
256.0171709764330217
  0
ARC
  5
6CE7
  8
0
 10
229.7795760090413921
 20
16.6860757832085618
 30
0.0
 40
1.0869936512256519
 50
59.5714438608626295
 51
76.0132451464517516
  0
ARC
  5
6CE8
  8
0
 10
230.4125770864947071
 20
18.2793410898322115
 30
0.0
 40
0.6280831115318026
 50
253.9964954955553935
 51
286.0035045044447202
  0
ARC
  5
6CE9
  8
0
 10
230.3858298198734929
 20
18.1750658565011491
 30
0.0
 40
0.5204838276502431
 50
235.039685656671395
 51
253.6621082756637122
  0
ARC
  5
6CEA
  8
0
 10
230.2779884330205959
 20
18.0193752063792303
 30
0.0
 40
0.3310946564570948
 50
213.6038421088404107
 51
234.8959132229614113
  0
ARC
  5
6CEB
  8
0
 10
230.2182404789614907
 20
17.9802792875291502
 30
0.0
 40
0.2596944900032641
 50
195.1911813297489005
 51
213.7152546247062048
  0
ARC
  5
6CEC
  8
0
 10
230.4125789300103122
 20
18.4887329689501314
 30
0.0
 40
0.7393472820827234
 50
246.8201261006967115
 51
293.1798738993032885
  0
LINE
  5
6CED
  8
0
 10
229.86257557501051
 20
20.3207949995369503
 30
0.0
 11
229.86257557501051
 21
18.1448906859193393
 31
0.0
  0
ARC
  5
6CEE
  8
0
 10
225.4444382812370975
 20
20.1771952638655492
 30
0.0
 40
4.4204703404407661
 50
1.8615907214297169
 51
6.6180096388332013
  0
ARC
  5
6CEF
  8
0
 10
228.0513121904272111
 20
20.4796512784245301
 30
0.0
 40
1.796109233588467
 50
6.6180096388329979
 51
14.1988306169158793
  0
ARC
  5
6CF0
  8
0
 10
229.1368313800305998
 20
20.7440727467235497
 30
0.0
 40
0.6789654461970082
 50
15.0360551047312896
 51
28.2237056234881791
  0
ARC
  5
6CF1
  8
0
 10
228.4879932653362005
 20
21.9493083543266394
 30
0.0
 40
0.2327691331512082
 50
156.136655564811889
 51
203.8633444351860931
  0
ARC
  5
6CF2
  8
0
 10
228.4864151821587086
 20
22.0141962193603185
 30
0.0
 40
0.2365936666634908
 50
167.3260703095783128
 51
192.6739296904191008
  0
ARC
  5
6CF3
  8
0
 10
230.4125772509104877
 20
16.5219647567207808
 30
0.0
 40
6.1895277718624371
 50
81.3214121899625155
 51
98.6785878100374703
  0
ARC
  5
6CF4
  8
0
 10
230.169848912909913
 20
18.2563850832200316
 30
0.0
 40
4.4383936812416476
 50
98.9594904997903058
 51
106.5804564953829043
  0
ARC
  5
6CF5
  8
0
 10
229.5250715764690881
 20
20.4318129246443085
 30
0.0
 40
2.1694274220257048
 50
106.654823616804606
 51
114.7644633828884935
  0
ARC
  5
6CF6
  8
0
 10
229.0680207562679129
 20
21.42590678471921
 30
0.0
 40
1.0753003156552781
 50
114.8388305043102946
 51
131.1455231415758078
  0
ARC
  5
6CF7
  8
0
 10
228.6798832934780137
 20
21.9014617323566192
 30
0.0
 40
0.4622638371099713
 50
133.7020540897553076
 51
144.6972214251782134
  0
ARC
  5
6CF8
  8
0
 10
228.5522004724221006
 20
21.9920226556956315
 30
0.0
 40
0.305725784794361
 50
144.7197275140972863
 51
165.9766286594660016
  0
ARC
  5
6CF9
  8
0
 10
230.4125772509104877
 20
15.9463151555506304
 30
0.0
 40
6.6805902176208551
 50
82.5289695942098547
 51
97.4710304057885537
  0
ARC
  5
6CFA
  8
0
 10
230.1600397891585885
 20
17.974864486490219
 30
0.0
 40
4.6364449061289941
 50
97.6362319440808619
 51
103.3374189123092037
  0
ARC
  5
6CFB
  8
0
 10
229.7734217340309044
 20
19.6056161222055501
 30
0.0
 40
2.9604901281176779
 50
103.3374189123092037
 51
109.9436704139374967
  0
ARC
  5
6CFC
  8
0
 10
229.3235813463431043
 20
20.8453333427853202
 30
0.0
 40
1.6416818928548129
 50
109.9436704139374967
 51
120.6212614633845988
  0
ARC
  5
6CFD
  8
0
 10
228.9007163704924039
 20
21.5811429153635004
 30
0.0
 40
0.7931626966258269
 50
121.408294283375696
 51
131.1462506315639018
  0
ARC
  5
6CFE
  8
0
 10
228.6901707647120077
 20
21.8318288755843888
 30
0.0
 40
0.4658964773444819
 50
131.9332834515529953
 51
152.9813386182273973
  0
ARC
  5
6CFF
  8
0
 10
228.9746904380749868
 20
22.1271827822443292
 30
0.0
 40
0.7506011016820975
 50
201.2496991178807093
 51
217.0361821054488018
  0
ARC
  5
6D00
  8
0
 10
229.1788084357397963
 20
22.2869827325209116
 30
0.0
 40
1.0098005156887011
 50
217.2981480216915031
 51
233.2119747310480022
  0
ARC
  5
6D01
  8
0
 10
229.6232517085296934
 20
22.9091245970256914
 30
0.0
 40
1.7742825401511539
 50
233.7492703519783959
 51
250.0780575277686921
  0
ARC
  5
6D02
  8
0
 10
230.1449299841173115
 20
24.3106786858187895
 30
0.0
 40
3.269746300633058
 50
249.8521007122442938
 51
250.2059891148151962
  0
ARC
  5
6D03
  8
0
 10
230.1449299841173115
 20
24.3106786858187895
 30
0.0
 40
3.269746300633058
 50
252.6998867932863959
 51
259.7868304676441085
  0
ARC
  5
6D04
  8
0
 10
230.3636240416643091
 20
25.4750919444359987
 30
0.0
 40
4.4544947666198604
 50
259.6740832150385927
 51
259.6744037606006259
  0
ARC
  5
6D05
  8
0
 10
230.3636240416643091
 20
25.4750919444359987
 30
0.0
 40
4.4544947666198604
 50
261.4357735426764862
 51
265.1830375468902048
  0
ARC
  5
6D06
  8
0
 10
230.4457518010655122
 20
26.53483169784921
 30
0.0
 40
5.5173927016936499
 50
265.2573047456542099
 51
265.2605146794401776
  0
ARC
  5
6D07
  8
0
 10
230.4457518010655122
 20
26.53483169784921
 30
0.0
 40
5.5173927016936499
 50
267.1030631123041985
 51
268.5206339937208213
  0
ARC
  5
6D08
  8
0
 10
230.2953958680660946
 20
20.7665648611480691
 30
0.0
 40
0.2528370316925295
 50
78.7996872733900915
 51
88.2063619248703645
  0
ARC
  5
6D09
  8
0
 10
230.1697741377903128
 20
18.14782116691784
 30
0.0
 40
0.3072125399342381
 50
180.5465491076654132
 51
196.8017122455551089
  0
ARC
  5
6D0A
  8
0
 10
230.2163135624572874
 20
18.1701429251152611
 30
0.0
 40
0.3583050309077309
 50
198.067670655255796
 51
223.7859238333435883
  0
ARC
  5
6D0B
  8
0
 10
230.3259270395423073
 20
18.2804741283661194
 30
0.0
 40
0.5137978108331737
 50
224.2099775954723953
 51
246.5616529264636085
  0
ARC
  5
6D0C
  8
0
 10
230.4126128733003895
 20
17.5732315202920617
 30
0.0
 40
0.452791451713165
 50
169.313712358916689
 51
179.9994188432341957
  0
ARC
  5
6D0D
  8
0
 10
230.4125772909864907
 20
18.0246468957000801
 30
0.0
 40
0.6239380557461747
 50
251.3762656226213892
 51
288.6237343773785256
  0
ARC
  5
6D0E
  8
0
 10
230.3585849396193055
 20
17.8664880870097491
 30
0.0
 40
0.4568189557476864
 50
226.3237692114120136
 51
251.4586427978825895
  0
ARC
  5
6D0F
  8
0
 10
230.2353016216098069
 20
17.7373722683785395
 30
0.0
 40
0.2782981695063329
 50
197.5646335993370997
 51
226.3237692114120136
  0
ARC
  5
6D10
  8
0
 10
230.4125778378663938
 20
17.7977871833703496
 30
0.0
 40
0.4527560059719601
 50
215.3103252012469966
 51
250.2647658820461913
  0
LINE
  5
6D11
  8
0
 10
229.9928379410580135
 20
21.0352676563151206
 30
0.0
 11
229.9889491153105894
 21
20.9897598107006012
 31
0.0
  0
LINE
  5
6D12
  8
0
 10
229.8575483922410001
 20
21.0494382003090905
 30
0.0
 11
229.8603858226105103
 21
21.0019894315006006
 31
0.0
  0
ARC
  5
6D13
  8
0
 10
229.873308768993013
 20
21.0029515302042995
 30
0.0
 40
0.0129587104729095
 50
184.25775102045219
 51
246.0018079751745006
  0
ARC
  5
6D14
  8
0
 10
229.8859519438638017
 20
21.0313509776409795
 30
0.0
 40
0.044045339198447
 50
246.0018079751745006
 51
257.5062018861631259
  0
ARC
  5
6D15
  8
0
 10
230.0108954388884968
 20
21.7605804468856583
 30
0.0
 40
0.783852444573515
 50
260.1218919030915799
 51
266.3763093368056047
  0
ARC
  5
6D16
  8
0
 10
229.9683743498713966
 20
21.0899314814211003
 30
0.0
 40
0.1118568634028822
 50
266.4013722686160008
 51
274.8047491865186203
  0
ARC
  5
6D17
  8
0
 10
229.9764294313544895
 20
20.9909776373465213
 30
0.0
 40
0.0125787753020147
 50
275.9966048398025009
 51
354.4441494619613877
  0
ARC
  5
6D18
  8
0
 10
230.0929299880230019
 20
21.1604285994363188
 30
0.0
 40
0.1288460344860411
 50
249.673630752335896
 51
285.2928217918524183
  0
ARC
  5
6D19
  8
0
 10
230.0823083050304092
 20
20.9187755122298711
 30
0.0
 40
0.1255595431755121
 50
69.1911933977822287
 51
105.7752591464057019
  0
ARC
  5
6D1A
  8
0
 10
230.1178546279793125
 20
21.6754356611045402
 30
0.0
 40
0.6537601473394595
 50
261.8246544278572969
 51
271.7964042948494239
  0
ARC
  5
6D1B
  8
0
 10
230.1338468984797032
 20
21.2383573671784198
 30
0.0
 40
0.2164073794451022
 50
271.1919840083215263
 51
284.3689249802848167
  0
ARC
  5
6D1C
  8
0
 10
230.1829002611960107
 20
21.0477070264217794
 30
0.0
 40
0.0195487650995483
 50
283.7645046937586244
 51
350.095389788970806
  0
LINE
  5
6D1D
  8
0
 10
230.2021576615105118
 20
21.0443444753006013
 30
0.0
 11
230.2044849628105965
 21
21.0759910273005993
 31
0.0
  0
ARC
  5
6D1E
  8
0
 10
230.0602181486769098
 20
21.2696303942833289
 30
0.0
 40
0.2438836722772862
 50
254.4178562618498916
 51
261.6705432484454263
  0
ARC
  5
6D1F
  8
0
 10
230.0093013246257101
 20
21.0870471538058801
 30
0.0
 40
0.0543337773295226
 50
235.4957337770653112
 51
254.4178562618498916
  0
ARC
  5
6D20
  8
0
 10
229.9883914084674075
 20
21.0550827661814886
 30
0.0
 40
0.0161713503594672
 50
185.6478360612296967
 51
232.3931261833299118
  0
LINE
  5
6D21
  8
0
 10
229.9722985606105965
 20
21.0534912825005911
 30
0.0
 11
229.9704152840135976
 21
21.0790998866502797
 31
0.0
  0
ARC
  5
6D22
  8
0
 10
230.0597218253811889
 20
20.4294252018884599
 30
0.0
 40
0.6646343879485547
 50
79.6514187603622332
 51
94.8174640959704789
  0
ARC
  5
6D23
  8
0
 10
230.1472894688853046
 20
20.9240111758422493
 30
0.0
 40
0.162385959290357
 50
69.3768729333490626
 51
78.6978498903661858
  0
LINE
  5
6D24
  8
0
 10
229.7024365784104987
 20
21.0901174368006004
 30
0.0
 11
229.6965447543105086
 21
21.0361419962006018
 31
0.0
  0
LINE
  5
6D25
  8
0
 10
229.5640468247106014
 20
21.1083402834006009
 30
0.0
 11
229.5683058419105009
 21
21.0503454210005891
 31
0.0
  0
ARC
  5
6D26
  8
0
 10
229.5823493360531984
 20
21.0520501993972609
 30
0.0
 40
0.0141465895931145
 50
186.9214264052066028
 51
243.6249578408639991
  0
ARC
  5
6D27
  8
0
 10
229.6063815397610028
 20
21.1070450863494088
 30
0.0
 40
0.0741497445878682
 50
245.8668509371800894
 51
256.3702497356633216
  0
ARC
  5
6D28
  8
0
 10
229.6942249993093981
 20
21.4909533853444401
 30
0.0
 40
0.4679745010457909
 50
256.9943141664372774
 51
266.4275247436584095
  0
ARC
  5
6D29
  8
0
 10
229.6718232150267056
 20
21.1379426878785388
 30
0.0
 40
0.1142544756443423
 50
266.6089491639420999
 51
275.9292933506035865
  0
ARC
  5
6D2A
  8
0
 10
229.682369556803792
 20
21.0386377582939907
 30
0.0
 40
0.0143932294077051
 50
275.0072583145225735
 51
350.0145351176540771
  0
ARC
  5
6D2B
  8
0
 10
229.6480835967479095
 20
21.1514817878410213
 30
0.0
 40
0.1227391381865157
 50
250.3807193251730894
 51
274.7081875609425765
  0
ARC
  5
6D2C
  8
0
 10
229.6174380847230907
 20
20.9173021616833594
 30
0.0
 40
0.1190360688441892
 50
69.9962499982057551
 51
95.0926568879100955
  0
ARC
  5
6D2D
  8
0
 10
229.551636377920488
 20
20.4794935966125813
 30
0.0
 40
0.6289691365033724
 50
76.1277592807075933
 51
88.8694002146108772
  0
LINE
  5
6D2E
  8
0
 10
229.1730930630104979
 20
21.1935943271005911
 30
0.0
 11
229.1676353396105128
 21
21.1428412876005893
 31
0.0
  0
LINE
  5
6D2F
  8
0
 10
229.0376181073106068
 20
21.2353292788005987
 30
0.0
 11
229.0399088070105051
 21
21.1757049181005996
 31
0.0
  0
ARC
  5
6D30
  8
0
 10
229.0519126948506994
 20
21.1761660937333716
 30
0.0
 40
0.0120127434936631
 50
182.2001562184580052
 51
245.4873123174409102
  0
ARC
  5
6D31
  8
0
 10
229.4210879175003015
 20
22.1463958970882189
 30
0.0
 40
1.050080833277024
 50
249.1259586034242091
 51
253.988464934372189
  0
ARC
  5
6D32
  8
0
 10
229.1995155321243942
 20
21.3787997734196402
 30
0.0
 40
0.2511492982586397
 50
254.2736421783970115
 51
258.8172590426850093
  0
ARC
  5
6D33
  8
0
 10
229.1542432769406901
 20
21.1456678620646201
 30
0.0
 40
0.0136871058209741
 50
255.4637900007236908
 51
348.0818777426673023
  0
ARC
  5
6D34
  8
0
 10
229.0089473328083045
 20
20.8354273862099184
 30
0.0
 40
0.3271539078214943
 50
68.3477702022598521
 51
77.7921404603868751
  0
ARC
  5
6D35
  8
0
 10
229.1963405041599913
 20
21.4510501510908611
 30
0.0
 40
0.3186088916622086
 50
248.2208230369658963
 51
257.9190876256794809
  0
ARC
  5
6D36
  8
0
 10
228.8391043707231916
 20
20.5564505637406398
 30
0.0
 40
0.7073075804593947
 50
73.3502938741265638
 51
73.7003337267990304
  0
ARC
  5
6D37
  8
0
 10
228.9194832319356863
 20
20.5068722335656091
 30
0.0
 40
0.732055448833548
 50
69.7305650390357528
 51
72.8887394482908064
  0
LINE
  5
6D38
  8
0
 10
229.1707881353104881
 20
21.2777864747006014
 30
0.0
 11
229.1638874610104892
 21
21.2211794771005984
 31
0.0
  0
LINE
  5
6D39
  8
0
 10
229.0320654621106087
 20
21.3098181965006006
 30
0.0
 11
229.0360486568104932
 21
21.2450943802006016
 31
0.0
  0
ARC
  5
6D3A
  8
0
 10
229.035122088115088
 20
21.0949214049940998
 30
0.0
 40
0.2149185286621896
 50
82.5812975386967025
 51
90.8149026298413844
  0
ARC
  5
6D3B
  8
0
 10
229.0147927636446923
 20
20.9289512533100606
 30
0.0
 40
0.3821263765611324
 50
65.9063184142607668
 51
82.7718406859951301
  0
ARC
  5
6D3C
  8
0
 10
229.1479234569638948
 20
21.2238267416535891
 30
0.0
 40
0.0161820096037833
 50
279.1332128231513821
 51
350.5844874821664803
  0
ARC
  5
6D3D
  8
0
 10
229.1364430915735966
 20
21.2806560067537305
 30
0.0
 40
0.0741491988168335
 50
266.2766830294049214
 51
280.9217720819132182
  0
ARC
  5
6D3E
  8
0
 10
229.1452689173308102
 20
21.4156678835124907
 30
0.0
 40
0.2094492413413302
 50
256.7331433828884997
 51
266.2658120007545222
  0
ARC
  5
6D3F
  8
0
 10
229.1443718949936965
 20
21.4251654788174015
 30
0.0
 40
0.21850883247233
 50
244.6806208760137054
 51
257.5336140981087283
  0
ARC
  5
6D40
  8
0
 10
229.0706860638769058
 20
21.2654169736044594
 30
0.0
 40
0.0426277062923459
 50
223.8792628469290094
 51
242.3799759431840926
  0
ARC
  5
6D41
  8
0
 10
229.0517681952360078
 20
21.2463182412058913
 30
0.0
 40
0.0157671089318518
 50
184.4518419293947886
 51
221.5032788935372992
  0
ARC
  5
6D42
  8
0
 10
229.1138275165120035
 20
21.2843483153559099
 30
0.0
 40
0.0686820707010097
 50
235.1430864937595118
 51
279.9221168056224087
  0
ARC
  5
6D43
  8
0
 10
229.0868072254243941
 20
21.1621386178794388
 30
0.0
 40
0.066977146433891
 50
54.5409412488971626
 51
100.5242620504838982
  0
LINE
  5
6D44
  8
0
 10
228.768686484310507
 20
21.4689614919005898
 30
0.0
 11
228.761910657310608
 21
21.4120863026005885
 31
0.0
  0
LINE
  5
6D45
  8
0
 10
228.6328695230104984
 20
21.5281591503005991
 30
0.0
 11
228.6349093692105896
 21
21.4551723283005984
 31
0.0
  0
ARC
  5
6D46
  8
0
 10
228.6542382803870055
 20
21.4563964878506503
 30
0.0
 40
0.0193676372816157
 50
183.6238783518668924
 51
217.6791731769498881
  0
ARC
  5
6D47
  8
0
 10
228.6922052872120901
 20
21.4885845495845906
 30
0.0
 40
0.069128296164127
 50
219.559447898127587
 51
236.6477278440858072
  0
ARC
  5
6D48
  8
0
 10
228.7785133831370956
 20
21.6183695418982502
 30
0.0
 40
0.2249906183636154
 50
236.4593248518170014
 51
253.9960649958493946
  0
ARC
  5
6D49
  8
0
 10
228.7464910897294033
 20
21.5064095070771018
 30
0.0
 40
0.1085412253186972
 50
253.9503716787073131
 51
267.784086604314723
  0
ARC
  5
6D4A
  8
0
 10
228.7430536655568858
 20
21.4175740445337013
 30
0.0
 40
0.0196392833250387
 50
267.7840866043180199
 51
343.7740031587109115
  0
ARC
  5
6D4B
  8
0
 10
228.6762156693912118
 20
21.3659222455008404
 30
0.0
 40
0.0659971060968032
 50
43.424202987822909
 51
92.81119912743344
  0
ARC
  5
6D4C
  8
0
 10
228.7205654302300104
 20
21.47634430370762
 30
0.0
 40
0.0651546070567879
 50
223.0830698972582979
 51
273.1523322179983211
  0
ARC
  5
6D4D
  8
0
 10
228.5970249694597953
 20
21.3200205950011892
 30
0.0
 40
0.2112024863049229
 50
71.1183285691223972
 51
80.2286619502146152
  0
ARC
  5
6D4E
  8
0
 10
228.5226246852845975
 20
21.0868437313601191
 30
0.0
 40
0.4559369924169012
 50
60.1496611705350901
 51
71.7545569859218801
  0
ARC
  5
6D4F
  8
0
 10
228.6735955383599048
 20
21.3529072863152116
 30
0.0
 40
0.1500362177470463
 50
50.6699523507951284
 51
59.5813641933112095
  0
LINE
  5
6D50
  8
0
 10
229.0557620823105083
 20
21.5297364417005994
 30
0.0
 11
229.0480905501104871
 21
21.4685072038005984
 31
0.0
  0
LINE
  5
6D51
  8
0
 10
228.9161317010106131
 20
21.5665652043005913
 30
0.0
 11
228.9203993419104961
 21
21.4945084244005997
 31
0.0
  0
ARC
  5
6D52
  8
0
 10
228.9501410208937955
 20
21.4996119290407997
 30
0.0
 40
0.0301763687072369
 50
189.7368066024280893
 51
228.7165537111906133
  0
ARC
  5
6D53
  8
0
 10
228.9979055879771863
 20
21.5610262152860983
 30
0.0
 40
0.1079399826937055
 50
231.1735235623158076
 51
251.0046351623543899
  0
ARC
  5
6D54
  8
0
 10
229.016626535000114
 20
21.60451556839174
 30
0.0
 40
0.1551951489975811
 50
249.6953624245219032
 51
269.6732995593005171
  0
ARC
  5
6D55
  8
0
 10
229.0160168342549127
 20
21.4975891718626784
 30
0.0
 40
0.0482670142074897
 50
269.6732995593005171
 51
300.7844699902399839
  0
ARC
  5
6D56
  8
0
 10
229.0299846012669889
 20
21.4708973997355308
 30
0.0
 40
0.0182630342531745
 50
306.0040041753524065
 51
352.4797743786284059
  0
ARC
  5
6D57
  8
0
 10
228.9340736940573038
 20
21.4927291073445517
 30
0.0
 40
0.0759847637898089
 50
86.4631981467698978
 51
103.6580173247537004
  0
ARC
  5
6D58
  8
0
 10
228.9228097930497938
 20
21.3104870464700511
 30
0.0
 40
0.258574588855976
 50
67.2410755167869638
 51
86.4631981467698978
  0
ARC
  5
6D59
  8
0
 10
228.9662384525520054
 20
21.4140074273689898
 30
0.0
 40
0.1463136529628062
 50
52.2758068235365414
 51
67.2410755167871201
  0
ARC
  5
6D5A
  8
0
 10
228.9753040264276081
 20
21.4364670275357483
 30
0.0
 40
0.0443157690763158
 50
38.8851493540492115
 51
111.540298514466599
  0
ARC
  5
6D5B
  8
0
 10
228.9936933548995057
 20
21.5061304794663002
 30
0.0
 40
0.0448364939443017
 50
219.3729252303540136
 51
291.0525226381603261
  0
LINE
  5
6D5C
  8
0
 10
229.6582996144105095
 20
21.1771376304006012
 30
0.0
 11
229.6556891308104866
 21
21.1416417334006006
 31
0.0
  0
LINE
  5
6D5D
  8
0
 10
229.4230531774105941
 20
21.2043068332006008
 30
0.0
 11
229.4258540080105888
 21
21.1662213734005995
 31
0.0
  0
ARC
  5
6D5E
  8
0
 10
229.4434648218854988
 20
21.1675164846228583
 30
0.0
 40
0.0176583713409704
 50
184.2059991340088061
 51
229.6382140125691933
  0
ARC
  5
6D5F
  8
0
 10
229.4757732586479051
 20
21.2055301082043606
 30
0.0
 40
0.0675469538406654
 50
229.638214012570586
 51
244.4586906921068135
  0
ARC
  5
6D60
  8
0
 10
229.556797296313988
 20
21.41426417172881
 30
0.0
 40
0.2913070561236984
 50
247.7830017828624136
 51
255.9675764636307065
  0
ARC
  5
6D61
  8
0
 10
229.6000905865375046
 20
21.6110040094369609
 30
0.0
 40
0.4927062790533332
 50
256.6307036722108137
 51
268.3410680289759966
  0
ARC
  5
6D62
  8
0
 10
229.5940801768151118
 20
21.3322555976865011
 30
0.0
 40
0.2139106366505036
 50
267.7888042303408156
 51
279.1325961166498928
  0
ARC
  5
6D63
  8
0
 10
229.6196656333162878
 20
21.1735681038818484
 30
0.0
 40
0.0531738515712782
 50
279.0525570039520176
 51
302.6794053115074234
  0
ARC
  5
6D64
  8
0
 10
229.6366131108312914
 20
21.1440152892570588
 30
0.0
 40
0.0192231190407408
 50
307.7287792852586108
 51
352.9073588900263871
  0
LINE
  5
6D65
  8
0
 10
229.5575925189106101
 20
21.2854538268006017
 30
0.0
 11
229.5615002409105045
 21
21.2219564553005995
 31
0.0
  0
LINE
  5
6D66
  8
0
 10
229.6968405408105127
 20
21.2732568613005988
 30
0.0
 11
229.6894200087104991
 21
21.2123854132006002
 31
0.0
  0
ARC
  5
6D67
  8
0
 10
229.6712952337788067
 20
21.2153062447589811
 30
0.0
 40
0.0183586144171416
 50
298.4546931036072124
 51
350.8454149786721246
  0
ARC
  5
6D68
  8
0
 10
229.6514075409853035
 20
21.2571495143286917
 30
0.0
 40
0.0646692244045724
 50
274.955172513899015
 51
296.2820497834720754
  0
ARC
  5
6D69
  8
0
 10
229.6398833068861904
 20
21.3796804611912101
 30
0.0
 40
0.1877397875343617
 50
256.3738663663398256
 51
275.2290463040188229
  0
ARC
  5
6D6A
  8
0
 10
229.6186413109246018
 20
21.2938339300273505
 30
0.0
 40
0.0993061064889773
 50
244.8088362424047091
 51
256.6161448813920174
  0
ARC
  5
6D6B
  8
0
 10
229.5909090780506006
 20
21.2348763357696697
 30
0.0
 40
0.0341518690148751
 50
225.2349235919845967
 51
244.8088362424064997
  0
ARC
  5
6D6C
  8
0
 10
229.5798118375153933
 20
21.2236877184671791
 30
0.0
 40
0.0183932553500564
 50
185.4009541024805117
 51
225.2349235919872967
  0
ARC
  5
6D6D
  8
0
 10
229.5987671466158133
 20
21.1296200270458812
 30
0.0
 40
0.1611816463269373
 50
90.0017152496569963
 51
104.8005367619859953
  0
ARC
  5
6D6E
  8
0
 10
229.6021527915548859
 20
20.9937133467426911
 30
0.0
 40
0.2971076725113593
 50
77.6344785168407583
 51
90.6538499915788236
  0
ARC
  5
6D6F
  8
0
 10
229.6378647929587942
 20
21.1521357112420887
 30
0.0
 40
0.1347162641486596
 50
64.037838044314995
 51
78.0418270095715059
  0
ARC
  5
6D70
  8
0
 10
229.6216958592212904
 20
21.1645747731787885
 30
0.0
 40
0.0496677789369207
 50
54.1024995409755007
 51
116.2073740991305044
  0
ARC
  5
6D71
  8
0
 10
229.6290756077908952
 20
21.2516366130146004
 30
0.0
 40
0.0516289854114127
 50
235.4041757690496013
 51
294.9056978710557928
  0
ARC
  5
6D72
  8
0
 10
229.4647376312296956
 20
21.0576805101491296
 30
0.0
 40
0.1524364533233294
 50
93.659358840431068
 51
105.869941303765799
  0
ARC
  5
6D73
  8
0
 10
229.4819406441062029
 20
20.6678817548800318
 30
0.0
 40
0.5425932280940133
 50
79.172735243105393
 51
92.8451053481391995
  0
ARC
  5
6D74
  8
0
 10
229.5833061261081127
 20
21.0460775170562115
 30
0.0
 40
0.1509992602551948
 50
60.2215164867406614
 51
77.3778110017581042
  0
ARC
  5
6D75
  8
0
 10
229.5513942624041022
 20
21.2335531476464396
 30
0.0
 40
0.0996161744659251
 50
239.8151469430086138
 51
286.7158711575015104
  0
ARC
  5
6D76
  8
0
 10
229.5298842431072046
 20
21.0513934911228908
 30
0.0
 40
0.1002114051275932
 50
59.9626907253472083
 51
106.5683273751636051
  0
LINE
  5
6D77
  8
0
 10
229.3883047775105126
 20
21.3611036830006
 30
0.0
 11
229.3856059469104878
 21
21.3244065319005998
 31
0.0
  0
LINE
  5
6D78
  8
0
 10
229.1527405672104862
 20
21.3981559501005911
 30
0.0
 11
229.1558028587105866
 21
21.35651646450059
 31
0.0
  0
ARC
  5
6D79
  8
0
 10
229.1847560203509886
 20
21.3606006366998002
 30
0.0
 40
0.0292398021800999
 50
188.0292438317424057
 51
223.6324362986447056
  0
ARC
  5
6D7A
  8
0
 10
229.2285671962002027
 20
21.40920281259028
 30
0.0
 40
0.0946158256376253
 50
226.6291246236806955
 51
244.0252454559719979
  0
ARC
  5
6D7B
  8
0
 10
229.3206044366131096
 20
21.6262901286183613
 30
0.0
 40
0.3303150693617663
 50
246.1659618233667004
 51
270.5583754717899865
  0
ARC
  5
6D7C
  8
0
 10
229.3221371320730952
 20
21.4540867949675693
 30
0.0
 40
0.1581050434858753
 50
270.6111238576792744
 51
285.7236224832428775
  0
ARC
  5
6D7D
  8
0
 10
229.3494313763769128
 20
21.3423001505725196
 30
0.0
 40
0.0432919175069587
 50
291.0529790567665032
 51
312.007158637480984
  0
ARC
  5
6D7E
  8
0
 10
229.3640172202212
 20
21.3263448633672184
 30
0.0
 40
0.0216755680188682
 50
311.5828400301843999
 51
354.8694878287540178
  0
ARC
  5
6D7F
  8
0
 10
229.1855301611118136
 20
21.3169312854168886
 30
0.0
 40
0.0875933994156406
 50
94.9178803470610859
 51
111.9834425771600053
  0
ARC
  5
6D80
  8
0
 10
229.2089380711531987
 20
21.0715258788871509
 30
0.0
 40
0.3341098827429599
 50
84.7899020022645971
 51
95.3095029969370557
  0
ARC
  5
6D81
  8
0
 10
229.2111507980673935
 20
21.0282043271723786
 30
0.0
 40
0.3771014631944331
 50
61.9801115761754318
 51
85.7224633148222068
  0
ARC
  5
6D82
  8
0
 10
229.2805500588983989
 20
21.3935210957226793
 30
0.0
 40
0.0762396964058213
 50
229.7227248036838034
 51
292.7246396253224248
  0
ARC
  5
6D83
  8
0
 10
229.2605668489325126
 20
21.264083558829121
 30
0.0
 40
0.0770618100117458
 50
50.0965654721131273
 51
112.3507989568939962
  0
LINE
  5
6D84
  8
0
 10
229.4881776313077069
 20
21.43520044389955
 30
0.0
 11
229.4920853533076865
 21
21.3717030723995514
 31
0.0
  0
LINE
  5
6D85
  8
0
 10
229.6274256532076947
 20
21.4230034783995507
 30
0.0
 11
229.6200051211077096
 21
21.3621320302995485
 31
0.0
  0
ARC
  5
6D86
  8
0
 10
229.6018803461759035
 20
21.3650528618579401
 30
0.0
 40
0.0183586144171416
 50
298.4546931036072124
 51
350.8454149786721246
  0
ARC
  5
6D87
  8
0
 10
229.5819926533824002
 20
21.40689613142764
 30
0.0
 40
0.0646692244045724
 50
274.955172513899015
 51
296.2820497834720754
  0
ARC
  5
6D88
  8
0
 10
229.5704684192832872
 20
21.5294270782901584
 30
0.0
 40
0.1877397875343617
 50
256.3738663663398256
 51
275.2290463040188229
  0
ARC
  5
6D89
  8
0
 10
229.5492264233216986
 20
21.4435805471262988
 30
0.0
 40
0.0993061064889773
 50
244.8088362424047091
 51
256.6161448813920174
  0
ARC
  5
6D8A
  8
0
 10
229.521494190447811
 20
21.3846229528686216
 30
0.0
 40
0.0341518690148751
 50
225.2349235919845967
 51
244.8088362424064997
  0
ARC
  5
6D8B
  8
0
 10
229.5103969499124901
 20
21.3734343355661416
 30
0.0
 40
0.0183932553500564
 50
185.4009541024805117
 51
225.2349235919872967
  0
ARC
  5
6D8C
  8
0
 10
229.5293522590129953
 20
21.2793666441448401
 30
0.0
 40
0.1611816463269373
 50
90.0017152496569963
 51
104.8005367619859953
  0
ARC
  5
6D8D
  8
0
 10
229.532737903952011
 20
21.1434599638416394
 30
0.0
 40
0.2971076725113593
 50
77.6344785168407583
 51
90.6538499915788236
  0
ARC
  5
6D8E
  8
0
 10
229.5684499053558909
 20
21.3018823283410406
 30
0.0
 40
0.1347162641486596
 50
64.037838044314995
 51
78.0418270095715059
  0
ARC
  5
6D8F
  8
0
 10
229.5522809716183872
 20
21.3143213902777511
 30
0.0
 40
0.0496677789369207
 50
54.1024995409755007
 51
116.2073740991305044
  0
ARC
  5
6D90
  8
0
 10
229.559660720187992
 20
21.4013832301135594
 30
0.0
 40
0.0516289854114127
 50
235.4041757690496013
 51
294.9056978710557928
  0
LINE
  5
6D91
  8
0
 10
229.6901007234104952
 20
21.5742248261006004
 30
0.0
 11
229.6940087243779942
 21
21.5072415973972291
 31
0.0
  0
LINE
  5
6D92
  8
0
 10
229.8302016293106078
 20
21.5635247213005989
 30
0.0
 11
229.8219284921779888
 21
21.4976705552972298
 31
0.0
  0
ARC
  5
6D93
  8
0
 10
229.8038037172462964
 20
21.5005913868556284
 30
0.0
 40
0.0183586144171416
 50
298.4546931036072124
 51
350.8454149786721246
  0
ARC
  5
6D94
  8
0
 10
229.7839160244527932
 20
21.5424346564253213
 30
0.0
 40
0.0646692244045724
 50
274.955172513899015
 51
296.2820497834720754
  0
ARC
  5
6D95
  8
0
 10
229.7723917903535948
 20
21.6649656032878504
 30
0.0
 40
0.1877397875343617
 50
256.3738663663398256
 51
275.2290463040188229
  0
ARC
  5
6D96
  8
0
 10
229.7511497943920915
 20
21.5791190721239907
 30
0.0
 40
0.0993061064889773
 50
244.8088362424047091
 51
256.6161448813920174
  0
ARC
  5
6D97
  8
0
 10
229.7234175615180902
 20
21.5201614778662993
 30
0.0
 40
0.0341518690148751
 50
225.2349235919845967
 51
244.8088362424064997
  0
ARC
  5
6D98
  8
0
 10
229.7123203209829114
 20
21.5089728605638193
 30
0.0
 40
0.0183932553500564
 50
185.4009541024805117
 51
225.2349235919872967
  0
ARC
  5
6D99
  8
0
 10
229.7345782542016934
 20
21.4768740547953385
 30
0.0
 40
0.107030011767758
 50
94.5021388751793268
 51
114.5546691675145041
  0
ARC
  5
6D9A
  8
0
 10
229.7442775233139116
 20
21.3706422076806
 30
0.0
 40
0.2136995692904962
 50
74.9795708324665497
 51
94.8588752827284765
  0
ARC
  5
6D9B
  8
0
 10
229.7725025529414893
 20
21.4744079645653194
 30
0.0
 40
0.1061648705780748
 50
57.0787658260001081
 51
75.1783856875890422
  0
ARC
  5
6D9C
  8
0
 10
229.7542043426886949
 20
21.4498599152754288
 30
0.0
 40
0.0496677789369207
 50
54.1024995409755007
 51
116.2073740991305044
  0
ARC
  5
6D9D
  8
0
 10
229.7615840912582996
 20
21.5369217551112513
 30
0.0
 40
0.0516289854114127
 50
235.4041757690496013
 51
294.9056978710557928
  0
LINE
  5
6D9E
  8
0
 10
228.9084509825106011
 20
21.7768492085006002
 30
0.0
 11
228.9008562796105082
 21
21.7115779953005905
 31
0.0
  0
LINE
  5
6D9F
  8
0
 10
228.7709483714106113
 20
21.8358476824006011
 30
0.0
 11
228.7736498345105076
 21
21.7511160651006001
 31
0.0
  0
ARC
  5
6DA0
  8
0
 10
228.7868014687533105
 20
21.7811003459675483
 30
0.0
 40
0.0569964169213649
 50
84.1535938037115017
 51
106.149344658771895
  0
ARC
  5
6DA1
  8
0
 10
228.77101447016409
 20
21.6679138798657291
 30
0.0
 40
0.1712531541019358
 50
69.2103537125012593
 51
82.7564756153669236
  0
ARC
  5
6DA2
  8
0
 10
228.7677465217543045
 20
21.6490635446433011
 30
0.0
 40
0.1900708319658071
 50
42.2452539845623107
 51
70.3063302646927895
  0
ARC
  5
6DA3
  8
0
 10
228.825658758911004
 20
21.6952467704897813
 30
0.0
 40
0.0388318844304817
 50
19.3900825476328507
 51
110.0549358963320969
  0
ARC
  5
6DA4
  8
0
 10
228.8491879461440135
 20
21.7450738059337816
 30
0.0
 40
0.0391893276820434
 50
199.9163355149387087
 51
289.5286829290226933
  0
ARC
  5
6DA5
  8
0
 10
228.809065397539797
 20
21.7535766794378311
 30
0.0
 40
0.0355009398128041
 50
183.974428378290213
 51
220.4967978567648004
  0
ARC
  5
6DA6
  8
0
 10
228.8744962628931887
 20
21.8137362920157507
 30
0.0
 40
0.124367969725732
 50
221.9973374197624878
 51
261.2505833054279947
  0
ARC
  5
6DA7
  8
0
 10
228.8663479408556043
 20
21.7562354371013207
 30
0.0
 40
0.066300403896702
 50
260.6515666580972947
 51
285.5783521131970133
  0
ARC
  5
6DA8
  8
0
 10
228.8773728952955935
 20
21.7151332165212416
 30
0.0
 40
0.0237509775969479
 50
286.5874938675722206
 51
351.3911907343455141
  0
LINE
  5
6DA9
  8
0
 10
229.2449544713105922
 20
21.5960395538006011
 30
0.0
 11
229.2483705313105133
 21
21.5495905219006012
 31
0.0
  0
LINE
  5
6DAA
  8
0
 10
229.4812071530105015
 20
21.5617396968005899
 30
0.0
 11
229.4781511285104898
 21
21.52018627360059
 31
0.0
  0
ARC
  5
6DAB
  8
0
 10
229.4511529268488914
 20
21.5224624211771207
 30
0.0
 40
0.0270939797879818
 50
322.4815351446036971
 51
355.1809390670237008
  0
ARC
  5
6DAC
  8
0
 10
229.4328172099264123
 20
21.5411801760785195
 30
0.0
 40
0.0531639890194966
 50
287.8334829551416192
 51
318.5130555105952794
  0
ARC
  5
6DAD
  8
0
 10
229.3927789439356957
 20
21.7254216748266309
 30
0.0
 40
0.2415096477592828
 50
241.7471254915847112
 51
283.4854880835982271
  0
ARC
  5
6DAE
  8
0
 10
229.3154250913802912
 20
21.5787079444613887
 30
0.0
 40
0.0756691966925419
 50
214.3838877898704141
 51
240.7547644749087965
  0
ARC
  5
6DAF
  8
0
 10
229.2829036993186946
 20
21.5536876935054984
 30
0.0
 40
0.0347753721452175
 50
186.7662011289542079
 51
210.6204537628676121
  0
ARC
  5
6DB0
  8
0
 10
229.3723890626307025
 20
21.5754330008197286
 30
0.0
 40
0.066555351434488
 50
223.0785858131644943
 51
295.8856577231358074
  0
ARC
  5
6DB1
  8
0
 10
229.3553257813669859
 20
21.4835278281978717
 30
0.0
 40
0.0561497697611364
 50
34.777731771761232
 51
124.1865117645392047
  0
ARC
  5
6DB2
  8
0
 10
229.2937879467071127
 20
21.5275233470888487
 30
0.0
 40
0.084137856530056
 50
98.5040542498029055
 51
125.4785672528432059
  0
ARC
  5
6DB3
  8
0
 10
229.3178533159091899
 20
21.29823758771294
 30
0.0
 40
0.3146238275840045
 50
77.9617606862376107
 51
96.6633714273546332
  0
ARC
  5
6DB4
  8
0
 10
229.3420964172312893
 20
21.3843079890573513
 30
0.0
 40
0.2254635396726496
 50
51.9026985846793707
 51
79.4253547870638101
  0
LINE
  5
6DB5
  8
0
 10
229.2528769032105913
 20
21.7958504680006016
 30
0.0
 11
229.2580316980105124
 21
21.7193385028005999
 31
0.0
  0
LINE
  5
6DB6
  8
0
 10
229.3938724576105983
 20
21.7664458380005996
 30
0.0
 11
229.3859697388105872
 21
21.6995219359005986
 31
0.0
  0
ARC
  5
6DB7
  8
0
 10
229.3624987765930996
 20
21.7022935079182204
 30
0.0
 40
0.023634036448795
 50
300.7830546148089184
 51
353.2654065337077895
  0
ARC
  5
6DB8
  8
0
 10
229.3415789512791036
 20
21.7431974147629994
 30
0.0
 40
0.0695446710206154
 50
270.606773453491428
 51
298.3422575043355778
  0
ARC
  5
6DB9
  8
0
 10
229.3408572071928972
 20
21.7930503562011495
 30
0.0
 40
0.1194026174067519
 50
235.9984825411646057
 51
270.6997504771932199
  0
ARC
  5
6DBA
  8
0
 10
229.2918461595305928
 20
21.7230796296534514
 30
0.0
 40
0.0340207853821504
 50
186.3133508233717919
 51
238.5299022417152912
  0
ARC
  5
6DBB
  8
0
 10
229.3026629095180056
 20
21.7039735677039616
 30
0.0
 40
0.0060998039920516
 50
133.6303576073576096
 51
215.0029092715795969
  0
ARC
  5
6DBC
  8
0
 10
229.3163122639417111
 20
21.7135319814675505
 30
0.0
 40
0.022763181496583
 50
215.0029092715815011
 51
236.6235752599367004
  0
ARC
  5
6DBD
  8
0
 10
229.3313871022245962
 20
21.7402679439847013
 30
0.0
 40
0.0534249984522167
 50
238.8975970836555121
 51
270.6850036516102023
  0
ARC
  5
6DBE
  8
0
 10
229.329718336820207
 20
21.7314868320486489
 30
0.0
 40
0.0446996661481649
 50
272.9590254753263139
 51
285.1939625230893967
  0
ARC
  5
6DBF
  8
0
 10
229.3394394405023036
 20
21.6956923195727995
 30
0.0
 40
0.0076086028015439
 50
285.1939625230994011
 51
41.608398735875241
  0
ARC
  5
6DC0
  8
0
 10
229.322558824245192
 20
21.6782634278661099
 30
0.0
 40
0.0318558233411558
 50
44.8877027457139519
 51
63.8251464664607511
  0
ARC
  5
6DC1
  8
0
 10
229.3124932164137988
 20
21.6572537408536512
 30
0.0
 40
0.0551515680398295
 50
64.0684784287326039
 51
91.4581318848249509
  0
ARC
  5
6DC2
  8
0
 10
229.3122345293610067
 20
21.6816315591353295
 30
0.0
 40
0.0307771867193713
 50
92.1315474818452742
 51
107.7290808314924959
  0
ARC
  5
6DC3
  8
0
 10
229.3071125598904132
 20
21.6985464341513783
 30
0.0
 40
0.0131087499248122
 50
108.9186692907768048
 51
131.3392099891013913
  0
ARC
  5
6DC4
  8
0
 10
229.2755660596334906
 20
21.7610949484218104
 30
0.0
 40
0.0415059509032021
 50
105.4603491252524066
 51
123.1373730319820936
  0
ARC
  5
6DC5
  8
0
 10
229.2905349437567111
 20
21.6994290894772988
 30
0.0
 40
0.1049499887049592
 50
87.6839871108359574
 51
104.3623431531614045
  0
ARC
  5
6DC6
  8
0
 10
229.282606511027609
 20
21.600299258999641
 30
0.0
 40
0.2043567643082422
 50
69.8064863902145021
 51
86.585981138744657
  0
ARC
  5
6DC7
  8
0
 10
229.313229738425008
 20
21.6835598392704583
 30
0.0
 40
0.1156431448168159
 50
45.7859316109115468
 51
69.8064863902128394
  0
LINE
  5
6DC8
  8
0
 10
229.5477566621106007
 20
22.0211982898006013
 30
0.0
 11
229.5402894721104872
 21
21.9463700560005996
 31
0.0
  0
LINE
  5
6DC9
  8
0
 10
229.4078787533105981
 20
22.0578743506005992
 30
0.0
 11
229.4122174209105935
 21
21.9698222237006
 31
0.0
  0
ARC
  5
6DCA
  8
0
 10
229.441699745975086
 20
22.0257006051731992
 30
0.0
 40
0.0466798611784709
 50
95.3330119042194184
 51
136.4298218981716104
  0
ARC
  5
6DCB
  8
0
 10
229.4497518400702063
 20
21.9702333222014801
 30
0.0
 40
0.1026953241553327
 50
77.2445526571261922
 51
96.9299147666105796
  0
ARC
  5
6DCC
  8
0
 10
229.4432687595808886
 20
21.9388629758784113
 30
0.0
 40
0.1347242428229135
 50
51.1836546867689535
 51
77.5010738465628037
  0
ARC
  5
6DCD
  8
0
 10
229.4721371994760943
 20
21.9744429361444986
 30
0.0
 40
0.0889065027128761
 50
31.7284140720021917
 51
51.3065265975386566
  0
ARC
  5
6DCE
  8
0
 10
229.5076121620558922
 20
21.9502376074513812
 30
0.0
 40
0.0329053878055783
 50
305.5767484898897806
 51
353.2501090501910994
  0
ARC
  5
6DCF
  8
0
 10
229.4928948087396918
 20
21.9771372860514305
 30
0.0
 40
0.0634531367628323
 50
268.6839081826100823
 51
302.252093962377387
  0
ARC
  5
6DD0
  8
0
 10
229.492070477041409
 20
22.0088274106954103
 30
0.0
 40
0.0951286288537775
 50
228.6400035512342015
 51
269.618702050964373
  0
ARC
  5
6DD1
  8
0
 10
229.4654386806095943
 20
21.9770846758019403
 30
0.0
 40
0.0537144830979555
 50
187.7704585056387998
 51
227.5880762560753965
  0
ARC
  5
6DD2
  8
0
 10
229.4648360197330987
 20
21.9506256504020989
 30
0.0
 40
0.0144757247705355
 50
99.0809455300675239
 51
171.7894398094780968
  0
ARC
  5
6DD3
  8
0
 10
229.4704588308181883
 20
21.9558132640544095
 30
0.0
 40
0.0201927016239209
 50
188.8893595297658123
 51
232.3572530560894052
  0
ARC
  5
6DD4
  8
0
 10
229.4840919560105874
 20
21.9717963009556492
 30
0.0
 40
0.041187833712306
 50
230.9190577756824041
 51
278.5477280366978903
  0
ARC
  5
6DD5
  8
0
 10
229.4896910115953119
 20
21.9432351190518311
 30
0.0
 40
0.0121803794662104
 50
272.4600926091769111
 51
27.7439844879636404
  0
ARC
  5
6DD6
  8
0
 10
229.4690144333850128
 20
21.927322458927101
 30
0.0
 40
0.0381489517720654
 50
34.4546082182014075
 51
99.753972271476286
  0
LINE
  5
6DD7
  8
0
 10
229.9074155996104878
 20
21.7260854380005988
 30
0.0
 11
229.9041011568104977
 21
21.6810162171005985
 31
0.0
  0
ARC
  5
6DD8
  8
0
 10
229.8706969860888023
 20
21.6834727985752203
 30
0.0
 40
0.0334943788440946
 50
309.8414024852817761
 51
355.7939734756855046
  0
ARC
  5
6DD9
  8
0
 10
229.8280681686275955
 20
21.7420190033915013
 30
0.0
 40
0.1058659899496103
 50
279.8535073609295978
 51
307.2550562783193868
  0
ARC
  5
6DDA
  8
0
 10
229.8064625649076902
 20
21.8649803859657403
 30
0.0
 40
0.2307109989599389
 50
247.7310518952523921
 51
279.9142393062599012
  0
ARC
  5
6DDB
  8
0
 10
229.7636541911099073
 20
21.7538829452758087
 30
0.0
 40
0.111704954103613
 50
227.0741948876556933
 51
246.4561470873508995
  0
ARC
  5
6DDC
  8
0
 10
229.7188653816050987
 20
21.704305081220749
 30
0.0
 40
0.0449092504941301
 50
187.5126787951126062
 51
225.8377717700211065
  0
LINE
  5
6DDD
  8
0
 10
229.6743416342104922
 20
21.6984333951006008
 30
0.0
 11
229.6707365359106063
 21
21.747455429000599
 31
0.0
  0
ARC
  5
6DDE
  8
0
 10
229.7196859462779912
 20
21.6961593509169397
 30
0.0
 40
0.0709036839810312
 50
108.2609297125641064
 51
133.6589959676518049
  0
ARC
  5
6DDF
  8
0
 10
229.7641376586682895
 20
21.5416732177804207
 30
0.0
 40
0.2316213624364732
 50
85.6868505401351257
 51
106.7284598187489024
  0
ARC
  5
6DE0
  8
0
 10
229.7638107459486037
 20
21.4964054460212886
 30
0.0
 40
0.2768026370697561
 50
67.8727244410401056
 51
86.3240853494513942
  0
ARC
  5
6DE1
  8
0
 10
229.823274786739205
 20
21.6445845314088601
 30
0.0
 40
0.1171412573174464
 50
44.0869287993553272
 51
67.5159413190894213
  0
ARC
  5
6DE2
  8
0
 10
229.7580240979870041
 20
21.6830810531154405
 30
0.0
 40
0.0085507299090116
 50
133.5249242622431041
 51
218.5281704360936885
  0
ARC
  5
6DE3
  8
0
 10
229.7743928866750878
 20
21.696114520794449
 30
0.0
 40
0.0294746043794756
 50
218.5281704360936885
 51
248.4186460429239958
  0
ARC
  5
6DE4
  8
0
 10
229.7962639296858924
 20
21.7514070353242701
 30
0.0
 40
0.0889355553087377
 50
248.4186460429239958
 51
278.9689731191020883
  0
ARC
  5
6DE5
  8
0
 10
229.8049169759925974
 20
21.6965817158340109
 30
0.0
 40
0.033431583670714
 50
278.968973119100383
 51
304.454542823445081
  0
ARC
  5
6DE6
  8
0
 10
229.816660086291904
 20
21.6769299591736093
 30
0.0
 40
0.010680373823986
 50
312.1757833060120788
 51
47.1537422450499335
  0
ARC
  5
6DE7
  8
0
 10
229.7956724654154073
 20
21.65140624846007
 30
0.0
 40
0.0437105419577235
 50
49.735910236986939
 51
70.5664032171059148
  0
ARC
  5
6DE8
  8
0
 10
229.782369601372892
 20
21.6161548775352905
 30
0.0
 40
0.0813837076227509
 50
69.9916740456801847
 51
103.8748051353932027
  0
ARC
  5
6DE9
  8
0
 10
229.770462233625608
 20
21.6685967311300907
 30
0.0
 40
0.0276352716038386
 50
105.9810785071546064
 51
131.5417647498287863
  0
LINE
  5
6DEA
  8
0
 10
229.9560325679105119
 20
21.4432250576005892
 30
0.0
 11
229.9515079401105879
 21
21.3804218427005992
 31
0.0
  0
LINE
  5
6DEB
  8
0
 10
229.8220105519106085
 20
21.4497614439005986
 30
0.0
 11
229.8244813102105866
 21
21.3855434780005993
 31
0.0
  0
ARC
  5
6DEC
  8
0
 10
229.8433703334353027
 20
21.3862702249515095
 30
0.0
 40
0.01890299869104
 50
182.2033434217676984
 51
229.1726054699919928
  0
ARC
  5
6DED
  8
0
 10
229.8715139764019
 20
21.4227806677678991
 30
0.0
 40
0.0649806378179918
 50
231.442862294722687
 51
254.7930255763965874
  0
ARC
  5
6DEE
  8
0
 10
229.8942158557051982
 20
21.5111069449540402
 30
0.0
 40
0.1561740822298214
 50
255.2558776244896137
 51
278.7004256722177047
  0
ARC
  5
6DEF
  8
0
 10
229.910563519342702
 20
21.4169212492406409
 30
0.0
 40
0.0606294861921528
 50
276.8930208955817989
 51
297.1722697848808821
  0
ARC
  5
6DF0
  8
0
 10
229.9266691019855102
 20
21.3855458326986003
 30
0.0
 40
0.0253618444301611
 50
297.1722697848791199
 51
348.3439919106925799
  0
ARC
  5
6DF1
  8
0
 10
229.8858342936362078
 20
21.3221230706219593
 30
0.0
 40
0.0589290851131713
 50
66.2853715673601158
 51
111.043787520154595
  0
ARC
  5
6DF2
  8
0
 10
229.8906853386224043
 20
21.4254026346309701
 30
0.0
 40
0.0612754024509814
 50
245.8025453858259937
 51
286.8750627144809755
  0
ARC
  5
6DF3
  8
0
 10
229.8674001541405971
 20
21.3735845927065888
 30
0.0
 40
0.0044659905087244
 50
127.6209194387761983
 51
245.8025453858120102
  0
ARC
  5
6DF4
  8
0
 10
229.9071265470047081
 20
21.3716350259716101
 30
0.0
 40
0.0050519316005827
 50
285.4540600043416134
 51
61.5340162989335724
  0
ARC
  5
6DF5
  8
0
 10
229.8637295381105901
 20
21.3508826887665712
 30
0.0
 40
0.107319532362062
 50
95.1076289818725513
 51
112.8758843289753031
  0
ARC
  5
6DF6
  8
0
 10
229.8773526747374945
 20
21.2123343383311784
 30
0.0
 40
0.246533654604126
 50
79.1790876895284299
 51
95.3945369362326261
  0
ARC
  5
6DF7
  8
0
 10
229.9027467175336881
 20
21.3421433375537788
 30
0.0
 40
0.1142667754774073
 50
62.2037678395404967
 51
79.4659956438885331
  0
LINE
  5
6DF8
  8
0
 10
229.9104236080247858
 20
21.3434373476627783
 30
0.0
 11
229.905898980224805
 21
21.2806341327627884
 31
0.0
  0
LINE
  5
6DF9
  8
0
 10
229.7764015920247971
 20
21.3499737339627913
 30
0.0
 11
229.7788723503248889
 21
21.2857557680627814
 31
0.0
  0
ARC
  5
6DFA
  8
0
 10
229.7977613735494913
 20
21.2864825150136987
 30
0.0
 40
0.01890299869104
 50
182.2033434217676984
 51
229.1726054699919928
  0
ARC
  5
6DFB
  8
0
 10
229.8259050165162023
 20
21.3229929578300883
 30
0.0
 40
0.0649806378179918
 50
231.442862294722687
 51
254.7930255763965874
  0
ARC
  5
6DFC
  8
0
 10
229.8486068958193869
 20
21.4113192350162294
 30
0.0
 40
0.1561740822298214
 50
255.2558776244896137
 51
278.7004256722177047
  0
ARC
  5
6DFD
  8
0
 10
229.8649545594570043
 20
21.3171335393028194
 30
0.0
 40
0.0606294861921528
 50
276.8930208955817989
 51
297.1722697848808821
  0
ARC
  5
6DFE
  8
0
 10
229.8810601420998125
 20
21.2857581227607895
 30
0.0
 40
0.0253618444301611
 50
297.1722697848791199
 51
348.3439919106925799
  0
ARC
  5
6DFF
  8
0
 10
229.8402253337505101
 20
21.2223353606841414
 30
0.0
 40
0.0589290851131713
 50
66.2853715673601158
 51
111.043787520154595
  0
ARC
  5
6E00
  8
0
 10
229.8450763787367066
 20
21.3256149246931486
 30
0.0
 40
0.0612754024509814
 50
245.8025453858259937
 51
286.8750627144809755
  0
ARC
  5
6E01
  8
0
 10
229.8217911942548994
 20
21.2737968827687816
 30
0.0
 40
0.0044659905087244
 50
127.6209194387761983
 51
245.8025453858120102
  0
ARC
  5
6E02
  8
0
 10
229.8615175871190104
 20
21.2718473160337993
 30
0.0
 40
0.0050519316005827
 50
285.4540600043416134
 51
61.5340162989335724
  0
ARC
  5
6E03
  8
0
 10
229.8181205782248924
 20
21.2510949788287498
 30
0.0
 40
0.107319532362062
 50
95.1076289818725513
 51
112.8758843289753031
  0
ARC
  5
6E04
  8
0
 10
229.8317437148517115
 20
21.1125466283933605
 30
0.0
 40
0.246533654604126
 50
79.1790876895284299
 51
95.3945369362326261
  0
ARC
  5
6E05
  8
0
 10
229.8571377576479904
 20
21.2423556276159609
 30
0.0
 40
0.1142667754774073
 50
62.2037678395404967
 51
79.4659956438885331
  0
LINE
  5
6E06
  8
0
 10
230.0451649802369047
 20
21.2511424175015513
 30
0.0
 11
230.0406403524368955
 21
21.1883392026015613
 31
0.0
  0
LINE
  5
6E07
  8
0
 10
229.9106659425106045
 20
21.2564933914005998
 30
0.0
 11
229.9136137225368941
 21
21.1934608379015508
 31
0.0
  0
ARC
  5
6E08
  8
0
 10
229.930642309328789
 20
21.1949002707811296
 30
0.0
 40
0.017089316403612
 50
184.8317475189905963
 51
230.3347065268204972
  0
ARC
  5
6E09
  8
0
 10
229.9532439489300941
 20
21.2267190018675898
 30
0.0
 40
0.0560852274551735
 50
233.3104014507468094
 51
255.4856976502310033
  0
ARC
  5
6E0A
  8
0
 10
229.9833196640744006
 20
21.3456776518362901
 30
0.0
 40
0.1787863126625762
 50
255.7093109353641012
 51
277.2711207947081107
  0
ARC
  5
6E0B
  8
0
 10
229.9960395560655115
 20
21.2477125439116712
 30
0.0
 40
0.0799994150196477
 50
277.1144981962211773
 51
293.8975366285649216
  0
ARC
  5
6E0C
  8
0
 10
230.0171564884988129
 20
21.1968536738381097
 30
0.0
 40
0.0249797535196334
 50
296.8724969832290981
 51
340.0710326205630736
  0
ARC
  5
6E0D
  8
0
 10
229.9747432986549995
 20
21.1237561597759189
 30
0.0
 40
0.0652355191621875
 50
67.6581087635537699
 51
108.7200031627173047
  0
ARC
  5
6E0E
  8
0
 10
229.9791371660832056
 20
21.2429404265803292
 30
0.0
 40
0.0682593015254504
 50
248.0610632787729912
 51
287.0579624651992958
  0
ARC
  5
6E0F
  8
0
 10
229.9552635966279013
 20
21.1825375489590684
 30
0.0
 40
0.0033379436777184
 50
115.8848239205076993
 51
240.7822640110289001
  0
ARC
  5
6E10
  8
0
 10
229.9982547212441091
 20
21.1809544417209104
 30
0.0
 40
0.003393541440202
 50
285.4767808511617773
 51
67.7178964698207437
  0
ARC
  5
6E11
  8
0
 10
229.9569402385909882
 20
21.1138343233006509
 30
0.0
 40
0.1499763987729076
 50
94.7142406276796152
 51
107.9714982665302045
  0
ARC
  5
6E12
  8
0
 10
229.9673062901757987
 20
20.9863423406352609
 30
0.0
 40
0.2778890603475324
 50
80.4742168810394247
 51
94.6839111178940982
  0
ARC
  5
6E13
  8
0
 10
229.9947034626358118
 20
21.1369052844281384
 30
0.0
 40
0.1248858972480228
 50
66.1677035222741239
 51
81.4388690236845036
  0
LINE
  5
6E14
  8
0
 10
230.0129924964840029
 20
21.16230965442697
 30
0.0
 11
230.0084678686839936
 21
21.09950643952698
 31
0.0
  0
LINE
  5
6E15
  8
0
 10
229.8784934587577027
 20
21.1676606283260185
 30
0.0
 11
229.8814412387839923
 21
21.1046280748269801
 31
0.0
  0
ARC
  5
6E16
  8
0
 10
229.8984698255758872
 20
21.1060675077065589
 30
0.0
 40
0.017089316403612
 50
184.8317475189905963
 51
230.3347065268204972
  0
ARC
  5
6E17
  8
0
 10
229.9210714651771923
 20
21.1378862387930084
 30
0.0
 40
0.0560852274551735
 50
233.3104014507468094
 51
255.4856976502310033
  0
ARC
  5
6E18
  8
0
 10
229.9511471803214988
 20
21.2568448887617087
 30
0.0
 40
0.1787863126625762
 50
255.7093109353641012
 51
277.2711207947081107
  0
ARC
  5
6E19
  8
0
 10
229.9638670723126097
 20
21.1588797808370899
 30
0.0
 40
0.0799994150196477
 50
277.1144981962211773
 51
293.8975366285649216
  0
ARC
  5
6E1A
  8
0
 10
229.9849840047459111
 20
21.108020910763539
 30
0.0
 40
0.0249797535196334
 50
296.8724969832290981
 51
340.0710326205630736
  0
ARC
  5
6E1B
  8
0
 10
229.9425708149020977
 20
21.0349233967013411
 30
0.0
 40
0.0652355191621875
 50
67.6581087635537699
 51
108.7200031627173047
  0
ARC
  5
6E1C
  8
0
 10
229.946964682330389
 20
21.1541076635057514
 30
0.0
 40
0.0682593015254504
 50
248.0610632787729912
 51
287.0579624651992958
  0
ARC
  5
6E1D
  8
0
 10
229.9230911128751131
 20
21.0937047858844906
 30
0.0
 40
0.0033379436777184
 50
115.8848239205076993
 51
240.7822640110289001
  0
ARC
  5
6E1E
  8
0
 10
229.9660822374910936
 20
21.092121678646329
 30
0.0
 40
0.003393541440202
 50
285.4767808511617773
 51
67.7178964698207437
  0
ARC
  5
6E1F
  8
0
 10
229.9247677548382001
 20
21.0250015602260696
 30
0.0
 40
0.1499763987729076
 50
94.7142406276796152
 51
107.9714982665302045
  0
ARC
  5
6E20
  8
0
 10
229.9351338064228969
 20
20.8975095775606796
 30
0.0
 40
0.2778890603475324
 50
90.9138194204133043
 51
94.6839111178940982
  0
ARC
  5
6E21
  8
0
 10
229.9625309788829099
 20
21.0480725213535607
 30
0.0
 40
0.1248858972480228
 50
66.1677035222741239
 51
73.1010299234041554
  0
LINE
  5
6E22
  8
0
 10
229.9355097453104975
 20
21.9248223493006016
 30
0.0
 11
229.941888699410498
 21
21.8484408733005999
 31
0.0
  0
LINE
  5
6E23
  8
0
 10
230.0775809498105104
 20
21.913587461100601
 30
0.0
 11
230.0701488713106073
 21
21.8410649082006003
 31
0.0
  0
ARC
  5
6E24
  8
0
 10
229.9802526134251934
 20
21.8760150885258007
 30
0.0
 40
0.0662123323215656
 50
99.7986586242548412
 51
132.5122835928328016
  0
ARC
  5
6E25
  8
0
 10
229.9953853087691868
 20
21.7883938964337283
 30
0.0
 40
0.1551306756035516
 50
75.4832958399927634
 51
99.7986586242564471
  0
ARC
  5
6E26
  8
0
 10
230.0107663268155989
 20
21.847796430939411
 30
0.0
 40
0.0937691500207873
 50
44.5577384286666316
 51
75.4832958399911149
  0
ARC
  5
6E27
  8
0
 10
229.9748023965647121
 20
21.8521432354006215
 30
0.0
 40
0.0331212763261737
 50
186.4180495570832932
 51
226.9578373186959084
  0
ARC
  5
6E28
  8
0
 10
229.9972599134480049
 20
21.8753641486156098
 30
0.0
 40
0.0654228217062944
 50
226.4638972609419056
 51
252.688738408779102
  0
ARC
  5
6E29
  8
0
 10
230.0113544852941061
 20
21.9104278500814011
 30
0.0
 40
0.1031365329280587
 50
251.0094113578882968
 51
287.5444965910954238
  0
ARC
  5
6E2A
  8
0
 10
230.0276529071813059
 20
21.8583028229546095
 30
0.0
 40
0.0485234056936721
 50
287.7483364552734884
 51
314.9747924920523019
  0
ARC
  5
6E2B
  8
0
 10
230.0408350057568896
 20
21.8446195618088517
 30
0.0
 40
0.0295286009823414
 50
315.6462029203964903
 51
353.0859648259684036
  0
ARC
  5
6E2C
  8
0
 10
230.003974146888396
 20
21.8100200921166198
 30
0.0
 40
0.0394369198817248
 50
68.0581729280649341
 51
119.7278588599761946
  0
ARC
  5
6E2D
  8
0
 10
230.0077579607167024
 20
21.8186843011972016
 30
0.0
 40
0.029987670578165
 50
41.7912748906209117
 51
68.5782891294723242
  0
ARC
  5
6E2E
  8
0
 10
230.0237360638066093
 20
21.8337958004485309
 30
0.0
 40
0.0080280422310667
 50
312.8533667875474862
 51
37.3713781926869686
  0
ARC
  5
6E2F
  8
0
 10
230.0138925728163883
 20
21.8453268996866612
 30
0.0
 40
0.0231847138498639
 50
282.9140246498823217
 51
311.3052922804737932
  0
ARC
  5
6E30
  8
0
 10
230.0088914110963003
 20
21.8663779895412098
 30
0.0
 40
0.0448213738575074
 50
245.1306916472065041
 51
283.1313181365504761
  0
ARC
  5
6E31
  8
0
 10
230.0032455562894995
 20
21.8510513871897096
 30
0.0
 40
0.028572312339183
 50
224.5246865246814139
 51
242.4761629430558116
  0
ARC
  5
6E32
  8
0
 10
229.9889797030729994
 20
21.8370202848215911
 30
0.0
 40
0.0085626546294728
 50
122.1900251265086013
 51
224.5246865246899972
  0
LINE
  5
6E33
  8
0
 10
230.2396155498105088
 20
21.6491441188005993
 30
0.0
 11
230.2328185037104902
 21
21.5828182403006004
 31
0.0
  0
LINE
  5
6E34
  8
0
 10
230.0991181538105081
 20
21.6531846123005991
 30
0.0
 11
230.1047460649105858
 21
21.5857960780006017
 31
0.0
  0
ARC
  5
6E35
  8
0
 10
230.1292071613164012
 20
21.5888517431531888
 30
0.0
 40
0.0246512134975428
 50
187.1204685409713875
 51
227.7656599211435946
  0
ARC
  5
6E36
  8
0
 10
230.1551071315504942
 20
21.6240450412550302
 30
0.0
 40
0.0682645539271254
 50
231.5279257974486882
 51
255.2649027229583112
  0
ARC
  5
6E37
  8
0
 10
230.1712724460658137
 20
21.6852694344332484
 30
0.0
 40
0.1315870757416445
 50
255.238245263300314
 51
285.6054941960625797
  0
ARC
  5
6E38
  8
0
 10
230.1911870730685052
 20
21.6091871141424186
 30
0.0
 40
0.0529677452117958
 50
286.9973180721103745
 51
311.6001532899604172
  0
ARC
  5
6E39
  8
0
 10
230.2103778075166076
 20
21.5855767922278687
 30
0.0
 40
0.0226096097800047
 50
314.9592938073084269
 51
352.9919992606650112
  0
ARC
  5
6E3A
  8
0
 10
230.1426263011207141
 20
21.5825553196383098
 30
0.0
 40
0.0829545409506595
 50
99.40247366128078
 51
121.6333651203046031
  0
ARC
  5
6E3B
  8
0
 10
230.1641529727970976
 20
21.4752432809291598
 30
0.0
 40
0.1923773363067621
 50
77.1653498231963226
 51
100.5063156572671943
  0
ARC
  5
6E3C
  8
0
 10
230.1837906948547072
 20
21.5615035311564291
 30
0.0
 40
0.1039099948679556
 50
57.5038864102334912
 51
77.1572892985480792
  0
ARC
  5
6E3D
  8
0
 10
230.1675094230650132
 20
21.5291439596172189
 30
0.0
 40
0.055914584780023
 50
77.0708135412732247
 51
107.5535303214914933
  0
ARC
  5
6E3E
  8
0
 10
230.173393478345389
 20
21.5517770360984393
 30
0.0
 40
0.0325456931155447
 50
55.2594023999964818
 51
78.2518292458380813
  0
ARC
  5
6E3F
  8
0
 10
230.1891389161947075
 20
21.574298675380561
 30
0.0
 40
0.0050671017473464
 50
308.9402097091862061
 51
56.4404181045374429
  0
ARC
  5
6E40
  8
0
 10
230.1778697862862089
 20
21.5899047322622799
 30
0.0
 40
0.024310679454578
 50
284.5210779305323854
 51
306.4803682529848743
  0
ARC
  5
6E41
  8
0
 10
230.1700681098249959
 20
21.623733244254101
 30
0.0
 40
0.0590220383651499
 50
258.0184268538320111
 51
283.6186532861769933
  0
ARC
  5
6E42
  8
0
 10
230.1621267570195926
 20
21.5930910055532088
 30
0.0
 40
0.027434865180937
 50
231.5221007028895031
 51
260.9583582139590021
  0
ARC
  5
6E43
  8
0
 10
230.1490091583324897
 20
21.5754511142511589
 30
0.0
 40
0.0055090832645216
 50
138.7505266193801106
 51
224.1521970360122111
  0
ARC
  5
6E44
  8
0
 10
230.156533571120093
 20
21.565725425540009
 30
0.0
 40
0.0177353328624663
 50
109.3890897071015047
 51
131.1326993062085933
  0
LINE
  5
6E45
  8
0
 10
230.1715924297650986
 20
21.5228804088189882
 30
0.0
 11
230.1647953836651936
 21
21.4565545303189786
 31
0.0
  0
LINE
  5
6E46
  8
0
 10
230.0310950337652116
 20
21.5269209023189809
 30
0.0
 11
230.036722944865204
 21
21.45953236801898
 31
0.0
  0
ARC
  5
6E47
  8
0
 10
230.061184041270991
 20
21.4625880331715813
 30
0.0
 40
0.0246512134975428
 50
187.1204685409713875
 51
227.7656599211435946
  0
ARC
  5
6E48
  8
0
 10
230.0870840115051976
 20
21.4977813312734192
 30
0.0
 40
0.0682645539271254
 50
231.5279257974486882
 51
255.2649027229583112
  0
ARC
  5
6E49
  8
0
 10
230.1032493260204035
 20
21.5590057244516302
 30
0.0
 40
0.1315870757416445
 50
255.238245263300314
 51
285.6054941960625797
  0
ARC
  5
6E4A
  8
0
 10
230.123163953023095
 20
21.482923404160811
 30
0.0
 40
0.0529677452117958
 50
286.9973180721103745
 51
311.6001532899604172
  0
ARC
  5
6E4B
  8
0
 10
230.1423546874711974
 20
21.4593130822462506
 30
0.0
 40
0.0226096097800047
 50
314.9592938073084269
 51
352.9919992606650112
  0
ARC
  5
6E4C
  8
0
 10
230.0746031810753038
 20
21.4562916096566987
 30
0.0
 40
0.0829545409506595
 50
99.40247366128078
 51
121.6333651203046031
  0
ARC
  5
6E4D
  8
0
 10
230.0961298527516874
 20
21.3489795709475416
 30
0.0
 40
0.1923773363067621
 50
77.1653498231963226
 51
100.5063156572671943
  0
ARC
  5
6E4E
  8
0
 10
230.115767574809297
 20
21.435239821174811
 30
0.0
 40
0.1039099948679556
 50
57.5038864102334912
 51
77.1572892985480792
  0
ARC
  5
6E4F
  8
0
 10
230.0994863030196029
 20
21.4028802496356114
 30
0.0
 40
0.055914584780023
 50
77.0708135412732247
 51
107.5535303214914933
  0
ARC
  5
6E50
  8
0
 10
230.1053703583000072
 20
21.4255133261168211
 30
0.0
 40
0.0325456931155447
 50
55.2594023999964818
 51
78.2518292458380813
  0
ARC
  5
6E51
  8
0
 10
230.1211157961492972
 20
21.4480349653989393
 30
0.0
 40
0.0050671017473464
 50
308.9402097091862061
 51
56.4404181045374429
  0
ARC
  5
6E52
  8
0
 10
230.1098466662407986
 20
21.4636410222806617
 30
0.0
 40
0.024310679454578
 50
284.5210779305323854
 51
306.4803682529848743
  0
ARC
  5
6E53
  8
0
 10
230.1020449897796993
 20
21.4974695342724793
 30
0.0
 40
0.0590220383651499
 50
258.0184268538320111
 51
283.6186532861769933
  0
ARC
  5
6E54
  8
0
 10
230.0941036369742108
 20
21.4668272955716013
 30
0.0
 40
0.027434865180937
 50
231.5221007028895031
 51
260.9583582139590021
  0
ARC
  5
6E55
  8
0
 10
230.0809860382871079
 20
21.4491874042695514
 30
0.0
 40
0.0055090832645216
 50
138.7505266193801106
 51
224.1521970360122111
  0
ARC
  5
6E56
  8
0
 10
230.0885104510747112
 20
21.4394617155583909
 30
0.0
 40
0.0177353328624663
 50
109.3890897071015047
 51
131.1326993062085933
  0
LINE
  5
6E57
  8
0
 10
230.3420633258104999
 20
22.1259555753006012
 30
0.0
 11
230.3482963377105932
 21
22.0424929090005897
 31
0.0
  0
ARC
  5
6E58
  8
0
 10
230.4125772509104877
 20
22.0824710651260396
 30
0.0
 40
0.085226009190905
 50
244.9262747251563042
 51
295.0737252748435822
  0
ARC
  5
6E59
  8
0
 10
230.3994170645048882
 20
22.0540305354653583
 30
0.0
 40
0.0538887085260481
 50
213.2652237277472125
 51
244.7852577394845923
  0
ARC
  5
6E5A
  8
0
 10
230.3870208977893981
 20
22.0454893705580091
 30
0.0
 40
0.0388403184225682
 50
184.4246641695492883
 51
212.7605274280957133
  0
ARC
  5
6E5B
  8
0
 10
230.4125772509104877
 20
22.0623575318602505
 30
0.0
 40
0.098017992451449
 50
66.5246928143007921
 51
113.4753071856991937
  0
ARC
  5
6E5C
  8
0
 10
230.4026237417776031
 20
22.0843885429365017
 30
0.0
 40
0.0738462757013967
 50
113.2010031125854965
 51
136.0436931402196024
  0
ARC
  5
6E5D
  8
0
 10
230.3877256143805141
 20
22.0987535574363783
 30
0.0
 40
0.0531506761323977
 50
136.0436931402184086
 51
149.2168237189314084
  0
ARC
  5
6E5E
  8
0
 10
230.4002318574181061
 20
22.032810575392709
 30
0.0
 40
0.0136684559815066
 50
136.4023078980727064
 51
223.5976921019384918
  0
ARC
  5
6E5F
  8
0
 10
230.4071416408062021
 20
22.0274940700975499
 30
0.0
 40
0.022357449037722
 50
120.4663840600482985
 51
138.7471009361456993
  0
ARC
  5
6E60
  8
0
 10
230.406328453610513
 20
22.0376504137541289
 30
0.0
 40
0.0214325210342259
 50
221.7283293298050921
 51
237.867225205869488
  0
ARC
  5
6E61
  8
0
 10
230.4125772509104877
 20
21.5851201689323595
 30
0.0
 40
0.2453778626644698
 50
73.0996257539386818
 51
106.900374246061304
  0
ARC
  5
6E62
  8
0
 10
230.3776228299041122
 20
21.7028933537224908
 30
0.0
 40
0.1225321231166609
 50
107.2711169576449066
 51
123.8068891467756032
  0
ARC
  5
6E63
  8
0
 10
230.3402110325677938
 20
21.75876389614033
 30
0.0
 40
0.0552925507652771
 50
123.8068891467750063
 51
146.296917877422004
  0
LINE
  5
6E64
  8
0
 10
230.2942118174105133
 20
21.7894451343005997
 30
0.0
 11
230.2976908448104894
 21
21.7421392991006002
 31
0.0
  0
ARC
  5
6E65
  8
0
 10
230.3340657723256868
 20
21.7448144314381402
 30
0.0
 40
0.0364731638983081
 50
184.2061486640500902
 51
222.749652460823512
  0
ARC
  5
6E66
  8
0
 10
230.3715273230490084
 20
21.7799184366537908
 30
0.0
 40
0.0878113403438981
 50
222.9773998440560945
 51
249.2325761143686975
  0
ARC
  5
6E67
  8
0
 10
230.3828189626046878
 20
21.7327217066840497
 30
0.0
 40
0.0096132744578423
 50
135.1800895663845097
 51
224.81991043360091
  0
ARC
  5
6E68
  8
0
 10
230.3977390676049026
 20
21.7182369406165385
 30
0.0
 40
0.0304074898347306
 50
111.2720054866725974
 51
135.6369835249543883
  0
ARC
  5
6E69
  8
0
 10
230.3977390676049026
 20
21.7472064727515608
 30
0.0
 40
0.0304074898347306
 50
224.3630164750454981
 51
248.7279945133273031
  0
ARC
  5
6E6A
  8
0
 10
230.4125772509104877
 20
21.3926238780514204
 30
0.0
 40
0.1725738734745171
 50
67.1095530743779136
 51
112.8904469256221006
  0
LINE
  5
6E6B
  8
0
 10
230.3454511304105949
 20
21.5516076060005908
 30
0.0
 11
230.3490290728105947
 21
21.4870666777006001
 31
0.0
  0
ARC
  5
6E6C
  8
0
 10
230.3691127186106939
 20
21.4881800507144014
 30
0.0
 40
0.0201144830431252
 50
183.1730467005546927
 51
233.4090016916061927
  0
ARC
  5
6E6D
  8
0
 10
230.3874006373152099
 20
21.5100796691540417
 30
0.0
 40
0.0486266373923652
 50
231.488943450658212
 51
249.3328623357596996
  0
ARC
  5
6E6E
  8
0
 10
230.4065734024187861
 20
21.5650534113511796
 30
0.0
 40
0.1068394582058833
 50
250.1176799792135057
 51
262.0542344243060029
  0
ARC
  5
6E6F
  8
0
 10
230.3910826944718906
 20
21.476806680940669
 30
0.0
 40
0.0040194377727808
 50
124.4385425054131957
 51
235.5614574946440882
  0
ARC
  5
6E70
  8
0
 10
230.4022055711479027
 20
21.4628830908744384
 30
0.0
 40
0.0218316148587991
 50
100.4930459508055947
 51
127.8505232734651997
  0
ARC
  5
6E71
  8
0
 10
230.4022055711479027
 20
21.490730271006889
 30
0.0
 40
0.0218316148587991
 50
232.1494767265348003
 51
259.5069540491944053
  0
LINE
  5
6E72
  8
0
 10
230.3831741496105963
 20
21.4516300726006008
 30
0.0
 11
230.3794890371106021
 21
21.3847665843005998
 31
0.0
  0
ARC
  5
6E73
  8
0
 10
230.3512744485788915
 20
21.3874541990769593
 30
0.0
 40
0.0283423054672458
 50
329.0059619563677984
 51
354.5586393884631207
  0
ARC
  5
6E74
  8
0
 10
230.3179802706532939
 20
21.4106611538368092
 30
0.0
 40
0.0688880248296373
 50
312.1577147639139866
 51
326.7192078908852864
  0
ARC
  5
6E75
  8
0
 10
230.2935705358837879
 20
21.4376212987593817
 30
0.0
 40
0.1052567554338283
 50
308.3420023002972243
 51
312.1577147639154077
  0
ARC
  5
6E76
  8
0
 10
230.3516831063691086
 20
21.3641488228617007
 30
0.0
 40
0.0115803146232251
 50
285.6811059626004976
 51
308.3420023002954053
  0
ARC
  5
6E77
  8
0
 10
230.3501555124964
 20
21.369920038123901
 30
0.0
 40
0.0175498395172874
 50
258.4734988599324197
 51
285.3901408258527113
  0
ARC
  5
6E78
  8
0
 10
230.4395496812960005
 20
21.7647482189148
 30
0.0
 40
0.4223676591815624
 50
252.9882117650766986
 51
257.293732483805627
  0
ARC
  5
6E79
  8
0
 10
230.3736072839936071
 20
21.5489535106971317
 30
0.0
 40
0.1967224888218185
 50
246.2558473318306937
 51
252.965592104963207
  0
ARC
  5
6E7A
  8
0
 10
230.3190572091151864
 20
21.4232340636543306
 30
0.0
 40
0.0596840774182108
 50
229.793444531539194
 51
245.5945997221247978
  0
ARC
  5
6E7B
  8
0
 10
230.2916617589148984
 20
21.39013285311297
 30
0.0
 40
0.0167248937594923
 50
184.8673418446028052
 51
228.2660153425665044
  0
LINE
  5
6E7C
  8
0
 10
230.2749971781105103
 20
21.3887137626005917
 30
0.0
 11
230.2714559173105044
 21
21.4529690858005999
 31
0.0
  0
ARC
  5
6E7D
  8
0
 10
230.311791031692394
 20
21.3581883430743105
 30
0.0
 40
0.1030063621527505
 50
96.7129904240532312
 51
113.0527767232137961
  0
ARC
  5
6E7E
  8
0
 10
230.3253220109770041
 20
21.2432295472017287
 30
0.0
 40
0.2187587364215923
 50
82.7225509626208009
 51
96.7129904240532312
  0
ARC
  5
6E7F
  8
0
 10
230.3398189259440869
 20
21.3567501633206298
 30
0.0
 40
0.1043162144833828
 50
65.4420445767279659
 51
82.7225509626207582
  0
ARC
  5
6E80
  8
0
 10
230.3276335542360016
 20
21.3149132026459789
 30
0.0
 40
0.072723229892928
 50
80.7070732981647581
 51
104.9623440247824959
  0
ARC
  5
6E81
  8
0
 10
230.3324020200473967
 20
21.3440550458618397
 30
0.0
 40
0.0431938328077864
 50
60.8719795432970301
 51
80.707073298168055
  0
ARC
  5
6E82
  8
0
 10
230.3514706228129967
 20
21.3783880431980187
 30
0.0
 40
0.0039212843201906
 50
301.0866603211758274
 51
60.0691648536278393
  0
ARC
  5
6E83
  8
0
 10
230.3277971932294008
 20
21.4297336034332311
 30
0.0
 40
0.060439127108718
 50
259.3064577373618818
 51
295.1627002088749236
  0
ARC
  5
6E84
  8
0
 10
230.3243926242654993
 20
21.4225878153065707
 30
0.0
 40
0.0528243144404456
 50
252.3329016645203922
 51
261.4974394926242098
  0
ARC
  5
6E85
  8
0
 10
230.3147660523740115
 20
21.3924775874068089
 30
0.0
 40
0.0212127066915713
 50
234.0369063731320978
 51
252.426119658673997
  0
ARC
  5
6E86
  8
0
 10
230.3148979994863055
 20
21.3640796536157396
 30
0.0
 40
0.0219390844094432
 50
105.9815271074007939
 51
124.2864850231188001
  0
ARC
  5
6E87
  8
0
 10
230.304948178841812
 20
21.3786729383789513
 30
0.0
 40
0.0042766131486278
 50
124.2864850231246976
 51
231.8870264347509078
  0
LINE
  5
6E88
  8
0
 10
230.2612882396105931
 20
21.4074446829006
 30
0.0
 11
230.2576626324105007
 21
21.3416590449005987
 31
0.0
  0
ARC
  5
6E89
  8
0
 10
230.2471459006659984
 20
21.3423327177043483
 30
0.0
 40
0.0105382864656443
 50
280.6573728599776132
 51
356.3347982349552012
  0
ARC
  5
6E8A
  8
0
 10
230.2450745494363105
 20
21.3494248938113707
 30
0.0
 40
0.0179058376821144
 50
269.2533234683817227
 51
282.9747722557829093
  0
ARC
  5
6E8B
  8
0
 10
230.2663154009580921
 20
22.2266868808604983
 30
0.0
 40
0.8954238400074473
 50
266.4096401170110084
 51
268.6257919966886902
  0
ARC
  5
6E8C
  8
0
 10
230.2424099568796976
 20
21.8322949744918198
 30
0.0
 40
0.5003096979379745
 50
262.3507238330284963
 51
266.313520415708183
  0
ARC
  5
6E8D
  8
0
 10
230.1991124239391979
 20
21.5077315286230188
 30
0.0
 40
0.1728713627643528
 50
252.9271078492554921
 51
262.2546041317258982
  0
ARC
  5
6E8E
  8
0
 10
230.1619873811023069
 20
21.3815337326433799
 30
0.0
 40
0.0413648481213751
 50
231.6206432124108119
 51
250.7641923086503084
  0
ARC
  5
6E8F
  8
0
 10
230.1474198611198005
 20
21.362101078463791
 30
0.0
 40
0.0170989694988622
 50
185.6130247890199882
 51
229.4577276718067083
  0
LINE
  5
6E90
  8
0
 10
230.1304028779105124
 20
21.3604286430005992
 30
0.0
 11
230.1268652368106018
 21
21.4246185721005915
 31
0.0
  0
ARC
  5
6E91
  8
0
 10
230.1658843427190959
 20
21.32888761178884
 30
0.0
 40
0.1033774994286379
 50
93.9377067839822359
 51
112.1753813056783002
  0
ARC
  5
6E92
  8
0
 10
230.1784918206124075
 20
21.23292661613565
 30
0.0
 40
0.2000673661672506
 50
78.2948684321331427
 51
95.6527909778692731
  0
ARC
  5
6E93
  8
0
 10
230.2047300995290016
 20
21.3473656701365293
 30
0.0
 40
0.0827220804630116
 50
54.6335250094775802
 51
80.0099526260197962
  0
ARC
  5
6E94
  8
0
 10
230.2148174505057057
 20
21.3615775555105998
 30
0.0
 40
0.0652941621818815
 50
44.6254325731673802
 51
54.6335250094775802
  0
ARC
  5
6E95
  8
0
 10
230.1843571220788931
 20
21.2864285106267701
 30
0.0
 40
0.072689661986485
 50
85.4234919051534263
 51
105.8577238810140955
  0
ARC
  5
6E96
  8
0
 10
230.184892623115104
 20
21.2931184738564099
 30
0.0
 40
0.0659783007703248
 50
69.4625285866811026
 51
85.4234919051534263
  0
ARC
  5
6E97
  8
0
 10
230.2061604314610008
 20
21.3498885996604812
 30
0.0
 40
0.0053551463188864
 50
298.4751169965892927
 51
69.4625285866897997
  0
ARC
  5
6E98
  8
0
 10
230.1856742850237083
 20
21.4128627964588283
 30
0.0
 40
0.0714954367003852
 50
255.3252815496732921
 51
288.7990101312780098
  0
ARC
  5
6E99
  8
0
 10
230.1749882948643915
 20
21.3708121379569889
 30
0.0
 40
0.0281111611235525
 50
239.5030150930386981
 51
254.6825646220727037
  0
ARC
  5
6E9A
  8
0
 10
230.162880443331801
 20
21.350585044484081
 30
0.0
 40
0.0045408147068532
 50
125.4951657430300003
 51
241.6194328649262104
  0
ARC
  5
6E9B
  8
0
 10
230.1706654905549954
 20
21.3382789390964014
 30
0.0
 40
0.0190973341288451
 50
108.8518821165455961
 51
123.0731730656624023
  0
LINE
  5
6E9C
  8
0
 10
230.2072202938863938
 20
21.3332243567740392
 30
0.0
 11
230.2057497295105861
 21
21.3065414246005993
 31
0.0
  0
ARC
  5
6E9D
  8
0
 10
230.1952793388715861
 20
21.3071879288358801
 30
0.0
 40
0.0104903311605653
 50
280.8252746357242131
 51
356.4667033109873842
  0
ARC
  5
6E9E
  8
0
 10
230.1337955263981883
 20
21.6422713204653085
 30
0.0
 40
0.3511675173994404
 50
277.5021148219740894
 51
280.4102168848223755
  0
ARC
  5
6E9F
  8
0
 10
230.1013260597335943
 20
21.8365774923495692
 30
0.0
 40
0.5480922032197448
 50
274.913205008093712
 51
278.2153220791348076
  0
ARC
  5
6EA0
  8
0
 10
230.1197492793492927
 20
21.6080130422305601
 30
0.0
 40
0.3187920442027759
 50
267.6928967640487826
 51
275.1325150051266064
  0
ARC
  5
6EA1
  8
0
 10
230.1130837463819887
 20
21.4155411315370614
 30
0.0
 40
0.1262125126223705
 50
253.5641131176799945
 51
267.1989995039306223
  0
ARC
  5
6EA2
  8
0
 10
230.090001439711898
 20
21.3333483915237601
 30
0.0
 40
0.0408627207989609
 50
232.9077961825948933
 51
251.9981246546508089
  0
ARC
  5
6EA3
  8
0
 10
230.0751265796307905
 20
21.3136747373349387
 30
0.0
 40
0.0161986957508199
 50
184.7063664394079012
 51
232.907796182593188
  0
LINE
  5
6EA4
  8
0
 10
230.0589825014104974
 20
21.3123456465005994
 30
0.0
 11
230.0554668687105107
 21
21.3761338857006002
 31
0.0
  0
ARC
  5
6EA5
  8
0
 10
230.0895581171664048
 20
21.2910473173229917
 30
0.0
 40
0.0916620823435537
 50
97.6049439119053943
 51
111.8342706003136016
  0
ARC
  5
6EA6
  8
0
 10
230.1085142772456038
 20
21.149070956756681
 30
0.0
 40
0.2348983311236694
 50
90.3860673670029655
 51
97.6049439119053943
  0
ARC
  5
6EA7
  8
0
 10
230.1045819157100141
 20
21.1310996536690112
 30
0.0
 40
0.2528752176126416
 50
84.4198001661121253
 51
89.4676276943594644
  0
ARC
  5
6EA8
  8
0
 10
230.1133470655067015
 20
21.2301132711364104
 30
0.0
 40
0.0810862845971734
 50
77.6340909572440552
 51
100.4107894503673037
  0
ARC
  5
6EA9
  8
0
 10
230.1239174457587922
 20
21.2783268833186092
 30
0.0
 40
0.0317275433416333
 50
60.1406093937501183
 51
77.6340909572407867
  0
ARC
  5
6EAA
  8
0
 10
230.1375677428135873
 20
21.302104460232961
 30
0.0
 40
0.0043103266046695
 50
307.8415926309858719
 51
60.1406093937667805
  0
ARC
  5
6EAB
  8
0
 10
230.127076170924596
 20
21.3205938405480602
 30
0.0
 40
0.0255316904018939
 50
283.7015320805945748
 51
300.9635650093263735
  0
ARC
  5
6EAC
  8
0
 10
230.116291321723395
 20
21.3731209112365512
 30
0.0
 40
0.0791428997745504
 50
257.1606864323696868
 51
282.2796600498119233
  0
ARC
  5
6EAD
  8
0
 10
230.1049385515638903
 20
21.3233009028626306
 30
0.0
 40
0.028045750990962
 50
234.7160268300577002
 51
257.1566784227028961
  0
ARC
  5
6EAE
  8
0
 10
230.0910676346958894
 20
21.3031108278205998
 30
0.0
 40
0.0035685527545892
 50
131.0533457344621127
 51
229.2558632295412906
  0
ARC
  5
6EAF
  8
0
 10
230.1039420348622002
 20
21.2827209496563192
 30
0.0
 40
0.0276463195486713
 50
100.9418367849927023
 51
123.3983157020427939
  0
LINE
  5
6EB0
  8
0
 10
230.2267030278104869
 20
21.3263814667005995
 30
0.0
 11
230.2235040138106115
 21
21.2683362517005996
 31
0.0
  0
ARC
  5
6EB1
  8
0
 10
230.2132605985536031
 20
21.2689284015359412
 30
0.0
 40
0.0102605164369448
 50
299.0680010772808828
 51
356.6915361176277202
  0
ARC
  5
6EB2
  8
0
 10
230.1264453172778985
 20
21.4195296632564087
 30
0.0
 40
0.184091536109652
 50
292.3457064582287899
 51
299.9118311659560163
  0
ARC
  5
6EB3
  8
0
 10
230.1344301413400899
 20
21.400104802762101
 30
0.0
 40
0.163089569046395
 50
281.8741942878344844
 51
292.3457064582287899
  0
ARC
  5
6EB4
  8
0
 10
230.1376720829991882
 20
21.3790838765279005
 30
0.0
 40
0.1418560645202348
 50
260.439430307224427
 51
282.3398035360017957
  0
ARC
  5
6EB5
  8
0
 10
230.1254999558308043
 20
21.3103406388748802
 30
0.0
 40
0.0720483395944363
 50
243.7773876230050121
 51
260.9050395553891235
  0
ARC
  5
6EB6
  8
0
 10
230.1019534213025963
 20
21.2625353974340605
 30
0.0
 40
0.0187587496401059
 50
188.5927891114401973
 51
243.7773876229942118
  0
LINE
  5
6EB7
  8
0
 10
230.0834072485104969
 20
21.2597280873005907
 30
0.0
 11
230.0815553286084025
 21
21.2933300141412083
 31
0.0
  0
ARC
  5
6EB8
  8
0
 10
230.1375570767353906
 20
21.1747927357741297
 30
0.0
 40
0.0842694305960444
 50
78.964847023574535
 51
100.0565691719063039
  0
ARC
  5
6EB9
  8
0
 10
230.146842406095999
 20
21.2224056336515616
 30
0.0
 40
0.0357595822596303
 50
61.2338210940193903
 51
78.9648470235729008
  0
ARC
  5
6EBA
  8
0
 10
230.1621641974805073
 20
21.25031488007793
 30
0.0
 40
0.0039211883410144
 50
302.8179726726181116
 51
61.2338210940307803
  0
ARC
  5
6EBB
  8
0
 10
230.1538310210152076
 20
21.2632365353739914
 30
0.0
 40
0.0192968511101545
 50
281.4300607164695975
 51
302.8179726726178842
  0
ARC
  5
6EBC
  8
0
 10
230.1402682364484917
 20
21.3241629986927315
 30
0.0
 40
0.0817118460856867
 50
257.9098930733298971
 51
282.2854796295162032
  0
ARC
  5
6EBD
  8
0
 10
230.1289481905266996
 20
21.2734351190635316
 30
0.0
 40
0.0297414745263272
 50
239.6333113738745908
 51
258.7653119863746838
  0
ARC
  5
6EBE
  8
0
 10
230.1159206540386037
 20
21.2512006130633999
 30
0.0
 40
0.0039715314915103
 50
126.1457655804109947
 51
239.6333113738446059
  0
ARC
  5
6EBF
  8
0
 10
230.1287040151046028
 20
21.2271523052247311
 30
0.0
 40
0.0311713085518638
 50
100.8396359144519039
 51
119.0289747818517014
  0
ARC
  5
6EC0
  8
0
 10
230.2124426844574998
 20
21.2585976579917606
 30
0.0
 40
0.0692676123135787
 50
78.1193812791357658
 51
83.8972644058605397
  0
ARC
  5
6EC1
  8
0
 10
230.1132582849465962
 20
20.1511079048172483
 30
0.0
 40
1.181180228642174
 50
84.8246000860623468
 51
85.4498371857020658
  0
ARC
  5
6EC2
  8
0
 10
230.3473997095275081
 20
20.5750723535488014
 30
0.0
 40
0.7260363592813714
 50
95.078190825363265
 51
99.7268476713172021
  0
ARC
  5
6EC3
  8
0
 10
230.2918204899085879
 20
21.2066223509331806
 30
0.0
 40
0.0920472876421186
 50
87.4844707370995422
 51
95.4147473572202358
  0
ARC
  5
6EC4
  8
0
 10
230.2920370863481025
 20
21.2115525607244102
 30
0.0
 40
0.0871123223329077
 50
77.7987294044692987
 51
87.4844707370995422
  0
LINE
  5
6EC5
  8
0
 10
230.3104479683105126
 20
21.2966971209005997
 30
0.0
 11
230.3067423975105896
 21
21.2294623491006007
 31
0.0
  0
ARC
  5
6EC6
  8
0
 10
230.2791117999855999
 20
21.2309851792171287
 30
0.0
 40
0.0276725302628944
 50
308.2738387889507976
 51
356.8453973696015282
  0
ARC
  5
6EC7
  8
0
 10
230.2683188740165008
 20
21.2446642304977011
 30
0.0
 40
0.0450967575028437
 50
283.6344273122188042
 51
308.2738387889507976
  0
ARC
  5
6EC8
  8
0
 10
230.2490913710514064
 20
21.3302114143696109
 30
0.0
 40
0.132773855445528
 50
255.0541297658245128
 51
282.9957336119715023
  0
ARC
  5
6EC9
  8
0
 10
230.2256014266372119
 20
21.2404833290091304
 30
0.0
 40
0.0400255593756682
 50
235.9123846563502127
 51
254.4154360655772962
  0
ARC
  5
6ECA
  8
0
 10
230.2125465224432048
 20
21.2211923354553598
 30
0.0
 40
0.0167323638927251
 50
186.5678314826741939
 51
235.9123846563535096
  0
LINE
  5
6ECB
  8
0
 10
230.1959239707105098
 20
21.219278497600591
 30
0.0
 11
230.1943185348978886
 21
21.2484090946857016
 31
0.0
  0
ARC
  5
6ECC
  8
0
 10
230.2489984013261051
 20
21.1351181241670893
 30
0.0
 40
0.0841204246424375
 50
76.8742253223591661
 51
101.2392076920791055
  0
ARC
  5
6ECD
  8
0
 10
230.2627522201148054
 20
21.1941014297226182
 30
0.0
 40
0.023554775421705
 50
57.2730099651816005
 51
76.8742253223590808
  0
ARC
  5
6ECE
  8
0
 10
230.2735400796327951
 20
21.2108878488930905
 30
0.0
 40
0.0036007838023231
 50
298.0361741735940768
 51
57.2730099651953779
  0
ARC
  5
6ECF
  8
0
 10
230.2578791514403065
 20
21.2402969626017502
 30
0.0
 40
0.0369198570333929
 50
289.6883620875472047
 51
298.0361741735957821
  0
ARC
  5
6ED0
  8
0
 10
230.251465274984696
 20
21.2759363212207191
 30
0.0
 40
0.0728813346984018
 50
248.6558602151569062
 51
284.9912486942019996
  0
ARC
  5
6ED1
  8
0
 10
230.2265646265664998
 20
21.2114291320941817
 30
0.0
 40
0.0037464833032845
 50
122.5081050567978025
 51
244.2797495579262943
  0
ARC
  5
6ED2
  8
0
 10
230.2371673275997921
 20
21.1933300904468709
 30
0.0
 40
0.024720254536483
 50
100.6404234292485
 51
120.6875504262571042
  0
ARC
  5
6ED3
  8
0
 10
230.2223627553138954
 20
21.0941346303100694
 30
0.0
 40
0.1127749387500863
 50
98.4365041079808663
 51
110.1481398139719943
  0
LINE
  5
6ED4
  8
0
 10
230.18351758571049
 20
21.2000083268005888
 30
0.0
 11
230.1865548727105022
 21
21.1388525340005984
 31
0.0
  0
ARC
  5
6ED5
  8
0
 10
230.2027397484563949
 20
21.1396563517658294
 30
0.0
 40
0.0162048241554528
 50
182.8432442476708957
 51
229.3488796019607889
  0
ARC
  5
6ED6
  8
0
 10
230.2235170347416044
 20
21.1682811652113401
 30
0.0
 40
0.0515383500922734
 50
232.5568956931170135
 51
255.7168907501659021
  0
ARC
  5
6ED7
  8
0
 10
230.2529362277740006
 20
21.2996913836293196
 30
0.0
 40
0.1861856678863527
 50
256.9204838139368121
 51
279.1238385372412267
  0
ARC
  5
6ED8
  8
0
 10
230.2704722460183007
 20
21.1880446757371104
 30
0.0
 40
0.0731718934755342
 50
279.4288630764315826
 51
297.9982976518239184
  0
ARC
  5
6ED9
  8
0
 10
230.2957523816492085
 20
21.1389534533553913
 30
0.0
 40
0.0179731889861198
 50
300.3077452183993046
 51
354.6191363037315796
  0
LINE
  5
6EDA
  8
0
 10
230.3136463689106108
 20
21.1372680032005995
 30
0.0
 11
230.3172954092104874
 21
21.1981050124005996
 31
0.0
  0
ARC
  5
6EDB
  8
0
 10
230.2769328822184036
 20
21.1000683283108685
 30
0.0
 40
0.1060203990395082
 50
67.6226230826845267
 51
82.7923218197585555
  0
ARC
  5
6EDC
  8
0
 10
230.2490936941885877
 20
21.0665316323907099
 30
0.0
 40
0.0677896649588846
 50
68.6573950043629253
 51
109.3555766227176065
  0
ARC
  5
6EDD
  8
0
 10
230.2280852162791973
 20
21.1278393238006288
 30
0.0
 40
0.0030255413591837
 50
118.8316869152636031
 51
244.6590274635406104
  0
ARC
  5
6EDE
  8
0
 10
230.2508515981286052
 20
21.1869847120740999
 30
0.0
 40
0.066393202504583
 50
248.7519403766710013
 51
289.9996906648364074
  0
ARC
  5
6EDF
  8
0
 10
230.2725080771566013
 20
21.1271807514186314
 30
0.0
 40
0.0027908248469284
 50
292.1226196791208167
 51
63.2245141025615709
  0
ARC
  5
6EE0
  8
0
 10
230.3976596991016095
 20
20.9322386775707301
 30
0.0
 40
0.1965064175195375
 50
95.2439125665939912
 51
106.1426237750490031
  0
LINE
  5
6EE1
  8
0
 10
230.3430251526104939
 20
21.1209973554006005
 30
0.0
 11
230.3485000364105133
 21
21.0609234631006004
 31
0.0
  0
ARC
  5
6EE2
  8
0
 10
230.3664329608020012
 20
21.0639218156185812
 30
0.0
 40
0.0181818562047991
 50
189.4919506700084924
 51
242.5750232821503118
  0
ARC
  5
6EE3
  8
0
 10
230.3819750675966986
 20
21.0936125180349592
 30
0.0
 40
0.0516943882945165
 50
242.4417347684666026
 51
259.0836164891911153
  0
ARC
  5
6EE4
  8
0
 10
230.4064728720985897
 20
21.2071114330394117
 30
0.0
 40
0.1677983340137701
 50
258.2092801714604775
 51
263.2946350873957044
  0
ARC
  5
6EE5
  8
0
 10
230.4034840852588957
 20
21.0177804782009794
 30
0.0
 40
0.038015325860059
 50
96.7524516051418999
 51
112.7604761731651024
  0
ARC
  5
6EE6
  8
0
 10
230.3896359890358099
 20
21.05078751521377
 30
0.0
 40
0.0022209930492946
 50
112.7604761731845002
 51
245.0342913611366953
  0
ARC
  5
6EE7
  8
0
 10
230.404526444842304
 20
21.08795675748474
 30
0.0
 40
0.042258802759431
 50
248.003718607109505
 51
262.6622915932683782
  0
LINE
  5
6EE8
  8
0
 10
230.3434054848104893
 20
21.0266352743005989
 30
0.0
 11
230.3483482833104858
 21
20.9723997588005986
 31
0.0
  0
ARC
  5
6EE9
  8
0
 10
230.3605646226569093
 20
20.97351310497681
 30
0.0
 40
0.0122669672997938
 50
185.2073131207856136
 51
250.1236068746651995
  0
ARC
  5
6EEA
  8
0
 10
230.3755965166112958
 20
21.0350371996291301
 30
0.0
 40
0.0755416815089347
 50
255.2739149348170997
 51
266.3379644670745847
  0
ARC
  5
6EEB
  8
0
 10
230.387620007794709
 20
20.5785198499516504
 30
0.0
 40
0.4502914140666594
 50
92.8633779593874209
 51
95.6350044358222533
  0
ARC
  5
6EEC
  8
0
 10
230.2575366922023079
 20
20.9337163843363889
 30
0.0
 40
0.0959443681281849
 50
24.8428684685703907
 51
63.1839918422798874
  0
ARC
  5
6EED
  8
0
 10
230.1235243996862039
 20
20.8674239469450313
 30
0.0
 40
0.2454374162259959
 50
9.0651206695093212
 51
25.7428817229540705
  0
ARC
  5
6EEE
  8
0
 10
229.7500558875520085
 20
20.8066852554474693
 30
0.0
 40
0.623812110296484
 50
1.9818772140782679
 51
9.1695979070884999
  0
ARC
  5
6EEF
  8
0
 10
230.3762434852660874
 20
20.8287578504960003
 30
0.0
 40
0.0027935808432869
 50
190.2908697564110128
 51
253.7133504109181956
  0
LINE
  5
6EF0
  8
0
 10
230.357216828210511
 20
21.2691544460005986
 30
0.0
 11
230.360802352010495
 21
21.2040885094005986
 31
0.0
  0
ARC
  5
6EF1
  8
0
 10
230.4607670480673107
 20
21.0902829595750099
 30
0.0
 40
0.206682502134281
 50
109.7854043137687938
 51
120.0669138866649064
  0
ARC
  5
6EF2
  8
0
 10
230.4092076996597882
 20
21.2254072475266184
 30
0.0
 40
0.0621443016111896
 50
94.9726019211020258
 51
107.224846168712304
  0
ARC
  5
6EF3
  8
0
 10
230.4125772509104877
 20
21.329763039189281
 30
0.0
 40
0.1470927937305386
 50
261.0894919801605738
 51
278.9105080198377777
  0
ARC
  5
6EF4
  8
0
 10
230.4026165875876018
 20
21.2637028924025486
 30
0.0
 40
0.0802880281554775
 50
250.4178598224048073
 51
260.8099575477505141
  0
ARC
  5
6EF5
  8
0
 10
230.3865260829419128
 20
21.2184708943463214
 30
0.0
 40
0.0322792999082802
 50
232.2158656760865938
 51
250.4178598224050063
  0
ARC
  5
6EF6
  8
0
 10
230.3762159498396898
 20
21.2051715481736203
 30
0.0
 40
0.0154516009209776
 50
184.0192905945876021
 51
232.2158656760923066
  0
ARC
  5
6EF7
  8
0
 10
230.4028714683834096
 20
21.1705734649326907
 30
0.0
 40
0.0329642252869371
 50
99.3897220169370854
 51
118.1910359141457008
  0
ARC
  5
6EF8
  8
0
 10
230.3890169350212886
 20
21.1964217701418889
 30
0.0
 40
0.0036370539799462
 50
118.1910359141457008
 51
238.5848932181806958
  0
ARC
  5
6EF9
  8
0
 10
230.4039749985180947
 20
21.2253210998035016
 30
0.0
 40
0.0361698590842114
 50
242.2274255841946911
 51
259.8806806777233191
  0
ARC
  5
6EFA
  8
0
 10
186.223695570007294
 20
20.9272687084136493
 30
0.0
 40
44.1499102925124518
 50
359.8715092472547212
 51
0.0418292983134487
  0
LINE
  5
6EFB
  8
0
 10
229.9978457440084014
 20
16.4472559345046889
 30
0.0
 11
230.0180920562104916
 21
15.9613536680005996
 31
0.0
  0
ARC
  5
6EFC
  8
0
 10
230.0377600294173988
 20
15.9621731824449196
 30
0.0
 40
0.019685039344327
 50
182.3859892825039992
 51
270.0000456770414985
  0
LINE
  5
6EFD
  8
0
 10
230.0377600451105025
 20
15.94248814310059
 30
0.0
 11
230.7873978004105027
 21
15.9424887352005999
 31
0.0
  0
LINE
  5
6EFE
  8
0
 10
230.1271626717106074
 20
15.9424882137150998
 30
0.0
 11
230.1271626717106074
 21
-4.637143404641467
 31
0.0
  0
LINE
  5
6EFF
  8
0
 10
230.8653330802104904
 20
17.9199815945518885
 30
0.0
 11
230.8653330802104904
 21
17.6710947645847298
 31
0.0
  0
LINE
  5
6F00
  8
0
 10
230.8653330802104904
 20
17.5732315202920617
 30
0.0
 11
230.8653330802104904
 21
17.3716246754005894
 31
0.0
  0
LINE
  5
6F01
  8
0
 10
230.7828547529105947
 20
17.7408418398837107
 30
0.0
 11
230.7828547529105947
 21
17.5700794019689504
 31
0.0
  0
LINE
  5
6F02
  8
0
 10
230.495055800110606
 20
17.623348402386771
 30
0.0
 11
230.495055800110606
 21
17.452591115650339
 31
0.0
  0
ARC
  5
6F03
  8
0
 10
230.5672148939920021
 20
18.0010898007200701
 30
0.0
 40
0.3379786233978475
 50
309.6449365441117152
 51
331.8921070022370259
  0
ARC
  5
6F04
  8
0
 10
230.5672130505292898
 20
17.8303284889105598
 30
0.0
 40
0.3379806666953289
 50
309.6450553809261237
 51
331.8921560990598891
  0
ARC
  5
6F05
  8
0
 10
230.2325026149719918
 20
18.5069804760387804
 30
0.0
 40
1.0865869032556801
 50
283.9828290235653867
 51
300.4307239405591758
  0
ARC
  5
6F06
  8
0
 10
231.0455784927796969
 20
16.6860757832085795
 30
0.0
 40
1.0869936512256351
 50
103.9867548535466
 51
120.4285561391372994
  0
ARC
  5
6F07
  8
0
 10
230.4393246819475962
 20
18.1750658565011491
 30
0.0
 40
0.5204838276502431
 50
286.3378917243363162
 51
304.9603143433283776
  0
ARC
  5
6F08
  8
0
 10
230.5471660688004931
 20
18.0193752063792303
 30
0.0
 40
0.3310946564570948
 50
305.1040867770386171
 51
326.3961578911594188
  0
ARC
  5
6F09
  8
0
 10
230.6069140228595984
 20
17.9802792875291502
 30
0.0
 40
0.2596944900032641
 50
326.2847453752938236
 51
344.808818670251128
  0
LINE
  5
6F0A
  8
0
 10
230.9625789268106075
 20
20.3207949995369503
 30
0.0
 11
230.9625789268106075
 21
18.1448906859193393
 31
0.0
  0
ARC
  5
6F0B
  8
0
 10
235.3807162205839916
 20
20.1771952638655492
 30
0.0
 40
4.4204703404407661
 50
173.3819903611667996
 51
178.1384092785702933
  0
ARC
  5
6F0C
  8
0
 10
232.7738423113939064
 20
20.4796512784245301
 30
0.0
 40
1.796109233588467
 50
165.8011693830841011
 51
173.3819903611669986
  0
ARC
  5
6F0D
  8
0
 10
231.6883231217904893
 20
20.7440727467235497
 30
0.0
 40
0.6789654461970082
 50
151.7762943765119985
 51
164.9639448952686962
  0
ARC
  5
6F0E
  8
0
 10
232.3371612364848886
 20
21.9493083543266394
 30
0.0
 40
0.2327691331512082
 50
336.1366555648140206
 51
23.8633444351880897
  0
ARC
  5
6F0F
  8
0
 10
232.3387393196624089
 20
22.0141962193603185
 30
0.0
 40
0.2365936666634908
 50
347.3260703095809276
 51
12.6739296904217191
  0
ARC
  5
6F10
  8
0
 10
230.6553055889112045
 20
18.2563850832200316
 30
0.0
 40
4.4383936812416476
 50
73.419543504617053
 51
81.0405095002097084
  0
ARC
  5
6F11
  8
0
 10
231.300082925352001
 20
20.4318129246443085
 30
0.0
 40
2.1694274220257048
 50
65.2355366171114639
 51
73.3451763831954082
  0
ARC
  5
6F12
  8
0
 10
231.7571337455530909
 20
21.42590678471921
 30
0.0
 40
1.0753003156552781
 50
48.854476858424178
 51
65.161169495689677
  0
ARC
  5
6F13
  8
0
 10
232.1452712083431038
 20
21.9014617323566192
 30
0.0
 40
0.4622638371099713
 50
35.3027785748217866
 51
46.2979459102446498
  0
ARC
  5
6F14
  8
0
 10
232.2729540293989885
 20
21.9920226556956315
 30
0.0
 40
0.305725784794361
 50
14.0233713405340197
 51
35.2802724859026711
  0
ARC
  5
6F15
  8
0
 10
230.6651147126625006
 20
17.974864486490219
 30
0.0
 40
4.6364449061289941
 50
76.6625810876907536
 51
82.3637680559191665
  0
ARC
  5
6F16
  8
0
 10
231.0517327677902131
 20
19.6056161222055501
 30
0.0
 40
2.9604901281176779
 50
70.0563295860624464
 51
76.6625810876907536
  0
ARC
  5
6F17
  8
0
 10
231.5015731554780132
 20
20.8453333427853202
 30
0.0
 40
1.6416818928548129
 50
59.3787385366154083
 51
70.0563295860624464
  0
ARC
  5
6F18
  8
0
 10
231.9244381313287136
 20
21.5811429153635004
 30
0.0
 40
0.7931626966258269
 50
48.8537493684360626
 51
58.5917057166243112
  0
ARC
  5
6F19
  8
0
 10
232.1349837371091098
 20
21.8318288755843888
 30
0.0
 40
0.4658964773444819
 50
27.0186613817725707
 51
48.0667165484469834
  0
ARC
  5
6F1A
  8
0
 10
231.8504640637461023
 20
22.1271827822443292
 30
0.0
 40
0.7506011016820975
 50
322.9638178945511982
 51
338.750300882119177
  0
ARC
  5
6F1B
  8
0
 10
231.6463460660812927
 20
22.2869827325209116
 30
0.0
 40
1.0098005156887011
 50
306.7880252689520262
 51
322.7018519783085821
  0
ARC
  5
6F1C
  8
0
 10
231.2019027932913957
 20
22.9091245970256914
 30
0.0
 40
1.7742825401511539
 50
289.9219424722313079
 51
306.2507296480216041
  0
ARC
  5
6F1D
  8
0
 10
230.680224517703806
 20
24.3106786858187895
 30
0.0
 40
3.269746300633058
 50
280.2131695323558915
 51
287.3001132067134904
  0
ARC
  5
6F1E
  8
0
 10
230.680224517703806
 20
24.3106786858187895
 30
0.0
 40
3.269746300633058
 50
289.7940108851847185
 51
290.1478992877557062
  0
ARC
  5
6F1F
  8
0
 10
230.4615304601568084
 20
25.4750919444359987
 30
0.0
 40
4.4544947666198604
 50
274.8169624531096815
 51
278.5642264573219222
  0
ARC
  5
6F20
  8
0
 10
230.4615304601568084
 20
25.4750919444359987
 30
0.0
 40
4.4544947666198604
 50
280.3255962393993741
 51
280.3259167849612936
  0
ARC
  5
6F21
  8
0
 10
230.3794027007556053
 20
26.53483169784921
 30
0.0
 40
5.5173927016936499
 50
271.4793660062792924
 51
272.8969368876940962
  0
ARC
  5
6F22
  8
0
 10
230.3794027007556053
 20
26.53483169784921
 30
0.0
 40
5.5173927016936499
 50
274.739485320558174
 51
274.7426952543459038
  0
ARC
  5
6F23
  8
0
 10
230.5297586337549092
 20
20.7665648611480691
 30
0.0
 40
0.2528370316925295
 50
91.7936380751296497
 51
101.1995391753851976
  0
ARC
  5
6F24
  8
0
 10
230.6553803640308047
 20
18.14782116691784
 30
0.0
 40
0.3072125399342381
 50
343.1982877544448911
 51
359.4534508923346152
  0
ARC
  5
6F25
  8
0
 10
230.6088409393638017
 20
18.1701429251152611
 30
0.0
 40
0.3583050309077309
 50
316.2140761666564117
 51
341.9323293447440051
  0
ARC
  5
6F26
  8
0
 10
230.4992274622788102
 20
18.2804741283661194
 30
0.0
 40
0.5137978108331737
 50
293.4383470735364199
 51
315.79002240452769
  0
ARC
  5
6F27
  8
0
 10
230.4125416285206995
 20
17.5732315202920617
 30
0.0
 40
0.452791451713165
 50
0.0005811567657663
 51
10.6862876410833092
  0
ARC
  5
6F28
  8
0
 10
230.466569562201812
 20
17.8664880870097491
 30
0.0
 40
0.4568189557476864
 50
288.5413572021174105
 51
313.6762307885879864
  0
ARC
  5
6F29
  8
0
 10
230.5898528802113105
 20
17.7373722683785395
 30
0.0
 40
0.2782981695063329
 50
313.6762307885879864
 51
342.4353664006628151
  0
ARC
  5
6F2A
  8
0
 10
230.4125766639546953
 20
17.7977871833703496
 30
0.0
 40
0.4527560059719601
 50
289.7352341179537802
 51
324.6896747987530034
  0
LINE
  5
6F2B
  8
0
 10
230.832316560763104
 20
21.0352676563151206
 30
0.0
 11
230.8362053865104997
 21
20.9897598107006012
 31
0.0
  0
LINE
  5
6F2C
  8
0
 10
230.967606109580089
 20
21.0494382003090905
 30
0.0
 11
230.9647686792104935
 21
21.0019894315006006
 31
0.0
  0
ARC
  5
6F2D
  8
0
 10
230.9518457328279908
 20
21.0029515302042995
 30
0.0
 40
0.0129587104729095
 50
293.9981920248254141
 51
355.74224897954781
  0
ARC
  5
6F2E
  8
0
 10
230.9392025579572874
 20
21.0313509776409795
 30
0.0
 40
0.044045339198447
 50
282.4937981138368741
 51
293.9981920248254141
  0
ARC
  5
6F2F
  8
0
 10
230.8142590629325923
 20
21.7605804468856583
 30
0.0
 40
0.783852444573515
 50
273.6236906631928036
 51
279.8781080969084201
  0
ARC
  5
6F30
  8
0
 10
230.8567801519496925
 20
21.0899314814211003
 30
0.0
 40
0.1118568634028822
 50
265.1952508134813797
 51
273.5986277313838855
  0
ARC
  5
6F31
  8
0
 10
230.8487250704665996
 20
20.9909776373465213
 30
0.0
 40
0.0125787753020147
 50
185.5558505380384986
 51
264.0033951601957938
  0
ARC
  5
6F32
  8
0
 10
230.7322245137980872
 20
21.1604285994363188
 30
0.0
 40
0.1288460344860411
 50
254.7071782081476101
 51
290.3263692476639903
  0
ARC
  5
6F33
  8
0
 10
230.7428461967907083
 20
20.9187755122298711
 30
0.0
 40
0.1255595431755121
 50
74.224740853594227
 51
110.8088066022177998
  0
ARC
  5
6F34
  8
0
 10
230.707299873841805
 20
21.6754356611045402
 30
0.0
 40
0.6537601473394595
 50
268.2035957051489845
 51
278.1753455721409978
  0
ARC
  5
6F35
  8
0
 10
230.6913076033413859
 20
21.2383573671784198
 30
0.0
 40
0.2164073794451022
 50
255.6310750197152117
 51
268.8080159916768253
  0
ARC
  5
6F36
  8
0
 10
230.6422542406251068
 20
21.0477070264217794
 30
0.0
 40
0.0195487650995483
 50
189.904610211029194
 51
256.2354953062413756
  0
LINE
  5
6F37
  8
0
 10
230.622996840310492
 20
21.0443444753006013
 30
0.0
 11
230.6206695390104926
 21
21.0759910273005993
 31
0.0
  0
ARC
  5
6F38
  8
0
 10
230.7649363531442077
 20
21.2696303942833289
 30
0.0
 40
0.2438836722772862
 50
278.3294567515545737
 51
285.58214373815008
  0
ARC
  5
6F39
  8
0
 10
230.8158531771954074
 20
21.0870471538058801
 30
0.0
 40
0.0543337773295226
 50
285.58214373815008
 51
304.5042662229346888
  0
ARC
  5
6F3A
  8
0
 10
230.83676309335371
 20
21.0550827661814886
 30
0.0
 40
0.0161713503594672
 50
307.6068738166700882
 51
354.3521639387702749
  0
LINE
  5
6F3B
  8
0
 10
230.8528559412104926
 20
21.0534912825005911
 30
0.0
 11
230.8547392178074915
 21
21.0790998866502797
 31
0.0
  0
ARC
  5
6F3C
  8
0
 10
230.7654326764399002
 20
20.4294252018884599
 30
0.0
 40
0.6646343879485547
 50
85.1825359040295069
 51
100.3485812396393015
  0
ARC
  5
6F3D
  8
0
 10
230.6778650329356992
 20
20.9240111758422493
 30
0.0
 40
0.162385959290357
 50
101.3021501096338
 51
110.6231270666508948
  0
LINE
  5
6F3E
  8
0
 10
231.1227179234105051
 20
21.0901174368006004
 30
0.0
 11
231.1286097475106089
 21
21.0361419962006018
 31
0.0
  0
LINE
  5
6F3F
  8
0
 10
231.2611076771104877
 20
21.1083402834006009
 30
0.0
 11
231.2568486599105029
 21
21.0503454210005891
 31
0.0
  0
ARC
  5
6F40
  8
0
 10
231.2428051657678907
 20
21.0520501993972609
 30
0.0
 40
0.0141465895931145
 50
296.3750421591360009
 51
353.0785735947932835
  0
ARC
  5
6F41
  8
0
 10
231.218772962060001
 20
21.1070450863494088
 30
0.0
 40
0.0741497445878682
 50
283.6297502643366784
 51
294.1331490628198821
  0
ARC
  5
6F42
  8
0
 10
231.130929502511691
 20
21.4909533853444401
 30
0.0
 40
0.4679745010457909
 50
273.5724752563398852
 51
283.0056858335610741
  0
ARC
  5
6F43
  8
0
 10
231.1533312867944119
 20
21.1379426878785388
 30
0.0
 40
0.1142544756443423
 50
264.0707066493964135
 51
273.3910508360580138
  0
ARC
  5
6F44
  8
0
 10
231.1427849450172971
 20
21.0386377582939907
 30
0.0
 40
0.0143932294077051
 50
189.9854648823458945
 51
264.9927416854774265
  0
ARC
  5
6F45
  8
0
 10
231.177070905073208
 20
21.1514817878410213
 30
0.0
 40
0.1227391381865157
 50
265.2918124390574235
 51
289.6192806748268254
  0
ARC
  5
6F46
  8
0
 10
231.2077164170979984
 20
20.9173021616833594
 30
0.0
 40
0.1190360688441892
 50
84.9073431120882987
 51
110.0037500017942023
  0
ARC
  5
6F47
  8
0
 10
231.273518123900601
 20
20.4794935966125813
 30
0.0
 40
0.6289691365033724
 50
91.1305997853891085
 51
103.8722407192924067
  0
LINE
  5
6F48
  8
0
 10
231.6520614388105912
 20
21.1935943271005911
 30
0.0
 11
231.6575191622106047
 21
21.1428412876005893
 31
0.0
  0
LINE
  5
6F49
  8
0
 10
231.7875363945105107
 20
21.2353292788005987
 30
0.0
 11
231.7852456948106123
 21
21.1757049181005996
 31
0.0
  0
ARC
  5
6F4A
  8
0
 10
231.7732418069703044
 20
21.1761660937333716
 30
0.0
 40
0.0120127434936631
 50
294.5126876825589761
 51
357.7998437815419948
  0
ARC
  5
6F4B
  8
0
 10
231.4040665843207876
 20
22.1463958970882189
 30
0.0
 40
1.050080833277024
 50
286.011535065627811
 51
290.8740413965757057
  0
ARC
  5
6F4C
  8
0
 10
231.6256389696966949
 20
21.3787997734196402
 30
0.0
 40
0.2511492982586397
 50
281.1827409573151044
 51
285.7263578216030169
  0
ARC
  5
6F4D
  8
0
 10
231.670911224880399
 20
21.1456678620646201
 30
0.0
 40
0.0136871058209741
 50
191.9181222573326977
 51
284.5362099992763092
  0
ARC
  5
6F4E
  8
0
 10
231.816207169012813
 20
20.8354273862099184
 30
0.0
 40
0.3271539078214943
 50
102.2078595396130964
 51
111.6522297977400058
  0
ARC
  5
6F4F
  8
0
 10
231.6288139976610978
 20
21.4510501510908611
 30
0.0
 40
0.3186088916622086
 50
282.0809123743221107
 51
291.779176963032512
  0
ARC
  5
6F50
  8
0
 10
231.9860501310978975
 20
20.5564505637406398
 30
0.0
 40
0.7073075804593947
 50
106.2996662732008986
 51
106.6497061258733936
  0
ARC
  5
6F51
  8
0
 10
231.9056712698854028
 20
20.5068722335656091
 30
0.0
 40
0.732055448833548
 50
107.1112605517091936
 51
110.2694349609642046
  0
LINE
  5
6F52
  8
0
 10
231.6543663665104873
 20
21.2777864747006014
 30
0.0
 11
231.6612670408105998
 21
21.2211794771005984
 31
0.0
  0
LINE
  5
6F53
  8
0
 10
231.7930890397105088
 20
21.3098181965006006
 30
0.0
 11
231.7891058450105959
 21
21.2450943802006016
 31
0.0
  0
ARC
  5
6F54
  8
0
 10
231.7900324137060011
 20
21.0949214049940998
 30
0.0
 40
0.2149185286621896
 50
89.185097370158644
 51
97.4187024613033259
  0
ARC
  5
6F55
  8
0
 10
231.8103617381763968
 20
20.9289512533100606
 30
0.0
 40
0.3821263765611324
 50
97.2281593140049267
 51
114.0936815857392048
  0
ARC
  5
6F56
  8
0
 10
231.6772310448571943
 20
21.2238267416535891
 30
0.0
 40
0.0161820096037833
 50
189.415512517833406
 51
260.8667871768485043
  0
ARC
  5
6F57
  8
0
 10
231.6887114102474072
 20
21.2806560067537305
 30
0.0
 40
0.0741491988168335
 50
259.0782279180867818
 51
273.723316970593487
  0
ARC
  5
6F58
  8
0
 10
231.6798855844901937
 20
21.4156678835124907
 30
0.0
 40
0.2094492413413302
 50
273.7341879992455915
 51
283.266856617109795
  0
ARC
  5
6F59
  8
0
 10
231.6807826068273926
 20
21.4251654788174015
 30
0.0
 40
0.21850883247233
 50
282.4663859018896801
 51
295.319379123984902
  0
ARC
  5
6F5A
  8
0
 10
231.7544684379442117
 20
21.2654169736044594
 30
0.0
 40
0.0426277062923459
 50
297.6200240568159074
 51
316.1207371530709906
  0
ARC
  5
6F5B
  8
0
 10
231.7733863065851097
 20
21.2463182412058913
 30
0.0
 40
0.0157671089318518
 50
318.4967211064627008
 51
355.5481580706052114
  0
ARC
  5
6F5C
  8
0
 10
231.711326985309114
 20
21.2843483153559099
 30
0.0
 40
0.0686820707010097
 50
260.077883194377705
 51
304.8569135062405167
  0
ARC
  5
6F5D
  8
0
 10
231.738347276396695
 20
21.1621386178794388
 30
0.0
 40
0.066977146433891
 50
79.4757379495145244
 51
125.4590587511028019
  0
LINE
  5
6F5E
  8
0
 10
232.0564680175106105
 20
21.4689614919005898
 30
0.0
 11
232.0632438445105095
 21
21.4120863026005885
 31
0.0
  0
LINE
  5
6F5F
  8
0
 10
232.1922849788105054
 20
21.5281591503005991
 30
0.0
 11
232.1902451326104995
 21
21.4551723283005984
 31
0.0
  0
ARC
  5
6F60
  8
0
 10
232.170916221434112
 20
21.4563964878506503
 30
0.0
 40
0.0193676372816157
 50
322.3208268230500835
 51
356.3761216481331076
  0
ARC
  5
6F61
  8
0
 10
232.132949214608999
 20
21.4885845495845906
 30
0.0
 40
0.069128296164127
 50
303.3522721559141928
 51
320.4405521018712761
  0
ARC
  5
6F62
  8
0
 10
232.0466411186839935
 20
21.6183695418982502
 30
0.0
 40
0.2249906183636154
 50
286.0039350041506054
 51
303.5406751481829133
  0
ARC
  5
6F63
  8
0
 10
232.0786634120916858
 20
21.5064095070771018
 30
0.0
 40
0.1085412253186972
 50
272.215913395685277
 51
286.0496283212926869
  0
ARC
  5
6F64
  8
0
 10
232.0821008362642033
 20
21.4175740445337013
 30
0.0
 40
0.0196392833250387
 50
196.2259968412890885
 51
272.2159133956819801
  0
ARC
  5
6F65
  8
0
 10
232.1489388324299057
 20
21.3659222455008404
 30
0.0
 40
0.0659971060968032
 50
87.1888008725665458
 51
136.5757970121771052
  0
ARC
  5
6F66
  8
0
 10
232.1045890715911071
 20
21.47634430370762
 30
0.0
 40
0.0651546070567879
 50
266.8476677820016789
 51
316.9169301027416736
  0
ARC
  5
6F67
  8
0
 10
232.2281295323612937
 20
21.3200205950011892
 30
0.0
 40
0.2112024863049229
 50
99.771338049785399
 51
108.8816714308776028
  0
ARC
  5
6F68
  8
0
 10
232.3025298165364916
 20
21.0868437313601191
 30
0.0
 40
0.4559369924169012
 50
108.2454430140781056
 51
119.8503388294649028
  0
ARC
  5
6F69
  8
0
 10
232.1515589634612127
 20
21.3529072863152116
 30
0.0
 40
0.1500362177470463
 50
120.4186358066887976
 51
129.3300476492048858
  0
LINE
  5
6F6A
  8
0
 10
231.7693924195106092
 20
21.5297364417005994
 30
0.0
 11
231.7770639517104883
 21
21.4685072038005984
 31
0.0
  0
LINE
  5
6F6B
  8
0
 10
231.9090228008105044
 20
21.5665652043005913
 30
0.0
 11
231.904755159910593
 21
21.4945084244005997
 31
0.0
  0
ARC
  5
6F6C
  8
0
 10
231.8750134809272936
 20
21.4996119290407997
 30
0.0
 40
0.0301763687072369
 50
311.2834462888108078
 51
350.2631933975719107
  0
ARC
  5
6F6D
  8
0
 10
231.8272489138439028
 20
21.5610262152860983
 30
0.0
 40
0.1079399826937055
 50
288.9953648376455817
 51
308.8264764376842209
  0
ARC
  5
6F6E
  8
0
 10
231.8085279668210035
 20
21.60451556839174
 30
0.0
 40
0.1551951489975811
 50
270.3267004406994829
 51
290.3046375754781252
  0
ARC
  5
6F6F
  8
0
 10
231.8091376675662048
 20
21.4975891718626784
 30
0.0
 40
0.0482670142074897
 50
239.2155300097597035
 51
270.3267004406994829
  0
ARC
  5
6F70
  8
0
 10
231.7951699005541002
 20
21.4708973997355308
 30
0.0
 40
0.0182630342531745
 50
187.5202256213715089
 51
233.9959958246477072
  0
ARC
  5
6F71
  8
0
 10
231.8910808077638137
 20
21.4927291073445517
 30
0.0
 40
0.0759847637898089
 50
76.3419826752462569
 51
93.536801853230088
  0
ARC
  5
6F72
  8
0
 10
231.90234470877121
 20
21.3104870464700511
 30
0.0
 40
0.258574588855976
 50
93.536801853230088
 51
112.7589244832129936
  0
ARC
  5
6F73
  8
0
 10
231.8589160492691121
 20
21.4140074273689898
 30
0.0
 40
0.1463136529628062
 50
112.7589244832128941
 51
127.7241931764637002
  0
ARC
  5
6F74
  8
0
 10
231.8498504753935094
 20
21.4364670275357483
 30
0.0
 40
0.0443157690763158
 50
68.4597014855333867
 51
141.1148506459508098
  0
ARC
  5
6F75
  8
0
 10
231.8314611469216118
 20
21.5061304794663002
 30
0.0
 40
0.0448364939443017
 50
248.9474773618397023
 51
320.6270747696459011
  0
LINE
  5
6F76
  8
0
 10
231.1668548874106079
 20
21.1771376304006012
 30
0.0
 11
231.1694653710104888
 21
21.1416417334006006
 31
0.0
  0
LINE
  5
6F77
  8
0
 10
231.4021013244106086
 20
21.2043068332006008
 30
0.0
 11
231.3993004938105003
 21
21.1662213734005995
 31
0.0
  0
ARC
  5
6F78
  8
0
 10
231.3816896799355902
 20
21.1675164846228583
 30
0.0
 40
0.0176583713409704
 50
310.3617859874307783
 51
355.7940008659912223
  0
ARC
  5
6F79
  8
0
 10
231.3493812431732124
 20
21.2055301082043606
 30
0.0
 40
0.0675469538406654
 50
295.5413093078931865
 51
310.361785987429073
  0
ARC
  5
6F7A
  8
0
 10
231.2683572055071011
 20
21.41426417172881
 30
0.0
 40
0.2913070561236984
 50
284.0324235363693219
 51
292.2169982171375864
  0
ARC
  5
6F7B
  8
0
 10
231.2250639152836129
 20
21.6110040094369609
 30
0.0
 40
0.4927062790533332
 50
271.6589319710238897
 51
283.369296327787481
  0
ARC
  5
6F7C
  8
0
 10
231.231074325005892
 20
21.3322555976865011
 30
0.0
 40
0.2139106366505036
 50
260.8674038833485156
 51
272.2111957696591844
  0
ARC
  5
6F7D
  8
0
 10
231.2054888685048013
 20
21.1735681038818484
 30
0.0
 40
0.0531738515712782
 50
237.320594688492605
 51
260.9474429960480961
  0
ARC
  5
6F7E
  8
0
 10
231.1885413909897977
 20
21.1440152892570588
 30
0.0
 40
0.0192231190407408
 50
187.0926411099736129
 51
232.2712207147413039
  0
LINE
  5
6F7F
  8
0
 10
231.2675619829105074
 20
21.2854538268006017
 30
0.0
 11
231.2636542609104993
 21
21.2219564553005995
 31
0.0
  0
LINE
  5
6F80
  8
0
 10
231.1283139610106048
 20
21.2732568613005988
 30
0.0
 11
231.1357344931105899
 21
21.2123854132006002
 31
0.0
  0
ARC
  5
6F81
  8
0
 10
231.1538592680423108
 20
21.2153062447589811
 30
0.0
 40
0.0183586144171416
 50
189.1545850213279039
 51
241.5453068963927876
  0
ARC
  5
6F82
  8
0
 10
231.173746960835814
 20
21.2571495143286917
 30
0.0
 40
0.0646692244045724
 50
243.7179502165278961
 51
265.044827486100985
  0
ARC
  5
6F83
  8
0
 10
231.1852711949348986
 20
21.3796804611912101
 30
0.0
 40
0.1877397875343617
 50
264.7709536959811771
 51
283.6261336336601175
  0
ARC
  5
6F84
  8
0
 10
231.2065131908964872
 20
21.2938339300273505
 30
0.0
 40
0.0993061064889773
 50
283.3838551186079826
 51
295.1911637575951772
  0
ARC
  5
6F85
  8
0
 10
231.2342454237704032
 20
21.2348763357696697
 30
0.0
 40
0.0341518690148751
 50
295.1911637575934719
 51
314.7650764080153749
  0
ARC
  5
6F86
  8
0
 10
231.2453426643056105
 20
21.2236877184671791
 30
0.0
 40
0.0183932553500564
 50
314.7650764080127033
 51
354.5990458975193746
  0
ARC
  5
6F87
  8
0
 10
231.2263873552053042
 20
21.1296200270458812
 30
0.0
 40
0.1611816463269373
 50
75.199463238013962
 51
89.9982847503413836
  0
ARC
  5
6F88
  8
0
 10
231.2230017102662032
 20
20.9937133467426911
 30
0.0
 40
0.2971076725113593
 50
89.3461500084195279
 51
102.3655214831591991
  0
ARC
  5
6F89
  8
0
 10
231.1872897088622949
 20
21.1521357112420887
 30
0.0
 40
0.1347162641486596
 50
101.9581729904284941
 51
115.962161955685005
  0
ARC
  5
6F8A
  8
0
 10
231.2034586425997986
 20
21.1645747731787885
 30
0.0
 40
0.0496677789369207
 50
63.7926259008695027
 51
125.8975004590244993
  0
ARC
  5
6F8B
  8
0
 10
231.1960788940301939
 20
21.2516366130146004
 30
0.0
 40
0.0516289854114127
 50
245.0943021289427861
 51
304.5958242309503134
  0
ARC
  5
6F8C
  8
0
 10
231.3604168705913935
 20
21.0576805101491296
 30
0.0
 40
0.1524364533233294
 50
74.130058696234201
 51
86.3406411595705663
  0
ARC
  5
6F8D
  8
0
 10
231.343213857714801
 20
20.6678817548800318
 30
0.0
 40
0.5425932280940133
 50
87.1548946518607863
 51
100.827264756894607
  0
ARC
  5
6F8E
  8
0
 10
231.2418483757130048
 20
21.0460775170562115
 30
0.0
 40
0.1509992602551948
 50
102.6221889982418958
 51
119.7784835132593031
  0
ARC
  5
6F8F
  8
0
 10
231.2737602394169869
 20
21.2335531476464396
 30
0.0
 40
0.0996161744659251
 50
253.2841288424986033
 51
300.1848530569914146
  0
ARC
  5
6F90
  8
0
 10
231.2952702587139129
 20
21.0513934911228908
 30
0.0
 40
0.1002114051275932
 50
73.4316726248363807
 51
120.0373092746527988
  0
LINE
  5
6F91
  8
0
 10
231.4368497243104912
 20
21.3611036830006
 30
0.0
 11
231.4395485549106013
 21
21.3244065319005998
 31
0.0
  0
LINE
  5
6F92
  8
0
 10
231.6724139346104892
 20
21.3981559501005911
 30
0.0
 11
231.6693516431105024
 21
21.35651646450059
 31
0.0
  0
ARC
  5
6F93
  8
0
 10
231.6403984814701005
 20
21.3606006366998002
 30
0.0
 40
0.0292398021800999
 50
316.3675637013553228
 51
351.9707561682574806
  0
ARC
  5
6F94
  8
0
 10
231.5965873056208864
 20
21.40920281259028
 30
0.0
 40
0.0946158256376253
 50
295.9747545440279737
 51
313.3708753763191908
  0
ARC
  5
6F95
  8
0
 10
231.5045500652080079
 20
21.6262901286183613
 30
0.0
 40
0.3303150693617663
 50
269.4416245282098998
 51
293.8340381766332143
  0
ARC
  5
6F96
  8
0
 10
231.5030173697479938
 20
21.4540867949675693
 30
0.0
 40
0.1581050434858753
 50
254.2763775167555025
 51
269.3888761423207256
  0
ARC
  5
6F97
  8
0
 10
231.4757231254442047
 20
21.3423001505725196
 30
0.0
 40
0.0432919175069587
 50
227.9928413625189023
 51
248.9470209432334968
  0
ARC
  5
6F98
  8
0
 10
231.4611372815998891
 20
21.3263448633672184
 30
0.0
 40
0.0216755680188682
 50
185.1305121712458117
 51
228.4171599698157138
  0
ARC
  5
6F99
  8
0
 10
231.6396243407093039
 20
21.3169312854168886
 30
0.0
 40
0.0875933994156406
 50
68.0165574228399521
 51
85.0821196529389141
  0
ARC
  5
6F9A
  8
0
 10
231.6162164306678903
 20
21.0715258788871509
 30
0.0
 40
0.3341098827429599
 50
84.6904970030629443
 51
95.2100979977353745
  0
ARC
  5
6F9B
  8
0
 10
231.6140037037536956
 20
21.0282043271723786
 30
0.0
 40
0.3771014631944331
 50
94.2775366851794416
 51
118.0198884238245967
  0
ARC
  5
6F9C
  8
0
 10
231.5446044429226902
 20
21.3935210957226793
 30
0.0
 40
0.0762396964058213
 50
247.27536037467749
 51
310.2772751963161113
  0
ARC
  5
6F9D
  8
0
 10
231.5645876528886049
 20
21.264083558829121
 30
0.0
 40
0.0770618100117458
 50
67.6492010431059612
 51
129.9034345278869012
  0
LINE
  5
6F9E
  8
0
 10
231.3369768705134106
 20
21.43520044389955
 30
0.0
 11
231.3330691485134025
 21
21.3717030723995514
 31
0.0
  0
LINE
  5
6F9F
  8
0
 10
231.1977288486133943
 20
21.4230034783995507
 30
0.0
 11
231.2051493807134079
 21
21.3621320302995485
 31
0.0
  0
ARC
  5
6FA0
  8
0
 10
231.2232741556451003
 20
21.3650528618579401
 30
0.0
 40
0.0183586144171416
 50
189.1545850213279039
 51
241.5453068963927876
  0
ARC
  5
6FA1
  8
0
 10
231.2431618484386036
 20
21.40689613142764
 30
0.0
 40
0.0646692244045724
 50
243.7179502165278961
 51
265.044827486100985
  0
ARC
  5
6FA2
  8
0
 10
231.2546860825378019
 20
21.5294270782901584
 30
0.0
 40
0.1877397875343617
 50
264.7709536959811771
 51
283.6261336336601175
  0
ARC
  5
6FA3
  8
0
 10
231.2759280784993905
 20
21.4435805471262988
 30
0.0
 40
0.0993061064889773
 50
283.3838551186079826
 51
295.1911637575951772
  0
ARC
  5
6FA4
  8
0
 10
231.3036603113733065
 20
21.3846229528686216
 30
0.0
 40
0.0341518690148751
 50
295.1911637575934719
 51
314.7650764080153749
  0
ARC
  5
6FA5
  8
0
 10
231.314757551908599
 20
21.3734343355661416
 30
0.0
 40
0.0183932553500564
 50
314.7650764080127033
 51
354.5990458975193746
  0
ARC
  5
6FA6
  8
0
 10
231.2958022428080938
 20
21.2793666441448401
 30
0.0
 40
0.1611816463269373
 50
75.199463238013962
 51
89.9982847503413836
  0
ARC
  5
6FA7
  8
0
 10
231.2924165978691065
 20
21.1434599638416394
 30
0.0
 40
0.2971076725113593
 50
89.3461500084195279
 51
102.3655214831591991
  0
ARC
  5
6FA8
  8
0
 10
231.2567045964651982
 20
21.3018823283410406
 30
0.0
 40
0.1347162641486596
 50
101.9581729904284941
 51
115.962161955685005
  0
ARC
  5
6FA9
  8
0
 10
231.2728735302027019
 20
21.3143213902777511
 30
0.0
 40
0.0496677789369207
 50
63.7926259008695027
 51
125.8975004590244993
  0
ARC
  5
6FAA
  8
0
 10
231.2654937816330971
 20
21.4013832301135594
 30
0.0
 40
0.0516289854114127
 50
245.0943021289427861
 51
304.5958242309503134
  0
LINE
  5
6FAB
  8
0
 10
231.1350537784105938
 20
21.5742248261006004
 30
0.0
 11
231.1311457774430949
 21
21.5072415973972291
 31
0.0
  0
LINE
  5
6FAC
  8
0
 10
230.9949528725105097
 20
21.5635247213005989
 30
0.0
 11
231.0032260096431003
 21
21.4976705552972298
 31
0.0
  0
ARC
  5
6FAD
  8
0
 10
231.0213507845747927
 20
21.5005913868556284
 30
0.0
 40
0.0183586144171416
 50
189.1545850213279039
 51
241.5453068963927876
  0
ARC
  5
6FAE
  8
0
 10
231.0412384773682959
 20
21.5424346564253213
 30
0.0
 40
0.0646692244045724
 50
243.7179502165278961
 51
265.044827486100985
  0
ARC
  5
6FAF
  8
0
 10
231.0527627114674942
 20
21.6649656032878504
 30
0.0
 40
0.1877397875343617
 50
264.7709536959811771
 51
283.6261336336601175
  0
ARC
  5
6FB0
  8
0
 10
231.0740047074289976
 20
21.5791190721239907
 30
0.0
 40
0.0993061064889773
 50
283.3838551186079826
 51
295.1911637575951772
  0
ARC
  5
6FB1
  8
0
 10
231.1017369403029988
 20
21.5201614778662993
 30
0.0
 40
0.0341518690148751
 50
295.1911637575934719
 51
314.7650764080153749
  0
ARC
  5
6FB2
  8
0
 10
231.1128341808382061
 20
21.5089728605638193
 30
0.0
 40
0.0183932553500564
 50
314.7650764080127033
 51
354.5990458975193746
  0
ARC
  5
6FB3
  8
0
 10
231.0905762476193956
 20
21.4768740547953385
 30
0.0
 40
0.107030011767758
 50
65.4453308324854959
 51
85.4978611248190532
  0
ARC
  5
6FB4
  8
0
 10
231.0808769785072059
 20
21.3706422076806
 30
0.0
 40
0.2136995692904962
 50
85.1411247172715235
 51
105.0204291675333934
  0
ARC
  5
6FB5
  8
0
 10
231.0526519488795998
 20
21.4744079645653194
 30
0.0
 40
0.1061648705780748
 50
104.821614312410901
 51
122.9212341739998067
  0
ARC
  5
6FB6
  8
0
 10
231.070950159132309
 20
21.4498599152754288
 30
0.0
 40
0.0496677789369207
 50
63.7926259008695027
 51
125.8975004590244993
  0
ARC
  5
6FB7
  8
0
 10
231.0635704105627894
 20
21.5369217551112513
 30
0.0
 40
0.0516289854114127
 50
245.0943021289427861
 51
304.5958242309503134
  0
LINE
  5
6FB8
  8
0
 10
231.916703519310488
 20
21.7768492085006002
 30
0.0
 11
231.9242982222104956
 21
21.7115779953005905
 31
0.0
  0
LINE
  5
6FB9
  8
0
 10
232.0542061304105061
 20
21.8358476824006011
 30
0.0
 11
232.0515046673106099
 21
21.7511160651006001
 31
0.0
  0
ARC
  5
6FBA
  8
0
 10
232.038353033067807
 20
21.7811003459675483
 30
0.0
 40
0.0569964169213649
 50
73.8506553412281193
 51
95.8464061962885125
  0
ARC
  5
6FBB
  8
0
 10
232.0541400316569991
 20
21.6679138798657291
 30
0.0
 40
0.1712531541019358
 50
97.2435243846330906
 51
110.789646287498698
  0
ARC
  5
6FBC
  8
0
 10
232.0574079800668983
 20
21.6490635446433011
 30
0.0
 40
0.1900708319658071
 50
109.6936697353071963
 51
137.7547460154376893
  0
ARC
  5
6FBD
  8
0
 10
231.9994957429101134
 20
21.6952467704897813
 30
0.0
 40
0.0388318844304817
 50
69.9450641036678462
 51
160.6099174523671138
  0
ARC
  5
6FBE
  8
0
 10
231.975966555677104
 20
21.7450738059337816
 30
0.0
 40
0.0391893276820434
 50
250.4713170709773067
 51
340.0836644850613197
  0
ARC
  5
6FBF
  8
0
 10
232.0160891042812921
 20
21.7535766794378311
 30
0.0
 40
0.0355009398128041
 50
319.503202143235228
 51
356.025571621709787
  0
ARC
  5
6FC0
  8
0
 10
231.9506582389279004
 20
21.8137362920157507
 30
0.0
 40
0.124367969725732
 50
278.7494166945720053
 51
318.0026625802374838
  0
ARC
  5
6FC1
  8
0
 10
231.9588065609655132
 20
21.7562354371013207
 30
0.0
 40
0.066300403896702
 50
254.4216478868029014
 51
279.3484333419025916
  0
ARC
  5
6FC2
  8
0
 10
231.9477816065254956
 20
21.7151332165212416
 30
0.0
 40
0.0237509775969479
 50
188.6088092656544859
 51
253.4125061324276942
  0
LINE
  5
6FC3
  8
0
 10
231.5802000305104968
 20
21.5960395538006011
 30
0.0
 11
231.5767839705106041
 21
21.5495905219006012
 31
0.0
  0
LINE
  5
6FC4
  8
0
 10
231.3439473488105875
 20
21.5617396968005899
 30
0.0
 11
231.347003373310514
 21
21.52018627360059
 31
0.0
  0
ARC
  5
6FC5
  8
0
 10
231.3740015749721977
 20
21.5224624211771207
 30
0.0
 40
0.0270939797879818
 50
184.819060932976214
 51
217.5184648553963029
  0
ARC
  5
6FC6
  8
0
 10
231.3923372918947052
 20
21.5411801760785195
 30
0.0
 40
0.0531639890194966
 50
221.4869444894046921
 51
252.1665170448582955
  0
ARC
  5
6FC7
  8
0
 10
231.4323755578853934
 20
21.7254216748266309
 30
0.0
 40
0.2415096477592828
 50
256.5145119164017729
 51
298.2528745084152888
  0
ARC
  5
6FC8
  8
0
 10
231.5097294104407979
 20
21.5787079444613887
 30
0.0
 40
0.0756691966925419
 50
299.2452355250896971
 51
325.6161122101295859
  0
ARC
  5
6FC9
  8
0
 10
231.5422508025023944
 20
21.5536876935054984
 30
0.0
 40
0.0347753721452175
 50
329.3795462371325016
 51
353.2337988710457921
  0
ARC
  5
6FCA
  8
0
 10
231.4527654391903866
 20
21.5754330008197286
 30
0.0
 40
0.066555351434488
 50
244.1143422768641926
 51
316.9214141868354773
  0
ARC
  5
6FCB
  8
0
 10
231.4698287204541032
 20
21.4835278281978717
 30
0.0
 40
0.0561497697611364
 50
55.8134882354608308
 51
145.2222682282387041
  0
ARC
  5
6FCC
  8
0
 10
231.5313665551140048
 20
21.5275233470888487
 30
0.0
 40
0.084137856530056
 50
54.5214327471568012
 51
81.4959457501971372
  0
ARC
  5
6FCD
  8
0
 10
231.5073011859118992
 20
21.29823758771294
 30
0.0
 40
0.3146238275840045
 50
83.3366285726453668
 51
102.0382393137624035
  0
ARC
  5
6FCE
  8
0
 10
231.4830580845897998
 20
21.3843079890573513
 30
0.0
 40
0.2254635396726496
 50
100.5746452129362041
 51
128.0973014153206009
  0
LINE
  5
6FCF
  8
0
 10
231.5722775986104978
 20
21.7958504680006016
 30
0.0
 11
231.5671228038104914
 21
21.7193385028005999
 31
0.0
  0
LINE
  5
6FD0
  8
0
 10
231.4312820442104908
 20
21.7664458380005996
 30
0.0
 11
231.4391847630105019
 21
21.6995219359005986
 31
0.0
  0
ARC
  5
6FD1
  8
0
 10
231.4626557252279895
 20
21.7022935079182204
 30
0.0
 40
0.023634036448795
 50
186.7345934662920968
 51
239.2169453851909964
  0
ARC
  5
6FD2
  8
0
 10
231.4835755505420138
 20
21.7431974147629994
 30
0.0
 40
0.0695446710206154
 50
241.6577424956643938
 51
269.3932265465069236
  0
ARC
  5
6FD3
  8
0
 10
231.4842972946281918
 20
21.7930503562011495
 30
0.0
 40
0.1194026174067519
 50
269.3002495228067801
 51
304.001517458835508
  0
ARC
  5
6FD4
  8
0
 10
231.5333083422904963
 20
21.7230796296534514
 30
0.0
 40
0.0340207853821504
 50
301.4700977582846235
 51
353.6866491766281229
  0
ARC
  5
6FD5
  8
0
 10
231.5224915923029982
 20
21.7039735677039616
 30
0.0
 40
0.0060998039920516
 50
324.9970907284204031
 51
46.3696423926423407
  0
ARC
  5
6FD6
  8
0
 10
231.5088422378794064
 20
21.7135319814675505
 30
0.0
 40
0.022763181496583
 50
303.376424740063328
 51
324.9970907284185273
  0
ARC
  5
6FD7
  8
0
 10
231.4937673995964929
 20
21.7402679439847013
 30
0.0
 40
0.0534249984522167
 50
269.3149963483897977
 51
301.1024029163443743
  0
ARC
  5
6FD8
  8
0
 10
231.4954361650009105
 20
21.7314868320486489
 30
0.0
 40
0.0446996661481649
 50
254.8060374769090117
 51
267.0409745246720945
  0
ARC
  5
6FD9
  8
0
 10
231.4857150613188139
 20
21.6956923195727995
 30
0.0
 40
0.0076086028015439
 50
138.391601264124688
 51
254.8060374769005989
  0
ARC
  5
6FDA
  8
0
 10
231.5025956775758971
 20
21.6782634278661099
 30
0.0
 40
0.0318558233411558
 50
116.1748535335392063
 51
135.1122972542860055
  0
ARC
  5
6FDB
  8
0
 10
231.5126612854072903
 20
21.6572537408536512
 30
0.0
 40
0.0551515680398295
 50
88.5418681151750349
 51
115.9315215712673961
  0
ARC
  5
6FDC
  8
0
 10
231.5129199724599971
 20
21.6816315591353295
 30
0.0
 40
0.0307771867193713
 50
72.2709191685074472
 51
87.8684525181563743
  0
ARC
  5
6FDD
  8
0
 10
231.5180419419307043
 20
21.6985464341513783
 30
0.0
 40
0.0131087499248122
 50
48.6607900108972515
 51
71.0813307092231668
  0
ARC
  5
6FDE
  8
0
 10
231.5495884421875985
 20
21.7610949484218104
 30
0.0
 40
0.0415059509032021
 50
56.862626968017878
 51
74.539650874747565
  0
ARC
  5
6FDF
  8
0
 10
231.5346195580644064
 20
21.6994290894772988
 30
0.0
 40
0.1049499887049592
 50
75.6376568468385955
 51
92.3160128891640426
  0
ARC
  5
6FE0
  8
0
 10
231.5425479907935085
 20
21.600299258999641
 30
0.0
 40
0.2043567643082422
 50
93.4140188612569631
 51
110.1935136097854979
  0
ARC
  5
6FE1
  8
0
 10
231.5119247633961095
 20
21.6835598392704583
 30
0.0
 40
0.1156431448168159
 50
110.1935136097855974
 51
134.2140683890883963
  0
LINE
  5
6FE2
  8
0
 10
231.2773978397104884
 20
22.0211982898006013
 30
0.0
 11
231.2848650297104882
 21
21.9463700560005996
 31
0.0
  0
LINE
  5
6FE3
  8
0
 10
231.417275748510491
 20
22.0578743506005992
 30
0.0
 11
231.4129370809104955
 21
21.9698222237006
 31
0.0
  0
ARC
  5
6FE4
  8
0
 10
231.3834547558460031
 20
22.0257006051731992
 30
0.0
 40
0.0466798611784709
 50
43.5701781018296828
 51
84.6669880957805816
  0
ARC
  5
6FE5
  8
0
 10
231.3754026617509112
 20
21.9702333222014801
 30
0.0
 40
0.1026953241553327
 50
83.0700852333910547
 51
102.7554473428737936
  0
ARC
  5
6FE6
  8
0
 10
231.3818857422402004
 20
21.9388629758784113
 30
0.0
 40
0.1347242428229135
 50
102.4989261534370968
 51
128.816345313231011
  0
ARC
  5
6FE7
  8
0
 10
231.3530173023449947
 20
21.9744429361444986
 30
0.0
 40
0.0889065027128761
 50
128.6934734024613931
 51
148.2715859279977906
  0
ARC
  5
6FE8
  8
0
 10
231.3175423397651969
 20
21.9502376074513812
 30
0.0
 40
0.0329053878055783
 50
186.7498909498089006
 51
234.423251510110191
  0
ARC
  5
6FE9
  8
0
 10
231.3322596930813972
 20
21.9771372860514305
 30
0.0
 40
0.0634531367628323
 50
237.747906037622613
 51
271.3160918173899177
  0
ARC
  5
6FEA
  8
0
 10
231.3330840247797084
 20
22.0088274106954103
 30
0.0
 40
0.0951286288537775
 50
270.381297949035627
 51
311.3599964487656848
  0
ARC
  5
6FEB
  8
0
 10
231.3597158212114948
 20
21.9770846758019403
 30
0.0
 40
0.0537144830979555
 50
312.4119237439244898
 51
352.2295414943611718
  0
ARC
  5
6FEC
  8
0
 10
231.3603184820879903
 20
21.9506256504020989
 30
0.0
 40
0.0144757247705355
 50
8.2105601905218943
 51
80.9190544699341103
  0
ARC
  5
6FED
  8
0
 10
231.3546956710029008
 20
21.9558132640544095
 30
0.0
 40
0.0201927016239209
 50
307.6427469439105948
 51
351.1106404702342161
  0
ARC
  5
6FEE
  8
0
 10
231.3410625458105017
 20
21.9717963009556492
 30
0.0
 40
0.041187833712306
 50
261.4522719633021097
 51
309.0809422243177096
  0
ARC
  5
6FEF
  8
0
 10
231.3354634902258056
 20
21.9432351190518311
 30
0.0
 40
0.0121803794662104
 50
152.2560155120362992
 51
267.5399073908213836
  0
ARC
  5
6FF0
  8
0
 10
231.356140068435991
 20
21.927322458927101
 30
0.0
 40
0.0381489517720654
 50
80.2460277285237282
 51
145.5453917817984859
  0
LINE
  5
6FF1
  8
0
 10
230.9177389022106013
 20
21.7260854380005988
 30
0.0
 11
230.9210533450105061
 21
21.6810162171005985
 31
0.0
  0
ARC
  5
6FF2
  8
0
 10
230.9544575157322868
 20
21.6834727985752203
 30
0.0
 40
0.0334943788440946
 50
184.2060265243142965
 51
230.1585975147181955
  0
ARC
  5
6FF3
  8
0
 10
230.9970863331934936
 20
21.7420190033915013
 30
0.0
 40
0.1058659899496103
 50
232.7449437216806132
 51
260.1464926390704022
  0
ARC
  5
6FF4
  8
0
 10
231.0186919369133989
 20
21.8649803859657403
 30
0.0
 40
0.2307109989599389
 50
260.0857606937402124
 51
292.2689481047476079
  0
ARC
  5
6FF5
  8
0
 10
231.0615003107112102
 20
21.7538829452758087
 30
0.0
 40
0.111704954103613
 50
293.5438529126490721
 51
312.9258051123430846
  0
ARC
  5
6FF6
  8
0
 10
231.1062891202159904
 20
21.704305081220749
 30
0.0
 40
0.0449092504941301
 50
314.1622282299788935
 51
352.4873212048876212
  0
LINE
  5
6FF7
  8
0
 10
231.1508128676105969
 20
21.6984333951006008
 30
0.0
 11
231.1544179659105112
 21
21.747455429000599
 31
0.0
  0
ARC
  5
6FF8
  8
0
 10
231.1054685555430979
 20
21.6961593509169397
 30
0.0
 40
0.0709036839810312
 50
46.3410040323482022
 51
71.7390702874359079
  0
ARC
  5
6FF9
  8
0
 10
231.0610168431527995
 20
21.5416732177804207
 30
0.0
 40
0.2316213624364732
 50
73.2715401812510549
 51
94.3131494598648601
  0
ARC
  5
6FFA
  8
0
 10
231.0613437558725138
 20
21.4964054460212886
 30
0.0
 40
0.2768026370697561
 50
93.6759146505486342
 51
112.1272755589598944
  0
ARC
  5
6FFB
  8
0
 10
231.0018797150817988
 20
21.6445845314088601
 30
0.0
 40
0.1171412573174464
 50
112.4840586809105929
 51
135.9130712006445947
  0
ARC
  5
6FFC
  8
0
 10
231.0671304038341134
 20
21.6830810531154405
 30
0.0
 40
0.0085507299090116
 50
321.4718295639061125
 51
46.4750757377568817
  0
ARC
  5
6FFD
  8
0
 10
231.0507616151460013
 20
21.696114520794449
 30
0.0
 40
0.0294746043794756
 50
291.581353957075919
 51
321.4718295639062831
  0
ARC
  5
6FFE
  8
0
 10
231.0288905721351966
 20
21.7514070353242701
 30
0.0
 40
0.0889355553087377
 50
261.0310268808979117
 51
291.581353957075919
  0
ARC
  5
6FFF
  8
0
 10
231.0202375258284917
 20
21.6965817158340109
 30
0.0
 40
0.033431583670714
 50
235.5454571765548906
 51
261.031026880899617
  0
ARC
  5
7000
  8
0
 10
231.0084944155292135
 20
21.6769299591736093
 30
0.0
 40
0.010680373823986
 50
132.8462577549499883
 51
227.8242166939866991
  0
ARC
  5
7001
  8
0
 10
231.0294820364057102
 20
21.65140624846007
 30
0.0
 40
0.0437105419577235
 50
109.4335967828940994
 51
130.2640897630130041
  0
ARC
  5
7002
  8
0
 10
231.042784900448197
 20
21.6161548775352905
 30
0.0
 40
0.0813837076227509
 50
76.125194864606712
 51
110.0083259543198011
  0
ARC
  5
7003
  8
0
 10
231.0546922681955095
 20
21.6685967311300907
 30
0.0
 40
0.0276352716038386
 50
48.4582352501711995
 51
74.0189214928453509
  0
LINE
  5
7004
  8
0
 10
230.8691219339106055
 20
21.4432250576005892
 30
0.0
 11
230.8736465617105011
 21
21.3804218427005992
 31
0.0
  0
LINE
  5
7005
  8
0
 10
231.003143949910509
 20
21.4497614439005986
 30
0.0
 11
231.0006731916105025
 21
21.3855434780005993
 31
0.0
  0
ARC
  5
7006
  8
0
 10
230.9817841683857864
 20
21.3862702249515095
 30
0.0
 40
0.01890299869104
 50
310.8273945300080072
 51
357.796656578231989
  0
ARC
  5
7007
  8
0
 10
230.9536405254191891
 20
21.4227806677678991
 30
0.0
 40
0.0649806378179918
 50
285.2069744236018778
 51
308.5571377052772277
  0
ARC
  5
7008
  8
0
 10
230.9309386461158908
 20
21.5111069449540402
 30
0.0
 40
0.1561740822298214
 50
261.2995743277822953
 51
284.7441223755104147
  0
ARC
  5
7009
  8
0
 10
230.9145909824783871
 20
21.4169212492406409
 30
0.0
 40
0.0606294861921528
 50
242.8277302151190895
 51
263.1069791044183148
  0
ARC
  5
700A
  8
0
 10
230.8984853998356073
 20
21.3855458326986003
 30
0.0
 40
0.0253618444301611
 50
191.6560080893073916
 51
242.8277302151207948
  0
ARC
  5
700B
  8
0
 10
230.9393202081849097
 20
21.3221230706219593
 30
0.0
 40
0.0589290851131713
 50
68.9562124798438845
 51
113.7146284326398984
  0
ARC
  5
700C
  8
0
 10
230.9344691631987132
 20
21.4254026346309701
 30
0.0
 40
0.0612754024509814
 50
253.1249372855189108
 51
294.1974546141739211
  0
ARC
  5
700D
  8
0
 10
230.9577543476804919
 20
21.3735845927065888
 30
0.0
 40
0.0044659905087244
 50
294.1974546141880182
 51
52.3790805612238515
  0
ARC
  5
700E
  8
0
 10
230.9180279548164094
 20
21.3716350259716101
 30
0.0
 40
0.0050519316005827
 50
118.4659837010665058
 51
254.5459399956583013
  0
ARC
  5
700F
  8
0
 10
230.961424963710499
 20
21.3508826887665712
 30
0.0
 40
0.107319532362062
 50
67.1241156710247111
 51
84.8923710181274487
  0
ARC
  5
7010
  8
0
 10
230.9478018270837083
 20
21.2123343383311784
 30
0.0
 40
0.246533654604126
 50
84.6054630637657539
 51
100.8209123104715985
  0
ARC
  5
7011
  8
0
 10
230.922407784287401
 20
21.3421433375537788
 30
0.0
 40
0.1142667754774073
 50
100.5340043561113959
 51
117.7962321604594962
  0
LINE
  5
7012
  8
0
 10
230.9147308937963032
 20
21.3434373476627783
 30
0.0
 11
230.9192555215961988
 21
21.2806341327627884
 31
0.0
  0
LINE
  5
7013
  8
0
 10
231.048752909796292
 20
21.3499737339627913
 30
0.0
 11
231.0462821514962002
 21
21.2857557680627814
 31
0.0
  0
ARC
  5
7014
  8
0
 10
231.0273931282715978
 20
21.2864825150136987
 30
0.0
 40
0.01890299869104
 50
310.8273945300080072
 51
357.7966565782322732
  0
ARC
  5
7015
  8
0
 10
230.9992494853048868
 20
21.3229929578300883
 30
0.0
 40
0.0649806378179918
 50
285.2069744236018778
 51
308.5571377052772277
  0
ARC
  5
7016
  8
0
 10
230.9765476060015885
 20
21.4113192350162294
 30
0.0
 40
0.1561740822298214
 50
261.2995743277822953
 51
284.7441223755104147
  0
ARC
  5
7017
  8
0
 10
230.9601999423641132
 20
21.3171335393028194
 30
0.0
 40
0.0606294861921528
 50
242.8277302151190895
 51
263.1069791044183148
  0
ARC
  5
7018
  8
0
 10
230.944094359721305
 20
21.2857581227607895
 30
0.0
 40
0.0253618444301611
 50
191.6560080893073916
 51
242.8277302151207948
  0
ARC
  5
7019
  8
0
 10
230.9849291680706074
 20
21.2223353606841414
 30
0.0
 40
0.0589290851131713
 50
68.9562124798438845
 51
113.7146284326398984
  0
ARC
  5
701A
  8
0
 10
230.9800781230844109
 20
21.3256149246931486
 30
0.0
 40
0.0612754024509814
 50
253.1249372855189108
 51
294.1974546141739211
  0
ARC
  5
701B
  8
0
 10
231.0033633075661896
 20
21.2737968827687816
 30
0.0
 40
0.0044659905087244
 50
294.1974546141880182
 51
52.3790805612238515
  0
ARC
  5
701C
  8
0
 10
230.9636369147021071
 20
21.2718473160337993
 30
0.0
 40
0.0050519316005827
 50
118.4659837010665058
 51
254.5459399956583013
  0
ARC
  5
701D
  8
0
 10
231.0070339235961967
 20
21.2510949788287498
 30
0.0
 40
0.107319532362062
 50
67.1241156710247111
 51
84.8923710181274487
  0
ARC
  5
701E
  8
0
 10
230.993410786969406
 20
21.1125466283933605
 30
0.0
 40
0.246533654604126
 50
84.6054630637657539
 51
100.8209123104715985
  0
ARC
  5
701F
  8
0
 10
230.9680167441730987
 20
21.2423556276159609
 30
0.0
 40
0.1142667754774073
 50
100.5340043561113959
 51
117.7962321604594962
  0
LINE
  5
7020
  8
0
 10
230.7799895215842128
 20
21.2511424175015513
 30
0.0
 11
230.7845141493841936
 21
21.1883392026015613
 31
0.0
  0
LINE
  5
7021
  8
0
 10
230.914488559310513
 20
21.2564933914005998
 30
0.0
 11
230.9115407792841097
 21
21.1934608379015508
 31
0.0
  0
ARC
  5
7022
  8
0
 10
230.8945121924923001
 20
21.1949002707811296
 30
0.0
 40
0.017089316403612
 50
309.6652934731794744
 51
355.1682524810094037
  0
ARC
  5
7023
  8
0
 10
230.8719105528909949
 20
21.2267190018675898
 30
0.0
 40
0.0560852274551735
 50
284.5143023497673767
 51
306.689598549252878
  0
ARC
  5
7024
  8
0
 10
230.8418348377466884
 20
21.3456776518362901
 30
0.0
 40
0.1787863126625762
 50
262.7288792052918893
 51
284.2906890646343072
  0
ARC
  5
7025
  8
0
 10
230.829114945755606
 20
21.2477125439116712
 30
0.0
 40
0.0799994150196477
 50
246.1024633714351921
 51
262.8855018037788227
  0
ARC
  5
7026
  8
0
 10
230.8079980133223046
 20
21.1968536738381097
 30
0.0
 40
0.0249797535196334
 50
199.9289673794366138
 51
243.1275030167709019
  0
ARC
  5
7027
  8
0
 10
230.8504112031660895
 20
21.1237561597759189
 30
0.0
 40
0.0652355191621875
 50
71.2799968372826385
 51
112.3418912364462017
  0
ARC
  5
7028
  8
0
 10
230.8460173357377982
 20
21.2429404265803292
 30
0.0
 40
0.0682593015254504
 50
252.9420375348007042
 51
291.9389367212269804
  0
ARC
  5
7029
  8
0
 10
230.8698909051931025
 20
21.1825375489590684
 30
0.0
 40
0.0033379436777184
 50
299.2177359889711283
 51
64.1151760794922865
  0
ARC
  5
702A
  8
0
 10
230.8268997805770084
 20
21.1809544417209104
 30
0.0
 40
0.003393541440202
 50
112.2821035301791994
 51
254.5232191488366027
  0
ARC
  5
702B
  8
0
 10
230.8682142632299872
 20
21.1138343233006509
 30
0.0
 40
0.1499763987729076
 50
72.028501733469767
 51
85.2857593723203848
  0
ARC
  5
702C
  8
0
 10
230.8578482116452903
 20
20.9863423406352609
 30
0.0
 40
0.2778890603475324
 50
85.3160888821058876
 51
99.5257831189589552
  0
ARC
  5
702D
  8
0
 10
230.8304510391853057
 20
21.1369052844281384
 30
0.0
 40
0.1248858972480228
 50
98.5611309763154964
 51
113.8322964777259045
  0
LINE
  5
702E
  8
0
 10
230.8121620053370862
 20
21.16230965442697
 30
0.0
 11
230.8166866331370954
 21
21.09950643952698
 31
0.0
  0
LINE
  5
702F
  8
0
 10
230.9466610430633864
 20
21.1676606283260185
 30
0.0
 11
230.9437132630370968
 21
21.1046280748269801
 31
0.0
  0
ARC
  5
7030
  8
0
 10
230.9266846762452019
 20
21.1060675077065589
 30
0.0
 40
0.017089316403612
 50
309.6652934731794744
 51
355.1682524810094037
  0
ARC
  5
7031
  8
0
 10
230.9040830366438115
 20
21.1378862387930084
 30
0.0
 40
0.0560852274551735
 50
284.5143023497673767
 51
306.689598549252878
  0
ARC
  5
7032
  8
0
 10
230.8740073214995903
 20
21.2568448887617087
 30
0.0
 40
0.1787863126625762
 50
262.7288792052918893
 51
284.2906890646343072
  0
ARC
  5
7033
  8
0
 10
230.8612874295085078
 20
21.1588797808370899
 30
0.0
 40
0.0799994150196477
 50
246.1024633714351921
 51
262.8855018037788227
  0
ARC
  5
7034
  8
0
 10
230.8401704970752064
 20
21.108020910763539
 30
0.0
 40
0.0249797535196334
 50
199.9289673794366138
 51
243.1275030167709019
  0
ARC
  5
7035
  8
0
 10
230.8825836869189914
 20
21.0349233967013411
 30
0.0
 40
0.0652355191621875
 50
71.2799968372826385
 51
112.3418912364462017
  0
ARC
  5
7036
  8
0
 10
230.8781898194907001
 20
21.1541076635057514
 30
0.0
 40
0.0682593015254504
 50
252.9420375348007042
 51
291.9389367212269804
  0
ARC
  5
7037
  8
0
 10
230.9020633889460044
 20
21.0937047858844906
 30
0.0
 40
0.0033379436777184
 50
299.2177359889711283
 51
64.1151760794922865
  0
ARC
  5
7038
  8
0
 10
230.8590722643299955
 20
21.092121678646329
 30
0.0
 40
0.003393541440202
 50
112.2821035301791994
 51
254.5232191488366027
  0
ARC
  5
7039
  8
0
 10
230.900386746982889
 20
21.0250015602260696
 30
0.0
 40
0.1499763987729076
 50
72.028501733469767
 51
85.2857593723203848
  0
ARC
  5
703A
  8
0
 10
230.8900206953981922
 20
20.8975095775606796
 30
0.0
 40
0.2778890603475324
 50
85.3160888821058876
 51
89.0861805795867099
  0
ARC
  5
703B
  8
0
 10
230.8626235229382075
 20
21.0480725213535607
 30
0.0
 40
0.1248858972480228
 50
106.898970076595802
 51
113.8322964777259045
  0
LINE
  5
703C
  8
0
 10
230.8896447565105916
 20
21.9248223493006016
 30
0.0
 11
230.883265802410591
 21
21.8484408733005999
 31
0.0
  0
LINE
  5
703D
  8
0
 10
230.7475735520104934
 20
21.913587461100601
 30
0.0
 11
230.7550056305105102
 21
21.8410649082006003
 31
0.0
  0
ARC
  5
703E
  8
0
 10
230.8449018883958956
 20
21.8760150885258007
 30
0.0
 40
0.0662123323215656
 50
47.4877164071672411
 51
80.2013413757435529
  0
ARC
  5
703F
  8
0
 10
230.8297691930519022
 20
21.7883938964337283
 30
0.0
 40
0.1551306756035516
 50
80.2013413757435529
 51
104.516704160007194
  0
ARC
  5
7040
  8
0
 10
230.8143881750054902
 20
21.847796430939411
 30
0.0
 40
0.0937691500207873
 50
104.5167041600088993
 51
135.4422615713334039
  0
ARC
  5
7041
  8
0
 10
230.8503521052564054
 20
21.8521432354006215
 30
0.0
 40
0.0331212763261737
 50
313.0421626813039779
 51
353.5819504429167068
  0
ARC
  5
7042
  8
0
 10
230.8278945883731126
 20
21.8753641486156098
 30
0.0
 40
0.0654228217062944
 50
287.311261591220898
 51
313.5361027390580944
  0
ARC
  5
7043
  8
0
 10
230.8138000165270114
 20
21.9104278500814011
 30
0.0
 40
0.1031365329280587
 50
252.455503408903013
 51
288.9905886421117884
  0
ARC
  5
7044
  8
0
 10
230.7975015946398116
 20
21.8583028229546095
 30
0.0
 40
0.0485234056936721
 50
225.0252075079474992
 51
252.2516635447265116
  0
ARC
  5
7045
  8
0
 10
230.7843194960641995
 20
21.8446195618088517
 30
0.0
 40
0.0295286009823414
 50
186.9140351740315111
 51
224.3537970796035097
  0
ARC
  5
7046
  8
0
 10
230.821180354932693
 20
21.8100200921166198
 30
0.0
 40
0.0394369198817248
 50
60.272141140023777
 51
111.9418270719349948
  0
ARC
  5
7047
  8
0
 10
230.8173965411043866
 20
21.8186843011972016
 30
0.0
 40
0.029987670578165
 50
111.4217108705277042
 51
138.2087251093790883
  0
ARC
  5
7048
  8
0
 10
230.8014184380145082
 20
21.8337958004485309
 30
0.0
 40
0.0080280422310667
 50
142.6286218073130101
 51
227.1466332124525138
  0
ARC
  5
7049
  8
0
 10
230.811261929004587
 20
21.8453268996866612
 30
0.0
 40
0.0231847138498639
 50
228.6947077195262068
 51
257.0859753501176783
  0
ARC
  5
704A
  8
0
 10
230.8162630907247888
 20
21.8663779895412098
 30
0.0
 40
0.0448213738575074
 50
256.8686818634494102
 51
294.8693083527933823
  0
ARC
  5
704B
  8
0
 10
230.8219089455315896
 20
21.8510513871897096
 30
0.0
 40
0.028572312339183
 50
297.5238370569442168
 51
315.4753134753186146
  0
ARC
  5
704C
  8
0
 10
230.8361747987480896
 20
21.8370202848215911
 30
0.0
 40
0.0085626546294728
 50
315.4753134753100881
 51
57.8099748734913206
  0
LINE
  5
704D
  8
0
 10
230.5855389520106087
 20
21.6491441188005993
 30
0.0
 11
230.5923359981105136
 21
21.5828182403006004
 31
0.0
  0
LINE
  5
704E
  8
0
 10
230.7260363480104957
 20
21.6531846123005991
 30
0.0
 11
230.7204084369105033
 21
21.5857960780006017
 31
0.0
  0
ARC
  5
704F
  8
0
 10
230.6959473405046879
 20
21.5888517431531888
 30
0.0
 40
0.0246512134975428
 50
312.2343400788562917
 51
352.8795314590284988
  0
ARC
  5
7050
  8
0
 10
230.6700473702705096
 20
21.6240450412550302
 30
0.0
 40
0.0682645539271254
 50
284.7350972770416888
 51
308.4720742025511981
  0
ARC
  5
7051
  8
0
 10
230.6538820557553038
 20
21.6852694344332484
 30
0.0
 40
0.1315870757416445
 50
254.3945058039373066
 51
284.761754736699686
  0
ARC
  5
7052
  8
0
 10
230.6339674287526122
 20
21.6091871141424186
 30
0.0
 40
0.0529677452117958
 50
228.3998467100394976
 51
253.0026819278895971
  0
ARC
  5
7053
  8
0
 10
230.6147766943045099
 20
21.5855767922278687
 30
0.0
 40
0.0226096097800047
 50
187.0080007393349888
 51
225.0407061926914025
  0
ARC
  5
7054
  8
0
 10
230.6825282007004034
 20
21.5825553196383098
 30
0.0
 40
0.0829545409506595
 50
58.3666348796953471
 51
80.5975263387176142
  0
ARC
  5
7055
  8
0
 10
230.6610015290239915
 20
21.4752432809291598
 30
0.0
 40
0.1923773363067621
 50
79.4936843427327915
 51
102.8346501768037058
  0
ARC
  5
7056
  8
0
 10
230.6413638069664103
 20
21.5615035311564291
 30
0.0
 40
0.1039099948679556
 50
102.8427107014519066
 51
122.4961135897664946
  0
ARC
  5
7057
  8
0
 10
230.6576450787561043
 20
21.5291439596172189
 30
0.0
 40
0.055914584780023
 50
72.4464696785084641
 51
102.9291864587267042
  0
ARC
  5
7058
  8
0
 10
230.6517610234757001
 20
21.5517770360984393
 30
0.0
 40
0.0325456931155447
 50
101.7481707541619045
 51
124.7405976000034968
  0
ARC
  5
7059
  8
0
 10
230.63601558562641
 20
21.574298675380561
 30
0.0
 40
0.0050671017473464
 50
123.5595818954625003
 51
231.0597902908137087
  0
ARC
  5
705A
  8
0
 10
230.6472847155349086
 20
21.5899047322622799
 30
0.0
 40
0.024310679454578
 50
233.5196317470150973
 51
255.4789220694675009
  0
ARC
  5
705B
  8
0
 10
230.6550863919960932
 20
21.623733244254101
 30
0.0
 40
0.0590220383651499
 50
256.381346713822893
 51
281.9815731461679889
  0
ARC
  5
705C
  8
0
 10
230.6630277448014965
 20
21.5930910055532088
 30
0.0
 40
0.027434865180937
 50
279.0416417860409979
 51
308.4778992971105254
  0
ARC
  5
705D
  8
0
 10
230.6761453434885993
 20
21.5754511142511589
 30
0.0
 40
0.0055090832645216
 50
315.8478029639878173
 51
41.2494733806198823
  0
ARC
  5
705E
  8
0
 10
230.668620930700996
 20
21.565725425540009
 30
0.0
 40
0.0177353328624663
 50
48.8673006937913286
 51
70.6109102928984527
  0
LINE
  5
705F
  8
0
 10
230.6535620720559052
 20
21.5228804088189882
 30
0.0
 11
230.6603591181558954
 21
21.4565545303189786
 31
0.0
  0
LINE
  5
7060
  8
0
 10
230.7940594680559059
 20
21.5269209023189809
 30
0.0
 11
230.7884315569559135
 21
21.45953236801898
 31
0.0
  0
ARC
  5
7061
  8
0
 10
230.7639704605500981
 20
21.4625880331715813
 30
0.0
 40
0.0246512134975428
 50
312.2343400788562917
 51
352.8795314590284988
  0
ARC
  5
7062
  8
0
 10
230.7380704903158914
 20
21.4977813312734192
 30
0.0
 40
0.0682645539271254
 50
284.7350972770416888
 51
308.4720742025511981
  0
ARC
  5
7063
  8
0
 10
230.721905175800714
 20
21.5590057244516302
 30
0.0
 40
0.1315870757416445
 50
254.3945058039373066
 51
284.761754736699686
  0
ARC
  5
7064
  8
0
 10
230.7019905487979941
 20
21.482923404160811
 30
0.0
 40
0.0529677452117958
 50
228.3998467100394976
 51
253.0026819278895971
  0
ARC
  5
7065
  8
0
 10
230.6827998143498917
 20
21.4593130822462506
 30
0.0
 40
0.0226096097800047
 50
187.0080007393349888
 51
225.0407061926914025
  0
ARC
  5
7066
  8
0
 10
230.7505513207458137
 20
21.4562916096566987
 30
0.0
 40
0.0829545409506595
 50
58.3666348796953471
 51
80.5975263387176142
  0
ARC
  5
7067
  8
0
 10
230.7290246490694017
 20
21.3489795709475416
 30
0.0
 40
0.1923773363067621
 50
79.4936843427327915
 51
102.8346501768037058
  0
ARC
  5
7068
  8
0
 10
230.7093869270117921
 20
21.435239821174811
 30
0.0
 40
0.1039099948679556
 50
102.8427107014519066
 51
122.4961135897664946
  0
ARC
  5
7069
  8
0
 10
230.7256681988014861
 20
21.4028802496356114
 30
0.0
 40
0.055914584780023
 50
72.4464696785084641
 51
102.9291864587267042
  0
ARC
  5
706A
  8
0
 10
230.7197841435211103
 20
21.4255133261168211
 30
0.0
 40
0.0325456931155447
 50
101.7481707541619045
 51
124.7405976000034968
  0
ARC
  5
706B
  8
0
 10
230.7040387056717918
 20
21.4480349653989393
 30
0.0
 40
0.0050671017473464
 50
123.5595818954625003
 51
231.0597902908137087
  0
ARC
  5
706C
  8
0
 10
230.7153078355802904
 20
21.4636410222806617
 30
0.0
 40
0.024310679454578
 50
233.5196317470150973
 51
255.4789220694675009
  0
ARC
  5
706D
  8
0
 10
230.7231095120413897
 20
21.4974695342724793
 30
0.0
 40
0.0590220383651499
 50
256.381346713822893
 51
281.9815731461679889
  0
ARC
  5
706E
  8
0
 10
230.7310508648469067
 20
21.4668272955716013
 30
0.0
 40
0.027434865180937
 50
279.0416417860409979
 51
308.4778992971105254
  0
ARC
  5
706F
  8
0
 10
230.7441684635340096
 20
21.4491874042695514
 30
0.0
 40
0.0055090832645216
 50
315.8478029639878173
 51
41.2494733806198823
  0
ARC
  5
7070
  8
0
 10
230.7366440507464063
 20
21.4394617155583909
 30
0.0
 40
0.0177353328624663
 50
48.8673006937913286
 51
70.6109102928984527
  0
LINE
  5
7071
  8
0
 10
230.4830911760105892
 20
22.1259555753006012
 30
0.0
 11
230.4768581641106096
 21
22.0424929090005897
 31
0.0
  0
ARC
  5
7072
  8
0
 10
230.4257374373162008
 20
22.0540305354653583
 30
0.0
 40
0.0538887085260481
 50
295.2147422605153224
 51
326.7347762722528159
  0
ARC
  5
7073
  8
0
 10
230.438133604031691
 20
22.0454893705580091
 30
0.0
 40
0.0388403184225682
 50
327.2394725719042867
 51
355.5753358304506264
  0
ARC
  5
7074
  8
0
 10
230.4225307600435997
 20
22.0843885429365017
 30
0.0
 40
0.0738462757013967
 50
43.9563068597803195
 51
66.7989968874144751
  0
ARC
  5
7075
  8
0
 10
230.4374288874406034
 20
22.0987535574363783
 30
0.0
 40
0.0531506761323977
 50
30.7831762810685987
 51
43.9563068597815985
  0
ARC
  5
7076
  8
0
 10
230.4249226444030114
 20
22.032810575392709
 30
0.0
 40
0.0136684559815066
 50
316.4023078980615082
 51
43.5976921019273007
  0
ARC
  5
7077
  8
0
 10
230.418012861014887
 20
22.0274940700975499
 30
0.0
 40
0.022357449037722
 50
41.252899063854322
 51
59.5336159399517371
  0
ARC
  5
7078
  8
0
 10
230.4188260482106045
 20
22.0376504137541289
 30
0.0
 40
0.0214325210342259
 50
302.1327747941303983
 51
318.2716706701949079
  0
ARC
  5
7079
  8
0
 10
230.4475316719170053
 20
21.7028933537224908
 30
0.0
 40
0.1225321231166609
 50
56.1931108532230681
 51
72.728883042355065
  0
ARC
  5
707A
  8
0
 10
230.4849434692532952
 20
21.75876389614033
 30
0.0
 40
0.0552925507652771
 50
33.7030821225791115
 51
56.1931108532249866
  0
LINE
  5
707B
  8
0
 10
230.5309426844106042
 20
21.7894451343005997
 30
0.0
 11
230.527463657010486
 21
21.7421392991006002
 31
0.0
  0
ARC
  5
707C
  8
0
 10
230.4910887294954023
 20
21.7448144314381402
 30
0.0
 40
0.0364731638983081
 50
317.250347539176289
 51
355.7938513359497961
  0
ARC
  5
707D
  8
0
 10
230.4536271787721091
 20
21.7799184366537908
 30
0.0
 40
0.0878113403438981
 50
290.7674238856312172
 51
317.0226001559437918
  0
ARC
  5
707E
  8
0
 10
230.4423355392164012
 20
21.7327217066840497
 30
0.0
 40
0.0096132744578423
 50
315.1800895663985784
 51
44.819910433615469
  0
ARC
  5
707F
  8
0
 10
230.4274154342161864
 20
21.7182369406165385
 30
0.0
 40
0.0304074898347306
 50
44.3630164750454483
 51
68.7279945133273316
  0
ARC
  5
7080
  8
0
 10
230.4274154342161864
 20
21.7472064727515608
 30
0.0
 40
0.0304074898347306
 50
291.2720054866725832
 51
315.6369835249544735
  0
LINE
  5
7081
  8
0
 10
230.4797033714104941
 20
21.5516076060005908
 30
0.0
 11
230.4761254290104944
 21
21.4870666777006001
 31
0.0
  0
ARC
  5
7082
  8
0
 10
230.4560417832103951
 20
21.4881800507144014
 30
0.0
 40
0.0201144830431252
 50
306.5909983083938073
 51
356.8269532994452788
  0
ARC
  5
7083
  8
0
 10
230.4377538645059076
 20
21.5100796691540417
 30
0.0
 40
0.0486266373923652
 50
290.6671376642402151
 51
308.511056549341788
  0
ARC
  5
7084
  8
0
 10
230.4185810994023029
 20
21.5650534113511796
 30
0.0
 40
0.1068394582058833
 50
277.9457655756939971
 51
289.8823200207863806
  0
ARC
  5
7085
  8
0
 10
230.4340718073491985
 20
21.476806680940669
 30
0.0
 40
0.0040194377727808
 50
304.438542505355997
 51
55.5614574945868114
  0
ARC
  5
7086
  8
0
 10
230.4229489306731864
 20
21.4628830908744384
 30
0.0
 40
0.0218316148587991
 50
52.1494767265347576
 51
79.5069540491943911
  0
ARC
  5
7087
  8
0
 10
230.4229489306731864
 20
21.490730271006889
 30
0.0
 40
0.0218316148587991
 50
280.4930459508055947
 51
307.8505232734651145
  0
LINE
  5
7088
  8
0
 10
230.4419803522104928
 20
21.4516300726006008
 30
0.0
 11
230.445665464710487
 21
21.3847665843005998
 31
0.0
  0
ARC
  5
7089
  8
0
 10
230.4738800532421976
 20
21.3874541990769593
 30
0.0
 40
0.0283423054672458
 50
185.4413606115367941
 51
210.9940380436320027
  0
ARC
  5
708A
  8
0
 10
230.5071742311677951
 20
21.4106611538368092
 30
0.0
 40
0.0688880248296373
 50
213.2807921091146
 51
227.842285236085786
  0
ARC
  5
708B
  8
0
 10
230.5315839659373012
 20
21.4376212987593817
 30
0.0
 40
0.1052567554338283
 50
227.8422852360843933
 51
231.6579976997028893
  0
ARC
  5
708C
  8
0
 10
230.4734713954520089
 20
21.3641488228617007
 30
0.0
 40
0.0115803146232251
 50
231.6579976997047083
 51
254.3188940373995024
  0
ARC
  5
708D
  8
0
 10
230.4749989893246891
 20
21.369920038123901
 30
0.0
 40
0.0175498395172874
 50
254.6098591741472887
 51
281.5265011400675803
  0
ARC
  5
708E
  8
0
 10
230.3856048205250886
 20
21.7647482189148
 30
0.0
 40
0.4223676591815624
 50
282.706267516194373
 51
287.0117882349231877
  0
ARC
  5
708F
  8
0
 10
230.4515472178275104
 20
21.5489535106971317
 30
0.0
 40
0.1967224888218185
 50
287.0344078950369067
 51
293.7441526681693063
  0
ARC
  5
7090
  8
0
 10
230.5060972927059026
 20
21.4232340636543306
 30
0.0
 40
0.0596840774182108
 50
294.4054002778751737
 51
310.206555468460806
  0
ARC
  5
7091
  8
0
 10
230.5334927429061906
 20
21.39013285311297
 30
0.0
 40
0.0167248937594923
 50
311.7339846574334956
 51
355.1326581553972233
  0
LINE
  5
7092
  8
0
 10
230.5501573237104935
 20
21.3887137626005917
 30
0.0
 11
230.5536985845104994
 21
21.4529690858005999
 31
0.0
  0
ARC
  5
7093
  8
0
 10
230.5133634701286951
 20
21.3581883430743105
 30
0.0
 40
0.1030063621527505
 50
66.947223276786147
 51
83.287009575946783
  0
ARC
  5
7094
  8
0
 10
230.4998324908441134
 20
21.2432295472017287
 30
0.0
 40
0.2187587364215923
 50
83.287009575946783
 51
97.2774490373792133
  0
ARC
  5
7095
  8
0
 10
230.4853355758770022
 20
21.3567501633206298
 30
0.0
 40
0.1043162144833828
 50
97.2774490373792275
 51
114.5579554232720056
  0
ARC
  5
7096
  8
0
 10
230.4975209475850875
 20
21.3149132026459789
 30
0.0
 40
0.072723229892928
 50
75.0376559752174472
 51
99.2929267018352277
  0
ARC
  5
7097
  8
0
 10
230.4927524817736071
 20
21.3440550458618397
 30
0.0
 40
0.0431938328077864
 50
99.2929267018319592
 51
119.1280204567028989
  0
ARC
  5
7098
  8
0
 10
230.4736838790080924
 20
21.3783880431980187
 30
0.0
 40
0.0039212843201906
 50
119.9308351463721038
 51
238.913339678824201
  0
ARC
  5
7099
  8
0
 10
230.497357308591603
 20
21.4297336034332311
 30
0.0
 40
0.060439127108718
 50
244.8372997911249058
 51
280.6935422626381182
  0
ARC
  5
709A
  8
0
 10
230.5007618775555045
 20
21.4225878153065707
 30
0.0
 40
0.0528243144404456
 50
278.5025605073759039
 51
287.6670983354781015
  0
ARC
  5
709B
  8
0
 10
230.510388449447106
 20
21.3924775874068089
 30
0.0
 40
0.0212127066915713
 50
287.573880341326003
 51
305.9630936268678738
  0
ARC
  5
709C
  8
0
 10
230.5102565023346983
 20
21.3640796536157396
 30
0.0
 40
0.0219390844094432
 50
55.7135149768811573
 51
74.0184728925991493
  0
ARC
  5
709D
  8
0
 10
230.5202063229793055
 20
21.3786729383789513
 30
0.0
 40
0.0042766131486278
 50
308.1129735652489785
 51
55.7135149768753024
  0
LINE
  5
709E
  8
0
 10
230.5638662622106096
 20
21.4074446829006
 30
0.0
 11
230.5674918694105031
 21
21.3416590449005987
 31
0.0
  0
ARC
  5
709F
  8
0
 10
230.5780086011550054
 20
21.3423327177043483
 30
0.0
 40
0.0105382864656443
 50
183.6652017650447135
 51
259.3426271400223868
  0
ARC
  5
70A0
  8
0
 10
230.580079952384807
 20
21.3494248938113707
 30
0.0
 40
0.0179058376821144
 50
257.0252277442170907
 51
270.7466765316182773
  0
ARC
  5
70A1
  8
0
 10
230.5588391008629969
 20
22.2266868808604983
 30
0.0
 40
0.8954238400074473
 50
271.3742080033114235
 51
273.5903598829873999
  0
ARC
  5
70A2
  8
0
 10
230.5827445449413915
 20
21.8322949744918198
 30
0.0
 40
0.5003096979379745
 50
273.6864795842901117
 51
277.6492761669715037
  0
ARC
  5
70A3
  8
0
 10
230.6260420778818911
 20
21.5077315286230188
 30
0.0
 40
0.1728713627643528
 50
277.7453958682741018
 51
287.0728921507445079
  0
ARC
  5
70A4
  8
0
 10
230.6631671207188106
 20
21.3815337326433799
 30
0.0
 40
0.0413648481213751
 50
289.2358076913496916
 51
308.3793567875891881
  0
ARC
  5
70A5
  8
0
 10
230.6777346407012885
 20
21.362101078463791
 30
0.0
 40
0.0170989694988622
 50
310.5422723281932917
 51
354.3869752109799265
  0
LINE
  5
70A6
  8
0
 10
230.6947516239104914
 20
21.3604286430005992
 30
0.0
 11
230.6982892650104873
 21
21.4246185721005915
 31
0.0
  0
ARC
  5
70A7
  8
0
 10
230.6592701591019079
 20
21.32888761178884
 30
0.0
 40
0.1033774994286379
 50
67.8246186943216145
 51
86.0622932160177498
  0
ARC
  5
70A8
  8
0
 10
230.64666268120871
 20
21.23292661613565
 30
0.0
 40
0.2000673661672506
 50
84.3472090221307411
 51
101.7051315678685057
  0
ARC
  5
70A9
  8
0
 10
230.6204244022920875
 20
21.3473656701365293
 30
0.0
 40
0.0827220804630116
 50
99.9900473739802038
 51
125.3664749905224056
  0
ARC
  5
70AA
  8
0
 10
230.6103370513154118
 20
21.3615775555105998
 30
0.0
 40
0.0652941621818815
 50
125.3664749905224056
 51
135.3745674268326127
  0
ARC
  5
70AB
  8
0
 10
230.640797379742196
 20
21.2864285106267701
 30
0.0
 40
0.072689661986485
 50
74.1422761189858619
 51
94.5765080948465737
  0
ARC
  5
70AC
  8
0
 10
230.6402618787058998
 20
21.2931184738564099
 30
0.0
 40
0.0659783007703248
 50
94.576508094848208
 51
110.5374714133188974
  0
ARC
  5
70AD
  8
0
 10
230.6189940703600882
 20
21.3498885996604812
 30
0.0
 40
0.0053551463188864
 50
110.5374714133102003
 51
241.5248830034107073
  0
ARC
  5
70AE
  8
0
 10
230.6394802167974092
 20
21.4128627964588283
 30
0.0
 40
0.0714954367003852
 50
251.2009898687221039
 51
284.6747184503266794
  0
ARC
  5
70AF
  8
0
 10
230.6501662069566976
 20
21.3708121379569889
 30
0.0
 40
0.0281111611235525
 50
285.3174353779273247
 51
300.4969849069614156
  0
ARC
  5
70B0
  8
0
 10
230.6622740584892881
 20
21.350585044484081
 30
0.0
 40
0.0045408147068532
 50
298.380567135073818
 51
54.5048342569699784
  0
ARC
  5
70B1
  8
0
 10
230.6544890112660937
 20
21.3382789390964014
 30
0.0
 40
0.0190973341288451
 50
56.9268269343375479
 51
71.1481178834543755
  0
LINE
  5
70B2
  8
0
 10
230.6179342079346952
 20
21.3332243567740392
 30
0.0
 11
230.6194047723105029
 21
21.3065414246005993
 31
0.0
  0
ARC
  5
70B3
  8
0
 10
230.629875162949503
 20
21.3071879288358801
 30
0.0
 40
0.0104903311605653
 50
183.5332966890125022
 51
259.174725364274309
  0
ARC
  5
70B4
  8
0
 10
230.6913589754227871
 20
21.6422713204653085
 30
0.0
 40
0.3511675173994404
 50
259.5897831151776245
 51
262.4978851780259106
  0
ARC
  5
70B5
  8
0
 10
230.7238284420874095
 20
21.8365774923495692
 30
0.0
 40
0.5480922032197448
 50
261.7846779208651924
 51
265.0867949919061743
  0
ARC
  5
70B6
  8
0
 10
230.7054052224717964
 20
21.6080130422305601
 30
0.0
 40
0.3187920442027759
 50
264.8674849948733936
 51
272.3071032359511037
  0
ARC
  5
70B7
  8
0
 10
230.7120707554391004
 20
21.4155411315370614
 30
0.0
 40
0.1262125126223705
 50
272.8010004960693209
 51
286.4358868823200055
  0
ARC
  5
70B8
  8
0
 10
230.7351530621091058
 20
21.3333483915237601
 30
0.0
 40
0.0408627207989609
 50
288.0018753453492195
 51
307.0922038174051067
  0
ARC
  5
70B9
  8
0
 10
230.7500279221902986
 20
21.3136747373349387
 30
0.0
 40
0.0161986957508199
 50
307.092203817406812
 51
355.2936335605921272
  0
LINE
  5
70BA
  8
0
 10
230.7661720004105916
 20
21.3123456465005994
 30
0.0
 11
230.7696876331104932
 21
21.3761338857006002
 31
0.0
  0
ARC
  5
70BB
  8
0
 10
230.7355963846547127
 20
21.2910473173229917
 30
0.0
 40
0.0916620823435537
 50
68.16572939968637
 51
82.3950560880946199
  0
ARC
  5
70BC
  8
0
 10
230.7166402245755137
 20
21.149070956756681
 30
0.0
 40
0.2348983311236694
 50
82.3950560880946199
 51
89.6139326329986545
  0
ARC
  5
70BD
  8
0
 10
230.7205725861111034
 20
21.1310996536690112
 30
0.0
 40
0.2528752176126416
 50
90.532372305640564
 51
95.5801998338878747
  0
ARC
  5
70BE
  8
0
 10
230.7118074363143876
 20
21.2301132711364104
 30
0.0
 40
0.0810862845971734
 50
79.5892105496326963
 51
102.3659090427559022
  0
ARC
  5
70BF
  8
0
 10
230.7012370560622969
 20
21.2783268833186092
 30
0.0
 40
0.0317275433416333
 50
102.3659090427575933
 51
119.859390606249903
  0
ARC
  5
70C0
  8
0
 10
230.6875867590075018
 20
21.302104460232961
 30
0.0
 40
0.0043103266046695
 50
119.8593906062331058
 51
232.1584073690140997
  0
ARC
  5
70C1
  8
0
 10
230.6980783308964931
 20
21.3205938405480602
 30
0.0
 40
0.0255316904018939
 50
239.0364349906735981
 51
256.2984679194053115
  0
ARC
  5
70C2
  8
0
 10
230.7088631800976941
 20
21.3731209112365512
 30
0.0
 40
0.0791428997745504
 50
257.7203399501864851
 51
282.8393135676304269
  0
ARC
  5
70C3
  8
0
 10
230.7202159502571988
 20
21.3233009028626306
 30
0.0
 40
0.028045750990962
 50
282.8433215772971039
 51
305.2839731699422146
  0
ARC
  5
70C4
  8
0
 10
230.734086867125086
 20
21.3031108278205998
 30
0.0
 40
0.0035685527545892
 50
310.744136770458681
 51
48.9466542655378589
  0
ARC
  5
70C5
  8
0
 10
230.7212124669588036
 20
21.2827209496563192
 30
0.0
 40
0.0276463195486713
 50
56.6016842979558632
 51
79.0581632150072693
  0
LINE
  5
70C6
  8
0
 10
230.5984514740106022
 20
21.3263814667005995
 30
0.0
 11
230.601650488010506
 21
21.2683362517005996
 31
0.0
  0
ARC
  5
70C7
  8
0
 10
230.6118939032674859
 20
21.2689284015359412
 30
0.0
 40
0.0102605164369448
 50
183.3084638823723083
 51
240.9319989227188898
  0
ARC
  5
70C8
  8
0
 10
230.6987091845431905
 20
21.4195296632564087
 30
0.0
 40
0.184091536109652
 50
240.0881688340440121
 51
247.6542935417710964
  0
ARC
  5
70C9
  8
0
 10
230.6907243604809992
 20
21.400104802762101
 30
0.0
 40
0.163089569046395
 50
247.6542935417710964
 51
258.125805712163924
  0
ARC
  5
70CA
  8
0
 10
230.6874824188219009
 20
21.3790838765279005
 30
0.0
 40
0.1418560645202348
 50
257.6601964639982043
 51
279.5605696927755162
  0
ARC
  5
70CB
  8
0
 10
230.6996545459903132
 20
21.3103406388748802
 30
0.0
 40
0.0720483395944363
 50
279.094960444609228
 51
296.2226123769950163
  0
ARC
  5
70CC
  8
0
 10
230.7232010805184927
 20
21.2625353974340605
 30
0.0
 40
0.0187587496401059
 50
296.222612377004225
 51
351.4072108885598027
  0
LINE
  5
70CD
  8
0
 10
230.7417472533105922
 20
21.2597280873005907
 30
0.0
 11
230.7435991732126865
 21
21.2933300141412083
 31
0.0
  0
ARC
  5
70CE
  8
0
 10
230.6875974250856984
 20
21.1747927357741297
 30
0.0
 40
0.0842694305960444
 50
79.9434308280936676
 51
101.0351529764254934
  0
ARC
  5
70CF
  8
0
 10
230.6783120957250901
 20
21.2224056336515616
 30
0.0
 40
0.0357595822596303
 50
101.0351529764270992
 51
118.7661789059805955
  0
ARC
  5
70D0
  8
0
 10
230.6629903043406102
 20
21.25031488007793
 30
0.0
 40
0.0039211883410144
 50
118.7661789059691984
 51
237.1820273273818032
  0
ARC
  5
70D1
  8
0
 10
230.6713234808057962
 20
21.2632365353739914
 30
0.0
 40
0.0192968511101545
 50
237.1820273273820874
 51
258.5699392835286972
  0
ARC
  5
70D2
  8
0
 10
230.6848862653725973
 20
21.3241629986927315
 30
0.0
 40
0.0817118460856867
 50
257.7145203704837968
 51
282.0901069266701029
  0
ARC
  5
70D3
  8
0
 10
230.6962063112943895
 20
21.2734351190635316
 30
0.0
 40
0.0297414745263272
 50
281.2346880136253162
 51
300.3666886261253808
  0
ARC
  5
70D4
  8
0
 10
230.7092338477825137
 20
21.2512006130633999
 30
0.0
 40
0.0039715314915103
 50
300.3666886261553941
 51
53.8542344195889626
  0
ARC
  5
70D5
  8
0
 10
230.6964504867164862
 20
21.2271523052247311
 30
0.0
 40
0.0311713085518638
 50
60.9710252181482915
 51
79.1603640855480961
  0
ARC
  5
70D6
  8
0
 10
230.6127118173635893
 20
21.2585976579917606
 30
0.0
 40
0.0692676123135787
 50
96.1027355941410946
 51
101.8806187208642058
  0
ARC
  5
70D7
  8
0
 10
230.7118962168744929
 20
20.1511079048172483
 30
0.0
 40
1.181180228642174
 50
94.5501628142995827
 51
95.1753999139376532
  0
ARC
  5
70D8
  8
0
 10
230.4777547922936094
 20
20.5750723535488014
 30
0.0
 40
0.7260363592813714
 50
80.2731523286827837
 51
84.9218091746367207
  0
ARC
  5
70D9
  8
0
 10
230.5333340119125012
 20
21.2066223509331806
 30
0.0
 40
0.0920472876421186
 50
84.5852526427781441
 51
92.515529262900472
  0
ARC
  5
70DA
  8
0
 10
230.5331174154729865
 20
21.2115525607244102
 30
0.0
 40
0.0871123223329077
 50
92.515529262900472
 51
102.2012705955307013
  0
LINE
  5
70DB
  8
0
 10
230.5147065335106049
 20
21.2966971209005997
 30
0.0
 11
230.5184121043104994
 21
21.2294623491006007
 31
0.0
  0
ARC
  5
70DC
  8
0
 10
230.5460427018354892
 20
21.2309851792171287
 30
0.0
 40
0.0276725302628944
 50
183.1546026303983865
 51
231.7261612110490887
  0
ARC
  5
70DD
  8
0
 10
230.5568356278045883
 20
21.2446642304977011
 30
0.0
 40
0.0450967575028437
 50
231.7261612110490887
 51
256.3655726877796042
  0
ARC
  5
70DE
  8
0
 10
230.5760631307697111
 20
21.3302114143696109
 30
0.0
 40
0.132773855445528
 50
257.004266388028384
 51
284.9458702341755156
  0
ARC
  5
70DF
  8
0
 10
230.5995530751839055
 20
21.2404833290091304
 30
0.0
 40
0.0400255593756682
 50
285.5845639344227038
 51
304.0876153436485083
  0
ARC
  5
70E0
  8
0
 10
230.6126079793779127
 20
21.2211923354553598
 30
0.0
 40
0.0167323638927251
 50
304.0876153436464051
 51
353.4321685173256924
  0
LINE
  5
70E1
  8
0
 10
230.6292305311106077
 20
21.219278497600591
 30
0.0
 11
230.6308359669230867
 21
21.2484090946857016
 31
0.0
  0
ARC
  5
70E2
  8
0
 10
230.5761561004950124
 20
21.1351181241670893
 30
0.0
 40
0.0841204246424375
 50
78.7607923079209087
 51
103.1257746776408055
  0
ARC
  5
70E3
  8
0
 10
230.5624022817063121
 20
21.1941014297226182
 30
0.0
 40
0.023554775421705
 50
103.1257746776424966
 51
122.7269900348183995
  0
ARC
  5
70E4
  8
0
 10
230.5516144221882939
 20
21.2108878488930905
 30
0.0
 40
0.0036007838023231
 50
122.7269900348046008
 51
241.9638258264058948
  0
ARC
  5
70E5
  8
0
 10
230.567275350380811
 20
21.2402969626017502
 30
0.0
 40
0.0369198570333929
 50
241.9638258264041042
 51
250.31163791245271
  0
ARC
  5
70E6
  8
0
 10
230.5736892268363931
 20
21.2759363212207191
 30
0.0
 40
0.0728813346984018
 50
255.0087513057964088
 51
291.3441397848432075
  0
ARC
  5
70E7
  8
0
 10
230.5985898752545893
 20
21.2114291320941817
 30
0.0
 40
0.0037464833032845
 50
295.7202504420736773
 51
57.491894943202162
  0
ARC
  5
70E8
  8
0
 10
230.587987174221297
 20
21.1933300904468709
 30
0.0
 40
0.024720254536483
 50
59.31244957374291
 51
79.3595765707515142
  0
ARC
  5
70E9
  8
0
 10
230.6027917465071084
 20
21.0941346303100694
 30
0.0
 40
0.1127749387500863
 50
69.8518601860280199
 51
81.5634958920191337
  0
LINE
  5
70EA
  8
0
 10
230.6416369161105138
 20
21.2000083268005888
 30
0.0
 11
230.6385996291105869
 21
21.1388525340005984
 31
0.0
  0
ARC
  5
70EB
  8
0
 10
230.6224147533646942
 20
21.1396563517658294
 30
0.0
 40
0.0162048241554528
 50
310.6511203980390974
 51
357.1567557523289906
  0
ARC
  5
70EC
  8
0
 10
230.601637467079513
 20
21.1682811652113401
 30
0.0
 40
0.0515383500922734
 50
284.2831092498341263
 51
307.4431043068829013
  0
ARC
  5
70ED
  8
0
 10
230.5722182740470885
 20
21.2996913836293196
 30
0.0
 40
0.1861856678863527
 50
260.8761614627571817
 51
283.0795161860633016
  0
ARC
  5
70EE
  8
0
 10
230.5546822558027884
 20
21.1880446757371104
 30
0.0
 40
0.0731718934755342
 50
242.00170234817611
 51
260.5711369235684174
  0
ARC
  5
70EF
  8
0
 10
230.5294021201717953
 20
21.1389534533553913
 30
0.0
 40
0.0179731889861198
 50
185.380863696268392
 51
239.6922547815993028
  0
LINE
  5
70F0
  8
0
 10
230.5115081329105067
 20
21.1372680032005995
 30
0.0
 11
230.507859092610488
 21
21.1981050124005996
 31
0.0
  0
ARC
  5
70F1
  8
0
 10
230.5482216196026002
 20
21.1000683283108685
 30
0.0
 40
0.1060203990395082
 50
97.2076781802398671
 51
112.3773769173155017
  0
ARC
  5
70F2
  8
0
 10
230.5760608076325013
 20
21.0665316323907099
 30
0.0
 40
0.0677896649588846
 50
70.6444233772839425
 51
111.3426049956371031
  0
ARC
  5
70F3
  8
0
 10
230.5970692855418918
 20
21.1278393238006288
 30
0.0
 40
0.0030255413591837
 50
295.3409725364592759
 51
61.1683130847363117
  0
ARC
  5
70F4
  8
0
 10
230.5743029036925122
 20
21.1869847120740999
 30
0.0
 40
0.066393202504583
 50
250.0003093351635926
 51
291.2480596233290839
  0
ARC
  5
70F5
  8
0
 10
230.5526464246644878
 20
21.1271807514186314
 30
0.0
 40
0.0027908248469284
 50
116.7754858974384007
 51
247.8773803208792117
  0
ARC
  5
70F6
  8
0
 10
230.427494802719508
 20
20.9322386775707301
 30
0.0
 40
0.1965064175195375
 50
73.8573762249509969
 51
84.7560874334076431
  0
LINE
  5
70F7
  8
0
 10
230.4821293492105099
 20
21.1209973554006005
 30
0.0
 11
230.4766544654106042
 21
21.0609234631006004
 31
0.0
  0
ARC
  5
70F8
  8
0
 10
230.4587215410190879
 20
21.0639218156185812
 30
0.0
 40
0.0181818562047991
 50
297.4249767178512229
 51
350.5080493299914792
  0
ARC
  5
70F9
  8
0
 10
230.4431794342245041
 20
21.0936125180349592
 30
0.0
 40
0.0516943882945165
 50
280.9163835108071794
 51
297.5582652315333121
  0
ARC
  5
70FA
  8
0
 10
230.4186816297224993
 20
21.2071114330394117
 30
0.0
 40
0.1677983340137701
 50
276.7053649126044093
 51
281.7907198285395225
  0
ARC
  5
70FB
  8
0
 10
230.4216704165621934
 20
21.0177804782009794
 30
0.0
 40
0.038015325860059
 50
67.2395238268348834
 51
83.2475483948581143
  0
ARC
  5
70FC
  8
0
 10
230.4355185127853076
 20
21.05078751521377
 30
0.0
 40
0.0022209930492946
 50
294.9657086388630773
 51
67.2395238268154429
  0
ARC
  5
70FD
  8
0
 10
230.4206280569788134
 20
21.08795675748474
 30
0.0
 40
0.042258802759431
 50
277.3377084067332135
 51
291.9962813928905234
  0
LINE
  5
70FE
  8
0
 10
230.4817490170104861
 20
21.0266352743005989
 30
0.0
 11
230.4768062185106032
 21
20.9723997588005986
 31
0.0
  0
ARC
  5
70FF
  8
0
 10
230.4645898791640946
 20
20.97351310497681
 30
0.0
 40
0.0122669672997938
 50
289.8763931253346868
 51
354.7926868792143864
  0
ARC
  5
7100
  8
0
 10
230.4495579852097933
 20
21.0350371996291301
 30
0.0
 40
0.0755416815089347
 50
273.6620355329254153
 51
284.7260850651829855
  0
ARC
  5
7101
  8
0
 10
230.4375344940264085
 20
20.5785198499516504
 30
0.0
 40
0.4502914140666594
 50
84.3649955641777751
 51
87.1366220406125649
  0
ARC
  5
7102
  8
0
 10
230.5676178096188096
 20
20.9337163843363889
 30
0.0
 40
0.0959443681281849
 50
116.8160081577201055
 51
155.1571315314303092
  0
ARC
  5
7103
  8
0
 10
230.7016301021349136
 20
20.8674239469450313
 30
0.0
 40
0.2454374162259959
 50
154.2571182770458904
 51
170.9348793304905882
  0
ARC
  5
7104
  8
0
 10
231.075098614269109
 20
20.8066852554474693
 30
0.0
 40
0.623812110296484
 50
170.8304020929114984
 51
178.0181227859216904
  0
ARC
  5
7105
  8
0
 10
230.4489110165550017
 20
20.8287578504960003
 30
0.0
 40
0.0027935808432881
 50
286.2866495891310024
 51
349.7091302435300122
  0
LINE
  5
7106
  8
0
 10
230.4679376736106065
 20
21.2691544460005986
 30
0.0
 11
230.464352149810594
 21
21.2040885094005986
 31
0.0
  0
ARC
  5
7107
  8
0
 10
230.3643874537538068
 20
21.0902829595750099
 30
0.0
 40
0.206682502134281
 50
59.9330861133350865
 51
70.2145956862311778
  0
ARC
  5
7108
  8
0
 10
230.4159468021613009
 20
21.2254072475266184
 30
0.0
 40
0.0621443016111896
 50
72.7751538312876249
 51
85.0273980788979884
  0
ARC
  5
7109
  8
0
 10
230.4225379142334873
 20
21.2637028924025486
 30
0.0
 40
0.0802880281554775
 50
279.1900424522494859
 51
289.582140177595079
  0
ARC
  5
710A
  8
0
 10
230.4386284188792047
 20
21.2184708943463214
 30
0.0
 40
0.0322792999082802
 50
289.5821401775933737
 51
307.7841343239134062
  0
ARC
  5
710B
  8
0
 10
230.4489385519813993
 20
21.2051715481736203
 30
0.0
 40
0.0154516009209776
 50
307.7841343239076082
 51
355.9807094054124263
  0
ARC
  5
710C
  8
0
 10
230.4222830334377079
 20
21.1705734649326907
 30
0.0
 40
0.0329642252869371
 50
61.8089640858542921
 51
80.6102779830629288
  0
ARC
  5
710D
  8
0
 10
230.4361375667998004
 20
21.1964217701418889
 30
0.0
 40
0.0036370539799462
 50
301.4151067818191905
 51
61.8089640858542921
  0
ARC
  5
710E
  8
0
 10
230.4211795033029944
 20
21.2253210998035016
 30
0.0
 40
0.0361698590842114
 50
280.1193193222767945
 51
297.7725744158051953
  0
ARC
  5
710F
  8
0
 10
274.6014589318137951
 20
20.9272687084136493
 30
0.0
 40
44.1499102925124518
 50
179.9581707016864982
 51
180.1284907527451082
  0
LINE
  5
7110
  8
0
 10
230.8218015556147122
 20
16.3150855914136095
 30
0.0
 11
230.8070624456105122
 21
15.9613536680005996
 31
0.0
  0
ARC
  5
7111
  8
0
 10
230.7873944724036903
 20
15.9621731824449196
 30
0.0
 40
0.019685039344327
 50
269.9999543229585015
 51
357.6140107174958871
  0
LINE
  5
7112
  8
0
 10
230.6979918301105101
 20
15.9424882137150998
 30
0.0
 11
230.6979918301105101
 21
-4.6359310691240374
 31
0.0
  0
ARC
  5
7113
  8
0
 10
230.4125772509104877
 20
22.0166549294179994
 30
0.0
 40
0.0344655631089075
 50
60.8814555115439831
 51
119.1185444884539066
  0
ARC
  5
7114
  8
0
 10
230.4125772509104877
 20
22.0499530902996597
 30
0.0
 40
0.0351965507568457
 50
239.905749532634502
 51
300.094250467365498
  0
ARC
  5
7115
  8
0
 10
230.4125772509104877
 20
21.6752935397660806
 30
0.0
 40
0.0758285826823698
 50
70.0522609150796143
 51
109.9477390849203999
  0
ARC
  5
7116
  8
0
 10
230.4125772509104877
 20
21.7929911161775998
 30
0.0
 40
0.0785053471172622
 50
250.7597252010461091
 51
289.2402747989553973
  0
ARC
  5
7117
  8
0
 10
230.4125772509104877
 20
21.9019827291792488
 30
0.0
 40
0.2165554982809531
 50
250.5286382362749862
 51
289.4713617637249854
  0
ARC
  5
7118
  8
0
 10
230.4125772509104877
 20
21.4200330868454394
 30
0.0
 40
0.0658974104033405
 50
77.4245033159575371
 51
102.5754966840425055
  0
ARC
  5
7119
  8
0
 10
230.4125772509104877
 20
21.5345690266329015
 30
0.0
 40
0.0668627883766401
 50
257.6089777158709921
 51
282.3910222841290079
  0
ARC
  5
711A
  8
0
 10
230.4125772509104877
 20
21.6108259561828291
 30
0.0
 40
0.1530029783448353
 50
262.1969811231518861
 51
277.8030188768481139
  0
ARC
  5
711B
  8
0
 10
230.4125772509104877
 20
21.1906651369810888
 30
0.0
 40
0.0970483372928541
 50
84.8234524501733347
 51
95.1765475498266937
  0
ARC
  5
711C
  8
0
 10
230.4125772509104877
 20
21.1155787629599807
 30
0.0
 40
0.088807616191974
 50
80.2209749616826571
 51
99.779025038318963
  0
ARC
  5
711D
  8
0
 10
230.4125772509104877
 20
21.2776617827673995
 30
0.0
 40
0.0892107028106672
 50
260.3480869268865945
 51
279.6519130731134055
  0
ARC
  5
711E
  8
0
 10
230.4125772509104877
 20
20.7673270248908288
 30
0.0
 40
0.3620913231071335
 50
84.7904433955895769
 51
95.2095566044104373
  0
ARC
  5
711F
  8
0
 10
230.4125772509104877
 20
20.9483635974993199
 30
0.0
 40
0.1080233525648418
 50
82.7871222833118168
 51
97.2128777166865632
  0
ARC
  5
7120
  8
0
 10
230.4125772509104877
 20
21.1549689189879011
 30
0.0
 40
0.1097519025485025
 50
262.9618144587792017
 51
277.0381855412207983
  0
ARC
  5
7121
  8
0
 10
230.4125772509104877
 20
21.2809815014821702
 30
0.0
 40
0.2418894564947835
 50
263.9016722433693189
 51
276.0983277566306811
  0
ARC
  5
7122
  8
0
 10
230.4125772509104877
 20
20.0542759785632789
 30
0.0
 40
0.9751283076653082
 50
87.2107909459907944
 51
92.789209054009234
  0
ARC
  5
7123
  8
0
 10
230.4125733779985978
 20
21.1582904211715999
 30
0.0
 40
0.1982347072937768
 50
262.5522443404655064
 51
277.447995358074877
  0
ARC
  5
7124
  8
0
 10
230.41257416313519
 20
20.7829438492747514
 30
0.0
 40
0.1806214890261919
 50
81.8212202852532329
 51
98.1790194132860989
  0
ARC
  5
7125
  8
0
 10
230.4125772509104877
 20
21.7246731579895815
 30
0.0
 40
0.7661648056603193
 50
266.8721113516987771
 51
273.1278886483011092
  0
ARC
  5
7126
  8
0
 10
233.4230193616106135
 20
19.1968006356098115
 30
0.0
 40
6.4323369181511838
 50
86.103898332604544
 51
93.8961016673954703
  0
ARC
  5
7127
  8
0
 10
233.2968133411158078
 20
21.0999693862144611
 30
0.0
 40
4.5249924788485938
 50
93.9391658818016992
 51
96.8943879709852638
  0
ARC
  5
7128
  8
0
 10
233.0429491805803934
 20
23.09151428372477
 30
0.0
 40
2.517407864621382
 50
96.5993226578198261
 51
102.8224945142877971
  0
ARC
  5
7129
  8
0
 10
232.5124963174451125
 20
25.4190547166337986
 30
0.0
 40
0.130188558629741
 50
102.5274292011246047
 51
112.9160008378832032
  0
ARC
  5
712A
  8
0
 10
232.4697688528165997
 20
25.5201260393822196
 30
0.0
 40
0.0204568470979565
 50
112.9160008378759983
 51
167.7506373514243023
  0
ARC
  5
712B
  8
0
 10
232.625823902803603
 20
25.5026605073783905
 30
0.0
 40
0.1773915024781521
 50
172.9390748886713993
 51
188.4710030851431952
  0
ARC
  5
712C
  8
0
 10
232.9143303581695932
 20
25.4020304040628808
 30
0.0
 40
0.4507008118079342
 50
161.3378492659205961
 51
163.2709126385844911
  0
ARC
  5
712D
  8
0
 10
232.4228012565158963
 20
25.5515846646934399
 30
0.0
 40
0.0630977415061132
 50
331.6329106455531246
 51
341.6911184025282182
  0
ARC
  5
712E
  8
0
 10
230.9983962727391997
 20
26.3435074904547193
 30
0.0
 40
1.69283891968029
 50
329.6934802130277262
 51
330.9536620302285996
  0
ARC
  5
712F
  8
0
 10
232.3940870500854885
 20
25.5275395347255305
 30
0.0
 40
0.0761274675718247
 50
321.0680753264023224
 51
329.8098236450106242
  0
ARC
  5
7130
  8
0
 10
232.4420374688932895
 20
25.48719271465459
 30
0.0
 40
0.0135315587177424
 50
302.3619366774473178
 51
326.383879882806923
  0
ARC
  5
7131
  8
0
 10
232.475951404415099
 20
25.4298902004267617
 30
0.0
 40
0.0530625835862617
 50
120.1742886391389931
 51
134.4481713219514916
  0
ARC
  5
7132
  8
0
 10
232.4531357404854077
 20
25.4528664965231108
 30
0.0
 40
0.0206841362888445
 50
133.8989380622466001
 51
155.094638335535393
  0
ARC
  5
7133
  8
0
 10
232.4505985177854086
 20
25.4553833979811301
 30
0.0
 40
0.0173654565284563
 50
159.1045979620282083
 51
206.3558025004087142
  0
ARC
  5
7134
  8
0
 10
232.4715423806356114
 20
25.4678978076432507
 30
0.0
 40
0.0417319896635546
 50
208.9868644375073927
 51
234.0444121103379871
  0
ARC
  5
7135
  8
0
 10
232.5581030875835893
 20
25.606326953971049
 30
0.0
 40
0.2049182874870653
 50
237.1806854382620884
 51
251.9970616186475922
  0
ARC
  5
7136
  8
0
 10
232.4928007935849905
 20
25.432545945353759
 30
0.0
 40
0.0211962743944839
 50
275.330279852781473
 51
307.2801073543798793
  0
ARC
  5
7137
  8
0
 10
232.1570874524130943
 20
25.8378344087975407
 30
0.0
 40
0.5474510211960175
 50
309.5448433532974946
 51
312.1461202089402036
  0
ARC
  5
7138
  8
0
 10
232.5113125668966916
 20
25.2815106879141887
 30
0.0
 40
0.0685783554271286
 50
107.4420103039995951
 51
123.6414276862697932
  0
ARC
  5
7139
  8
0
 10
232.5994808668500866
 20
25.1912751639631516
 30
0.0
 40
0.1939641283725189
 50
130.5741019125208879
 51
153.6677491365958019
  0
ARC
  5
713A
  8
0
 10
233.4942073707562997
 20
24.8488130987999511
 30
0.0
 40
1.151278335505731
 50
158.1489579151611906
 51
163.6600403340978005
  0
ARC
  5
713B
  8
0
 10
235.4266732007851886
 20
24.2977503663939807
 30
0.0
 40
3.160759315195854
 50
163.9295449568718936
 51
175.9468764061219872
  0
ARC
  5
713C
  8
0
 10
252.5503025624589952
 20
23.3047513914175717
 30
0.0
 40
20.3129373498406096
 50
176.5668855760922042
 51
178.7870292408339878
  0
ARC
  5
713D
  8
0
 10
233.416986610065095
 20
25.5744102475025095
 30
0.0
 40
0.0589060538227797
 50
111.8705223330053968
 51
205.1618959322217961
  0
ARC
  5
713E
  8
0
 10
233.4203772475179903
 20
25.576003007017821
 30
0.0
 40
0.0626521591617255
 50
205.1618959322206877
 51
242.450686435540689
  0
ARC
  5
713F
  8
0
 10
233.4290521131559899
 20
25.5744102475025095
 30
0.0
 40
0.0589060538227797
 50
334.8381040677783744
 51
68.1294776669945463
  0
ARC
  5
7140
  8
0
 10
233.4256614757030093
 20
25.576003007017821
 30
0.0
 40
0.0626521591617255
 50
297.5493135644592826
 51
334.8381040677792839
  0
ARC
  5
7141
  8
0
 10
233.4230193616106135
 20
25.5796677766721103
 30
0.0
 40
0.0671265243179546
 50
241.8979763337561906
 51
298.1020236662438947
  0
ARC
  5
7142
  8
0
 10
233.423014071549801
 20
25.5152682889079294
 30
0.0
 40
0.0640672231214398
 50
58.5802346632694722
 51
121.6237282051710054
  0
ARC
  5
7143
  8
0
 10
233.417916989596506
 20
25.5234549794120902
 30
0.0
 40
0.0544235994967735
 50
121.5735974179658996
 51
158.9554124011019098
  0
ARC
  5
7144
  8
0
 10
233.427958337231189
 20
25.5233248784070312
 30
0.0
 40
0.054614500879134
 50
21.1037815471218408
 51
58.6005454273016113
  0
ARC
  5
7145
  8
0
 10
233.5038322644693949
 20
25.6510831640542882
 30
0.0
 40
0.8271312238750244
 50
197.0831133254419001
 51
223.3358943595511903
  0
ARC
  5
7146
  8
0
 10
233.4230193616106135
 20
25.5727507013936695
 30
0.0
 40
0.7145965885930928
 50
223.2144420611562907
 51
316.7855579388440788
  0
ARC
  5
7147
  8
0
 10
234.6135266734472964
 20
26.0087926326042407
 30
0.0
 40
2.0279669423439342
 50
199.4999729817716911
 51
206.9978903232851906
  0
ARC
  5
7148
  8
0
 10
231.7940136125928063
 20
24.5723097397096417
 30
0.0
 40
1.13638717846932
 50
10.5016605601119899
 51
26.9978903232850591
  0
ARC
  5
7149
  8
0
 10
232.9131253489478013
 20
24.7796729438452203
 30
0.0
 40
0.0017758573381397
 50
128.8377085264338007
 51
231.162291473423295
  0
ARC
  5
714A
  8
0
 10
232.9353112797602989
 20
24.7386169275670014
 30
0.0
 40
0.0484144976599735
 50
101.9008708960905949
 51
118.7672399572520021
  0
ARC
  5
714B
  8
0
 10
233.0731668279834992
 20
23.8770558853431787
 30
0.0
 40
0.9208795811242829
 50
93.5077654546769281
 51
99.2383377286286361
  0
ARC
  5
714C
  8
0
 10
232.931652256375088
 20
24.8114919555920608
 30
0.0
 40
0.0385764583797295
 50
239.3938533431843041
 51
258.8427526945703789
  0
ARC
  5
714D
  8
0
 10
233.0284397337912026
 20
25.3283080628238793
 30
0.0
 40
0.5643758149728906
 50
259.355128596872305
 51
265.961820375043601
  0
ARC
  5
714E
  8
0
 10
233.1869168300104889
 20
27.1766694413926011
 30
0.0
 40
2.419469595957235
 50
265.3006323934970965
 51
267.1851562422739903
  0
ARC
  5
714F
  8
0
 10
232.9521692327722064
 20
24.7796914275323701
 30
0.0
 40
0.0015973943617103
 50
130.3784559198797979
 51
229.6215440802018861
  0
ARC
  5
7150
  8
0
 10
232.9696884466563915
 20
24.7492994518702503
 30
0.0
 40
0.0366520396012706
 50
103.2498005137116053
 51
120.4124882006249067
  0
ARC
  5
7151
  8
0
 10
233.0403792673963039
 20
24.3903660715406616
 30
0.0
 40
0.4024578159006781
 50
96.0687698250796842
 51
101.3335820351675949
  0
ARC
  5
7152
  8
0
 10
232.9696884466563915
 20
24.8100834031944615
 30
0.0
 40
0.0366520396012706
 50
239.5875117993736012
 51
256.7501994862884089
  0
ARC
  5
7153
  8
0
 10
233.0403792673963039
 20
25.1690167835240501
 30
0.0
 40
0.4024578159006781
 50
258.6664179648324193
 51
263.93123017491871
  0
ARC
  5
7154
  8
0
 10
233.1415308874306902
 20
26.1355855302203217
 30
0.0
 40
1.374304532163259
 50
263.9980568363787938
 51
266.7987184103536151
  0
LINE
  5
7155
  8
0
 10
232.963822344804214
 20
24.7854753364064315
 30
0.0
 11
232.9708904335105899
 21
24.7784269987005992
 31
0.0
  0
ARC
  5
7156
  8
0
 10
233.065857784646397
 20
25.2388012007319205
 30
0.0
 40
0.4722230687720933
 50
260.7199028218341255
 51
263.9852888851634134
  0
ARC
  5
7157
  8
0
 10
233.0073808002676117
 20
24.8811510995113707
 30
0.0
 40
0.1098239147414253
 50
253.2267919431803875
 51
260.739002395484988
  0
ARC
  5
7158
  8
0
 10
232.9801252714111968
 20
24.7907236344579793
 30
0.0
 40
0.0153782145257548
 50
233.0932586538270925
 51
253.2267919431770906
  0
ARC
  5
7159
  8
0
 10
233.1457230894527015
 20
26.0077635320354688
 30
0.0
 40
1.2453214021832231
 50
264.0381601733161006
 51
266.1918146082409748
  0
ARC
  5
715A
  8
0
 10
232.9722927140383888
 20
24.7796904203590316
 30
0.0
 40
0.0018874917127518
 50
137.9818945158212102
 51
222.0181054846622999
  0
ARC
  5
715B
  8
0
 10
232.9796608239865918
 20
24.7694083286259392
 30
0.0
 40
0.0144989181864298
 50
109.8782502868078979
 51
127.2216208120936045
  0
ARC
  5
715C
  8
0
 10
233.0241232821423978
 20
24.6059610128457216
 30
0.0
 40
0.1838416960449132
 50
97.6341003330260833
 51
105.5850324492901962
  0
ARC
  5
715D
  8
0
 10
233.1587238901290107
 20
23.4547307207477012
 30
0.0
 40
1.342891433861827
 50
93.1690991451529413
 51
96.8008431506297029
  0
ARC
  5
715E
  8
0
 10
233.1669247686232893
 20
23.1203861660731
 30
0.0
 40
1.6787202076333709
 50
92.9172771635932833
 51
95.7810950793900844
  0
LINE
  5
715F
  8
0
 10
233.0686820902105012
 20
24.7600339621006
 30
0.0
 11
233.0686821084105986
 21
24.7370036859005999
 31
0.0
  0
LINE
  5
7160
  8
0
 10
233.0686820906018113
 20
24.7595388278034889
 30
0.0
 11
233.0495204073104958
 21
24.7786469661005988
 31
0.0
  0
ARC
  5
7161
  8
0
 10
233.0504046338500075
 20
24.7796904733770802
 30
0.0
 40
0.0013677587539894
 50
130.2766141977666905
 51
229.7233858022333095
  0
ARC
  5
7162
  8
0
 10
233.0554248479542139
 20
24.7735094064703283
 30
0.0
 40
0.009330428256169
 50
111.2708214122253025
 51
129.2581599418587928
  0
ARC
  5
7163
  8
0
 10
233.1136999805414973
 20
24.5350285240493804
 30
0.0
 40
0.2547504159653005
 50
95.5749237591478789
 51
104.0070214254309064
  0
ARC
  5
7164
  8
0
 10
233.333371018384014
 20
21.7436593607839903
 30
0.0
 40
3.0547087951484841
 50
91.2156837998807077
 51
94.5893683400978773
  0
ARC
  5
7165
  8
0
 10
233.3564117798125892
 20
19.7876502692061997
 30
0.0
 40
5.0152955373932686
 50
90.946961899391539
 51
93.1080744710370567
  0
ARC
  5
7166
  8
0
 10
233.3168291271252031
 20
20.3941734849496612
 30
0.0
 40
4.4090427430269186
 50
91.6962269994972985
 51
93.0597286970322131
  0
ARC
  5
7167
  8
0
 10
233.2891453272683009
 20
20.5815574285696492
 30
0.0
 40
4.2234413752422713
 50
91.6729805196997916
 51
93.6969141705909863
  0
ARC
  5
7168
  8
0
 10
233.0698523681982124
 20
24.7600089863747996
 30
0.0
 40
0.0011705444695849
 50
143.7131844675745072
 51
178.7773960596192921
  0
ARC
  5
7169
  8
0
 10
233.0728446335785975
 20
24.7572239012380315
 30
0.0
 40
0.0052522310212549
 50
117.3951562166240024
 51
138.5347697174942141
  0
ARC
  5
716A
  8
0
 10
233.1179556284816101
 20
24.5987717208883296
 30
0.0
 40
0.1698985358451741
 50
96.3129325166565309
 51
106.2447789893231942
  0
ARC
  5
716B
  8
0
 10
233.3002215619594892
 20
22.6017585430283887
 30
0.0
 40
2.1751833411562931
 50
91.3310401214189227
 51
95.3006556786101271
  0
ARC
  5
716C
  8
0
 10
233.1092691303699098
 20
24.7370685039595308
 30
0.0
 40
0.0405870737170159
 50
180.091502107727905
 51
225.2456600877000881
  0
ARC
  5
716D
  8
0
 10
249.0764028237491061
 20
40.7447080664230015
 30
0.0
 40
22.6501840268987991
 50
225.0728927987784971
 51
225.1019523478470035
  0
ARC
  5
716E
  8
0
 10
233.0938580799312945
 20
24.7061677428978506
 30
0.0
 40
0.0078538401635853
 50
230.1790662623359083
 51
248.0186665629510969
  0
ARC
  5
716F
  8
0
 10
233.1169746415779116
 20
24.7779235695702695
 30
0.0
 40
0.0832229079993975
 50
251.7544316090825873
 51
261.3427204287951895
  0
ARC
  5
7170
  8
0
 10
233.1944862458888963
 20
25.3316615040145194
 30
0.0
 40
0.642354282631098
 50
261.9423319358202775
 51
265.8538764706360098
  0
ARC
  5
7171
  8
0
 10
233.2965283374454941
 20
26.7329248907212502
 30
0.0
 40
2.0473281614143861
 50
265.8409141235777042
 51
267.8042594889595875
  0
ARC
  5
7172
  8
0
 10
233.1636537326400003
 20
24.4610617805769799
 30
0.0
 40
0.2483892077973779
 50
96.646428957660703
 51
100.4350408122785012
  0
ARC
  5
7173
  8
0
 10
233.5240427346292904
 20
25.7899560458335202
 30
0.0
 40
0.9411785334121026
 50
209.1267130738661137
 51
228.6481879076879125
  0
ARC
  5
7174
  8
0
 10
232.3269440177272998
 20
25.2685381171335806
 30
0.0
 40
0.410692826517632
 50
19.8668704695460185
 51
26.7425008641537616
  0
ARC
  5
7175
  8
0
 10
232.7165709782447891
 20
25.4623234087542691
 30
0.0
 40
0.0245634715561464
 50
117.8169067034080939
 51
201.4462357349252954
  0
ARC
  5
7176
  8
0
 10
233.1094680801888046
 20
24.7010610863828397
 30
0.0
 40
0.0013088924897411
 50
129.1185770151082011
 51
230.8814229848917989
  0
ARC
  5
7177
  8
0
 10
233.1160221179679866
 20
24.6909681611738812
 30
0.0
 40
0.0133363867807246
 50
108.2619376673366958
 51
123.5979892433833953
  0
ARC
  5
7178
  8
0
 10
233.3274790370608969
 20
22.5681396847376909
 30
0.0
 40
2.1482906202613381
 50
91.1428727679435298
 51
95.1429401979501534
  0
ARC
  5
7179
  8
0
 10
233.1299721552180984
 20
24.6457682772247999
 30
0.0
 40
0.0606380601731548
 50
100.746518027449099
 51
107.3959364363249023
  0
ARC
  5
717A
  8
0
 10
233.1193024623323993
 20
24.7180774227432209
 30
0.0
 40
0.0209472365552923
 50
239.4089376589066092
 51
258.8270352460559138
  0
ARC
  5
717B
  8
0
 10
233.1871380589734031
 20
25.0911996688186996
 30
0.0
 40
0.4001835054411237
 50
259.6503922163626044
 51
265.7423620919487917
  0
ARC
  5
717C
  8
0
 10
232.7165402523451974
 20
17.3453890356822811
 30
0.0
 40
7.3599487663460641
 50
86.1214937927553024
 51
86.5657190622563348
  0
ARC
  5
717D
  8
0
 10
233.4230193616106135
 20
25.2448222986451611
 30
0.0
 40
0.5941745446599075
 50
248.9757947840573991
 51
291.0242052159409809
  0
ARC
  5
717E
  8
0
 10
233.4082154283281056
 20
25.2021761034681688
 30
0.0
 40
0.5490582567242726
 50
243.6347224341502056
 51
248.8212034005101998
  0
ARC
  5
717F
  8
0
 10
233.4231839998626867
 20
25.248183685065829
 30
0.0
 40
0.5831602893160484
 50
249.4309038249006107
 51
251.4833087035642905
  0
ARC
  5
7180
  8
0
 10
233.3753240840161141
 20
24.8802084514376496
 30
0.0
 40
0.2304035679231904
 50
233.409812626176091
 51
236.401568677260002
  0
LINE
  5
7181
  8
0
 10
233.2478259508295935
 20
24.6882969349888697
 30
0.0
 11
233.2473413324105138
 21
24.6882799400006014
 31
0.0
  0
ARC
  5
7182
  8
0
 10
233.4229622876582937
 20
25.2466213072406909
 30
0.0
 40
0.585310005290935
 50
248.5520726833883032
 51
252.5395283548841121
  0
LINE
  5
7183
  8
0
 10
233.2089404796608108
 20
24.7018438591069405
 30
0.0
 11
233.2084558611248042
 21
24.7022068905779513
 31
0.0
  0
ARC
  5
7184
  8
0
 10
233.2134674855568051
 20
24.83810574428961
 30
0.0
 40
0.1359912306716585
 50
267.8880258486572075
 51
272.0357797443309096
  0
LINE
  5
7185
  8
0
 10
233.2089404796608108
 20
24.7018438591069405
 30
0.0
 11
233.2089404796608108
 21
24.7021898841510392
 31
0.0
  0
LINE
  5
7186
  8
0
 10
233.2473413324105138
 20
24.6882799400006014
 30
0.0
 11
233.2473413324105138
 21
24.6886197790084303
 31
0.0
  0
ARC
  5
7187
  8
0
 10
233.4230193616106135
 20
25.2451763797407303
 30
0.0
 40
0.589122875540138
 50
246.7823550089040054
 51
293.2176449910961082
  0
LINE
  5
7188
  8
0
 10
233.1907724250104934
 20
24.703764223500599
 30
0.0
 11
233.1965925990105859
 21
24.7049019857006016
 31
0.0
  0
LINE
  5
7189
  8
0
 10
233.1965925990105859
 20
24.7049019857006016
 30
0.0
 11
233.1904595250105103
 21
24.7075083873005994
 31
0.0
  0
ARC
  5
718A
  8
0
 10
233.2049225920509059
 20
24.8433498507461294
 30
0.0
 40
0.1366092365077768
 50
259.7513403507761041
 51
263.9226024606061856
  0
ARC
  5
718B
  8
0
 10
233.3095620354420987
 20
24.8870767087912199
 30
0.0
 40
0.2199239652742638
 50
234.103956891295411
 51
237.2099520838816886
  0
ARC
  5
718C
  8
0
 10
233.4229048399515989
 20
25.2441580489983899
 30
0.0
 40
0.589707103425257
 50
246.785732051300613
 51
248.8208058095304125
  0
LINE
  5
718D
  8
0
 10
233.2098519243268981
 20
24.6942826785970304
 30
0.0
 11
233.2091961844105015
 21
24.6934495720005991
 31
0.0
  0
LINE
  5
718E
  8
0
 10
233.2091961844105015
 20
24.6934495720005991
 30
0.0
 11
233.2084558655105013
 21
24.6936036098006007
 31
0.0
  0
LINE
  5
718F
  8
0
 10
233.2084558655105013
 20
24.6936036098006007
 30
0.0
 11
233.2090636206106069
 21
24.6932592056006008
 31
0.0
  0
LINE
  5
7190
  8
0
 10
233.2090636206106069
 20
24.6932592056006008
 30
0.0
 11
233.2086308467937954
 21
24.6925256315550712
 31
0.0
  0
LINE
  5
7191
  8
0
 10
233.2086308467937954
 20
24.6925256315550712
 30
0.0
 11
233.2101445747416051
 21
24.6932902068881397
 31
0.0
  0
LINE
  5
7192
  8
0
 10
233.2101445747416051
 20
24.6932902068881397
 30
0.0
 11
233.2133921006902142
 21
24.6946105965265801
 31
0.0
  0
LINE
  5
7193
  8
0
 10
233.2091961844105015
 20
24.6934495720005991
 30
0.0
 11
233.2120313838429979
 21
24.6951306401772293
 31
0.0
  0
LINE
  5
7194
  8
0
 10
233.2090636206106069
 20
24.6932592056006008
 30
0.0
 11
233.212862190585895
 21
24.6948126610493901
 31
0.0
  0
ARC
  5
7195
  8
0
 10
233.4229551706825987
 20
25.2431442633736616
 30
0.0
 40
0.5908602148784433
 50
246.8283725940995055
 51
248.7318840719881905
  0
ARC
  5
7196
  8
0
 10
233.2313399518313872
 20
24.8446667413860496
 30
0.0
 40
0.1503813832865775
 50
250.2878210740140901
 51
254.2259169487639952
  0
ARC
  5
7197
  8
0
 10
233.2672192919494023
 20
24.8630398314285195
 30
0.0
 40
0.1818828867142389
 50
241.56619557256451
 51
245.0372784364880943
  0
ARC
  5
7198
  8
0
 10
233.4229269533225022
 20
25.2412745598629904
 30
0.0
 40
0.5907855677876788
 50
246.8282508686847905
 51
248.7320027584794957
  0
LINE
  5
7199
  8
0
 10
233.2086308467937954
 20
24.6907250472550608
 30
0.0
 11
233.2101445746918955
 21
24.6914896225144211
 31
0.0
  0
LINE
  5
719A
  8
0
 10
233.2101445746918955
 20
24.6914896225144211
 30
0.0
 11
233.2146447440470922
 21
24.6941352613093095
 31
0.0
  0
LINE
  5
719B
  8
0
 10
233.2091440837949108
 20
24.6904773942037892
 30
0.0
 11
233.2150805150133124
 21
24.6939706647409309
 31
0.0
  0
LINE
  5
719C
  8
0
 10
233.2093013996459945
 20
24.6904162198601007
 30
0.0
 11
233.2166524583539058
 21
24.69338018856525
 31
0.0
  0
LINE
  5
719D
  8
0
 10
233.2098139692384109
 20
24.69021728646414
 30
0.0
 11
233.2171954775801908
 21
24.6931773989594916
 31
0.0
  0
LINE
  5
719E
  8
0
 10
233.2101445746918955
 20
24.6914896225144211
 30
0.0
 11
233.2101445747416051
 21
24.6932902068881397
 31
0.0
  0
LINE
  5
719F
  8
0
 10
233.2101445746918955
 20
24.694429964414411
 30
0.0
 11
233.2101445736093979
 21
24.6958581405608015
 31
0.0
  0
LINE
  5
71A0
  8
0
 10
233.2098519243268981
 20
24.6942826785970304
 30
0.0
 11
233.2101445746918955
 21
24.694429964414411
 31
0.0
  0
LINE
  5
71A1
  8
0
 10
233.2101445746918955
 20
24.694429964414411
 30
0.0
 11
233.2116046191586065
 21
24.6952945376507103
 31
0.0
  0
ARC
  5
71A2
  8
0
 10
233.4229227544589094
 20
25.2445267822752406
 30
0.0
 40
0.5893063987047222
 50
244.9009323200118047
 51
245.9015670628108126
  0
ARC
  5
71A3
  8
0
 10
233.3014295892600956
 20
24.8807877212215587
 30
0.0
 40
0.211041267910754
 50
235.6353564400706944
 51
238.8138779486486101
  0
ARC
  5
71A4
  8
0
 10
233.2273024655162885
 20
24.8437426593951507
 30
0.0
 40
0.1477418678312072
 50
252.2681080789411112
 51
256.2348007482797811
  0
ARC
  5
71A5
  8
0
 10
233.422636759785803
 20
25.2421052682259592
 30
0.0
 40
0.5902306863943821
 50
244.2725461501987922
 51
245.9720936154758135
  0
LINE
  5
71A6
  8
0
 10
233.1823057171677931
 20
24.7030196969891804
 30
0.0
 11
233.1823057157839116
 21
24.7065811795126891
 31
0.0
  0
LINE
  5
71A7
  8
0
 10
233.1793073806304051
 20
24.7113143741490511
 30
0.0
 11
233.1823057140105107
 21
24.7099585325006004
 31
0.0
  0
LINE
  5
71A8
  8
0
 10
233.1823057140105107
 20
24.7099585325006004
 30
0.0
 11
233.1823057140105107
 21
24.7115195613291796
 31
0.0
  0
ARC
  5
71A9
  8
0
 10
233.2014354358541937
 20
24.8437699431515888
 30
0.0
 40
0.1351718901185741
 50
261.8641044488171019
 51
266.0602981291086735
  0
ARC
  5
71AA
  8
0
 10
233.3479140132309055
 20
24.9061632789258915
 30
0.0
 40
0.2513342082324403
 50
230.6087453039145885
 51
231.7017121448378987
  0
ARC
  5
71AB
  8
0
 10
233.4229090935143063
 20
25.2470928884206813
 30
0.0
 40
0.5833971500629183
 50
246.5081349029701983
 51
248.6109225921815096
  0
ARC
  5
71AC
  8
0
 10
233.2100880703893893
 20
24.8400742928839513
 30
0.0
 40
0.1361972959831367
 50
270.0237682163353838
 51
274.1680165110411167
  0
LINE
  5
71AD
  8
0
 10
233.2101445696067969
 20
24.7038770086196884
 30
0.0
 11
233.2101445640859936
 21
24.7127091785512683
 31
0.0
  0
LINE
  5
71AE
  8
0
 10
233.2101445640859936
 20
24.7127091785512683
 30
0.0
 11
233.2090095172382007
 21
24.7131612608473183
 31
0.0
  0
ARC
  5
71AF
  8
0
 10
233.3900906573230998
 20
24.9118128096376203
 30
0.0
 40
0.2683707377760173
 50
227.8933217143249124
 51
230.6661468344572086
  0
LINE
  5
71B0
  8
0
 10
233.1904595293
 20
24.7021952777803691
 30
0.0
 11
233.1904595250105103
 21
24.7075083873005994
 31
0.0
  0
LINE
  5
71B1
  8
0
 10
233.190459530098309
 20
24.6981479776574417
 30
0.0
 11
233.1904595301105019
 21
24.6999485620005892
 31
0.0
  0
ARC
  5
71B2
  8
0
 10
233.3998765538464113
 20
24.9186221444870384
 30
0.0
 40
0.2782658002312978
 50
227.5417683472946067
 51
229.2669956917727916
  0
ARC
  5
71B3
  8
0
 10
233.4229344690064067
 20
25.2486099343223103
 30
0.0
 40
0.5782650084305422
 50
249.2752172045300938
 51
251.3468800246369028
  0
ARC
  5
71B4
  8
0
 10
233.2181129336908896
 20
24.8425606480114389
 30
0.0
 40
0.1432258520794875
 50
277.9746732170195855
 51
281.9732867241004897
  0
ARC
  5
71B5
  8
0
 10
233.4296828037936109
 20
24.9158047337811901
 30
0.0
 40
0.2803423586572241
 50
226.8583337708618046
 51
229.5566702846500959
  0
ARC
  5
71B6
  8
0
 10
233.4229480645551007
 20
25.2504258655053313
 30
0.0
 40
0.5700210243221693
 50
250.1717774989029976
 51
251.0654769304584875
  0
LINE
  5
71B7
  8
0
 10
233.2379834229076039
 20
24.7007198627549194
 30
0.0
 11
233.2379834159908114
 21
24.7112486711148698
 31
0.0
  0
LINE
  5
71B8
  8
0
 10
233.2182983780404868
 20
24.7077638469283585
 30
0.0
 11
233.2182983780404868
 21
24.7136541155441307
 31
0.0
  0
ARC
  5
71B9
  8
0
 10
233.4413276074998009
 20
24.9245783304855095
 30
0.0
 40
0.2927285371620138
 50
225.8494325703931906
 51
228.1797004111516003
  0
ARC
  5
71BA
  8
0
 10
233.4229588158621027
 20
25.2501288548890983
 30
0.0
 40
0.571733635265616
 50
251.984596513946002
 51
254.0473882413957085
  0
ARC
  5
71BB
  8
0
 10
233.2239065469699142
 20
24.8509901592599007
 30
0.0
 40
0.1563022439907296
 50
285.5554588643872194
 51
289.3381077073635765
  0
ARC
  5
71BC
  8
0
 10
233.4700744514119037
 20
24.9221882789020093
 30
0.0
 40
0.2926036638019571
 50
225.7291819483012887
 51
228.3626967577835103
  0
ARC
  5
71BD
  8
0
 10
233.4229835243083926
 20
25.2519839700378412
 30
0.0
 40
0.5617466699121976
 50
252.8280541089289954
 51
253.753373957462486
  0
LINE
  5
71BE
  8
0
 10
233.2461372298353126
 20
24.7064253728246399
 30
0.0
 11
233.2461372298353126
 21
24.7148898098105008
 31
0.0
  0
LINE
  5
71BF
  8
0
 10
233.2658222740105032
 20
24.7004130584005885
 30
0.0
 11
233.2658222656667135
 21
24.7126699057491415
 31
0.0
  0
ARC
  5
71C0
  8
0
 10
233.4818354959660951
 20
24.9309080244019405
 30
0.0
 40
0.304825258927109
 50
224.9496913329168137
 51
227.007943604651814
  0
ARC
  5
71C1
  8
0
 10
233.4229946371127085
 20
25.25170076950889
 30
0.0
 40
0.5638065461085628
 50
254.6741643068129122
 51
256.7387142640816933
  0
ARC
  5
71C2
  8
0
 10
233.2255188231029877
 20
24.866072617992149
 30
0.0
 40
0.1768033719393667
 50
292.6696348172052922
 51
296.1729488341974843
  0
ARC
  5
71C3
  8
0
 10
233.5108714425518883
 20
24.9303984618768801
 30
0.0
 40
0.3045173975188838
 50
224.7069367270210023
 51
227.0803593984825
  0
LINE
  5
71C4
  8
0
 10
233.2936618604009027
 20
24.7029286361940699
 30
0.0
 11
233.2936618604009027
 21
24.7161641230683102
 31
0.0
  0
LINE
  5
71C5
  8
0
 10
233.2739760794480901
 20
24.7079441227390113
 30
0.0
 11
233.2739760794480901
 21
24.7157639588204603
 31
0.0
  0
ARC
  5
71C6
  8
0
 10
233.2218171931756103
 20
24.8391863581115295
 30
0.0
 40
0.141502107589244
 50
275.8723856769393024
 51
279.8965923963617115
  0
ARC
  5
71C7
  8
0
 10
233.3814662718974944
 20
25.1117894305020997
 30
0.0
 40
0.4336560737488079
 50
251.8162571131364871
 51
254.5336644077490007
  0
ARC
  5
71C8
  8
0
 10
233.4132595062100961
 20
24.8838915452953593
 30
0.0
 40
0.2405377020408937
 50
232.1969928477373912
 51
235.1081172996923954
  0
ARC
  5
71C9
  8
0
 10
233.2510726273241062
 20
24.8290268165481294
 30
0.0
 40
0.1445396512322165
 50
275.8569857418647757
 51
279.7960392546062849
  0
ARC
  5
71CA
  8
0
 10
233.4229785214870958
 20
25.2472857662049783
 30
0.0
 40
0.5836022706158954
 50
252.3610252110100873
 51
254.3781835827655016
  0
ARC
  5
71CB
  8
0
 10
233.3848415450619882
 20
24.8882715620183212
 30
0.0
 40
0.2410543240987165
 50
231.9580705756632995
 51
234.8716284603054021
  0
LINE
  5
71CC
  8
0
 10
233.2461364016392054
 20
24.6911216942659983
 30
0.0
 11
233.2461372328106108
 21
24.6997898656006001
 31
0.0
  0
LINE
  5
71CD
  8
0
 10
233.265822283610504
 20
24.6852417046005996
 30
0.0
 11
233.2658222782727933
 21
24.6938372123354597
 31
0.0
  0
ARC
  5
71CE
  8
0
 10
233.4229776215103129
 20
25.2466729713994802
 30
0.0
 40
0.5853638938988559
 50
254.3040977219932017
 51
258.174273832700294
  0
ARC
  5
71CF
  8
0
 10
233.4044846423113029
 20
24.8565220057019012
 30
0.0
 40
0.2087714838014874
 50
237.9380150843232116
 51
241.0732249915998011
  0
ARC
  5
71D0
  8
0
 10
233.4230025387529963
 20
25.2477068322205511
 30
0.0
 40
0.5826507659921257
 50
255.1805950041189988
 51
257.1741831289264724
  0
ARC
  5
71D1
  8
0
 10
233.2452061987079901
 20
24.9196821954038299
 30
0.0
 40
0.236998023769722
 50
274.5806918253875892
 51
276.9725021636418774
  0
LINE
  5
71D2
  8
0
 10
233.2641335752105931
 20
24.6834411793006012
 30
0.0
 11
233.2646181937656991
 21
24.6831366549789308
 31
0.0
  0
LINE
  5
71D3
  8
0
 10
233.2646181937656991
 20
24.6831366549789308
 30
0.0
 11
233.2646181937656991
 21
24.6834805067590786
 31
0.0
  0
LINE
  5
71D4
  8
0
 10
233.3035036615119964
 20
24.6737971470605792
 30
0.0
 11
233.30301575063109
 21
24.6737331509858606
 31
0.0
  0
LINE
  5
71D5
  8
0
 10
233.30301575063109
 20
24.6737331509858606
 30
0.0
 11
233.30301575063109
 21
24.6740676375166608
 31
0.0
  0
ARC
  5
71D6
  8
0
 10
233.2282667538007104
 20
24.8464848384583306
 30
0.0
 40
0.1532451194985952
 50
283.5355503219739148
 51
287.3540810087396835
  0
ARC
  5
71D7
  8
0
 10
233.4230002717443995
 20
25.2506033266522891
 30
0.0
 40
0.5702060894247651
 50
254.8497326044040108
 51
256.8895604585478054
  0
ARC
  5
71D8
  8
0
 10
233.4517916130108119
 20
24.8899023320008688
 30
0.0
 40
0.2507806686003697
 50
230.9090715817943931
 51
233.750302808989602
  0
ARC
  5
71D9
  8
0
 10
233.2576926774032131
 20
24.8363974922731003
 30
0.0
 40
0.1556317442183626
 50
283.3625840620438794
 51
287.1188618521002809
  0
ARC
  5
71DA
  8
0
 10
233.4229942099746893
 20
25.2488022301352508
 30
0.0
 40
0.5784665015249417
 50
255.0716897657742095
 51
257.0806561566564028
  0
ARC
  5
71DB
  8
0
 10
233.423540763932607
 20
24.8927757710062316
 30
0.0
 40
0.2520809333109266
 50
230.7751645386711061
 51
233.6068136911958106
  0
LINE
  5
71DC
  8
0
 10
233.2739753071593043
 20
24.6898596033923994
 30
0.0
 11
233.2739760846795889
 21
24.7002154851379991
 31
0.0
  0
LINE
  5
71DD
  8
0
 10
233.2936611346104883
 20
24.6849791648005983
 30
0.0
 11
233.2936611279137935
 21
24.6952598560953085
 31
0.0
  0
ARC
  5
71DE
  8
0
 10
233.2618173130202024
 20
24.8325204787602516
 30
0.0
 40
0.1529544990002053
 50
281.3703993545569801
 51
285.1590968374732142
  0
ARC
  5
71DF
  8
0
 10
233.4230098704435079
 20
25.2492056971532008
 30
0.0
 40
0.5771848628431475
 50
257.8790584895742768
 51
259.8706707508558793
  0
ARC
  5
71E0
  8
0
 10
233.4413387252701
 20
24.8619829252903806
 30
0.0
 40
0.2170481474254567
 50
236.4867543757484043
 51
239.5502463010103895
  0
ARC
  5
71E1
  8
0
 10
233.4129111270644046
 20
24.8645958314412816
 30
0.0
 40
0.2185413074704498
 50
236.4000668585622975
 51
239.4455939938048061
  0
ARC
  5
71E2
  8
0
 10
233.423004155346888
 20
25.2473951168425188
 30
0.0
 40
0.5837146387589015
 50
258.0171811339795909
 51
259.9857288268038928
  0
ARC
  5
71E3
  8
0
 10
233.2912426838205135
 20
24.8244149728776797
 30
0.0
 40
0.1548266225529681
 50
281.2696713793210961
 51
285.0106314505039791
  0
LINE
  5
71E4
  8
0
 10
233.321499992975788
 20
24.6725736797659501
 30
0.0
 11
233.3214999877388038
 21
24.6810172519046311
 31
0.0
  0
LINE
  5
71E5
  8
0
 10
233.3018142752897006
 20
24.6763996768667191
 30
0.0
 11
233.3018149438105127
 21
24.6848882726005989
 31
0.0
  0
ARC
  5
71E6
  8
0
 10
233.2313894935128076
 20
24.8593062478862095
 30
0.0
 40
0.1710189936086915
 50
290.7472863488587791
 51
294.3178912707351742
  0
ARC
  5
71E7
  8
0
 10
233.4230092191176027
 20
25.2520995711303513
 30
0.0
 40
0.5618650908347388
 50
257.5434034536287982
 51
259.5915150019974931
  0
ARC
  5
71E8
  8
0
 10
233.4910414661441109
 20
24.8982602197909983
 30
0.0
 40
0.2612620218804369
 50
229.538813127683909
 51
232.3193510558159005
  0
ARC
  5
71E9
  8
0
 10
233.2612127554930908
 20
24.8491077294199414
 30
0.0
 40
0.172515658157699
 50
290.4542565881669134
 51
293.9859334045625019
  0
ARC
  5
71EA
  8
0
 10
233.4230035456583039
 20
25.250299656576459
 30
0.0
 40
0.5719103105239423
 50
257.7661298017414993
 51
259.7768951120638121
  0
ARC
  5
71EB
  8
0
 10
233.4626574796841965
 20
24.8992925735037716
 30
0.0
 40
0.2628677029635964
 50
229.5097029276462024
 51
232.274518914660689
  0
LINE
  5
71EC
  8
0
 10
233.3018142893639038
 20
24.6913769719031784
 30
0.0
 11
233.3018149329056996
 21
24.7034609603050583
 31
0.0
  0
LINE
  5
71ED
  8
0
 10
233.3214999835105061
 20
24.6874689270005909
 30
0.0
 11
233.3214999740106066
 21
24.6994801239005888
 31
0.0
  0
ARC
  5
71EE
  8
0
 10
233.5203488176676956
 20
24.93664250132991
 30
0.0
 40
0.31317288603571
 50
224.7125772860445068
 51
225.7487641395736091
  0
LINE
  5
71EF
  8
0
 10
233.3018149268797004
 20
24.7123208681220916
 30
0.0
 11
233.3018149268797004
 21
24.7163970213599704
 31
0.0
  0
LINE
  5
71F0
  8
0
 10
233.3018149268797004
 20
24.7123208681220916
 30
0.0
 11
233.3215006324232945
 21
24.7082833323063511
 31
0.0
  0
LINE
  5
71F1
  8
0
 10
233.3215006324232945
 20
24.7082833323063511
 30
0.0
 11
233.3215006324232945
 21
24.7167843099505191
 31
0.0
  0
LINE
  5
71F2
  8
0
 10
233.3215006324232945
 20
24.7082833323063511
 30
0.0
 11
233.3313424851633897
 21
24.7141623946769897
 31
0.0
  0
LINE
  5
71F3
  8
0
 10
233.3313424851633897
 20
24.7141623946769897
 30
0.0
 11
233.3285651349320915
 21
24.7169065958858702
 31
0.0
  0
LINE
  5
71F4
  8
0
 10
233.3296537775106003
 20
24.7095539737006007
 30
0.0
 11
233.3198112628705871
 21
24.7040772893323997
 31
0.0
  0
LINE
  5
71F5
  8
0
 10
233.3198112628705871
 20
24.7040772893323997
 30
0.0
 11
233.3296537885105977
 21
24.6956744516005884
 31
0.0
  0
LINE
  5
71F6
  8
0
 10
233.3296537885105977
 20
24.6956744516005884
 30
0.0
 11
233.3493388302105132
 21
24.6927260910006012
 31
0.0
  0
LINE
  5
71F7
  8
0
 10
233.3493388302105132
 20
24.6927260910006012
 30
0.0
 11
233.3591813463278015
 21
24.6981162864748001
 31
0.0
  0
LINE
  5
71F8
  8
0
 10
233.3591813463278015
 20
24.6981162864748001
 30
0.0
 11
233.3493388206987049
 21
24.7065403247442106
 31
0.0
  0
LINE
  5
71F9
  8
0
 10
233.3493388206987049
 20
24.7065403247442106
 30
0.0
 11
233.3296537775106003
 21
24.7095539737006007
 31
0.0
  0
LINE
  5
71FA
  8
0
 10
233.3296537885105977
 20
24.6956744516005884
 30
0.0
 11
233.3296537788966987
 21
24.7095539737244501
 31
0.0
  0
LINE
  5
71FB
  8
0
 10
233.349338820647688
 20
24.7065403248363893
 30
0.0
 11
233.3493388301777998
 21
24.6927260909122595
 31
0.0
  0
ARC
  5
71FC
  8
0
 10
233.2661344276068007
 20
24.8442643590599594
 30
0.0
 40
0.1685976639747052
 50
288.564525034348776
 51
292.1325862827673063
  0
ARC
  5
71FD
  8
0
 10
233.4230139290239947
 20
25.2506928572688807
 30
0.0
 40
0.5702965949220217
 50
260.5780136581007014
 51
262.5773661571099069
  0
ARC
  5
71FE
  8
0
 10
233.4787222424708943
 20
24.8697448997092785
 30
0.0
 40
0.2254019284281136
 50
234.9695296809582032
 51
237.9712027469215059
  0
ARC
  5
71FF
  8
0
 10
233.2957714051107132
 20
24.8363455938505808
 30
0.0
 40
0.1699637835308568
 50
288.3710594511247223
 51
291.9056459943844857
  0
ARC
  5
7200
  8
0
 10
233.4230099945843051
 20
25.2488899135077283
 30
0.0
 40
0.5785556311799132
 50
260.7140453547486914
 51
262.6843038130099899
  0
ARC
  5
7201
  8
0
 10
233.4499314318167933
 20
24.8700642475584601
 30
0.0
 40
0.2266887330653669
 50
234.9701143525797988
 51
237.9548220653265105
  0
LINE
  5
7202
  8
0
 10
233.329653158262289
 20
24.6779160791843601
 30
0.0
 11
233.3296537935690083
 21
24.6880898968837812
 31
0.0
  0
LINE
  5
7203
  8
0
 10
233.3493388417957135
 20
24.6750439589905817
 30
0.0
 11
233.3493388352185889
 21
24.6851752301817804
 31
0.0
  0
ARC
  5
7204
  8
0
 10
233.423001810210593
 20
25.2467730128013095
 30
0.0
 40
0.5854668557007111
 50
259.8965704178064016
 51
263.6939329459009969
  0
ARC
  5
7205
  8
0
 10
233.4374029561103896
 20
24.8388185086003297
 30
0.0
 40
0.1906454881996915
 50
242.488540152505891
 51
245.7764024941110961
  0
ARC
  5
7206
  8
0
 10
233.4230121654283892
 20
25.2477755974697189
 30
0.0
 40
0.5827201129798797
 50
260.78083746174201
 51
262.7366543957833755
  0
ARC
  5
7207
  8
0
 10
233.2952582063296916
 20
24.8207216451468717
 30
0.0
 40
0.1520796633847819
 50
279.2909994364371755
 51
283.0715872377501228
  0
LINE
  5
7208
  8
0
 10
233.3198112846465904
 20
24.6706371011045391
 30
0.0
 11
233.3202959031715125
 21
24.6703851782807106
 31
0.0
  0
LINE
  5
7209
  8
0
 10
233.3202959031715125
 20
24.6703851782807106
 30
0.0
 11
233.3202959031715125
 21
24.6707171860395214
 31
0.0
  0
LINE
  5
720A
  8
0
 10
233.3591813678546032
 20
24.6649591248971909
 30
0.0
 11
233.3586943877589874
 21
24.6648486237766598
 31
0.0
  0
LINE
  5
720B
  8
0
 10
233.3586943877589874
 20
24.6648486237766598
 30
0.0
 11
233.3586943877589874
 21
24.6651790446557193
 31
0.0
  0
ARC
  5
720C
  8
0
 10
233.3004932360138923
 20
24.8318384611650202
 30
0.0
 40
0.166168853643493
 50
286.4864767399944867
 51
290.0610399289201951
  0
ARC
  5
720D
  8
0
 10
233.4230139813653011
 20
25.2492575792125216
 30
0.0
 40
0.5772368003491445
 50
263.482390157171892
 51
265.4455541935452061
  0
ARC
  5
720E
  8
0
 10
233.4731952729910915
 20
24.8458423883507997
 30
0.0
 40
0.1969847514339525
 50
240.8277630449032074
 51
244.0573870819769127
  0
ARC
  5
720F
  8
0
 10
233.3300928856970131
 20
24.8258031564619515
 30
0.0
 40
0.1670923095632534
 50
286.36702020394182
 51
289.9191556334897086
  0
ARC
  5
7210
  8
0
 10
233.4230111599057125
 20
25.2474461359989917
 30
0.0
 40
0.5837661477671082
 50
263.5558788454654859
 51
265.4968792591214992
  0
ARC
  5
7211
  8
0
 10
233.4440536435108129
 20
24.8453518737571883
 30
0.0
 40
0.1979164978201973
 50
240.8503853004717996
 51
244.0643672341165882
  0
LINE
  5
7212
  8
0
 10
233.3574926570105958
 20
24.6673683472006005
 30
0.0
 11
233.3574926518105883
 21
24.6757514512006004
 31
0.0
  0
LINE
  5
7213
  8
0
 10
233.3771776977974923
 20
24.6654820400413612
 30
0.0
 11
233.3771776927119959
 21
24.6738435038206312
 31
0.0
  0
ARC
  5
7214
  8
0
 10
233.4230131952398892
 20
25.2478085215775607
 30
0.0
 40
0.5827529876860917
 50
266.2925818548222878
 51
268.2303035211094766
  0
ARC
  5
7215
  8
0
 10
233.4731795858118062
 20
24.8268972579039513
 30
0.0
 40
0.1753540751035928
 50
247.1253346280377059
 51
250.5741182471658135
  0
ARC
  5
7216
  8
0
 10
233.4230151866184997
 20
25.2469130372765598
 30
0.0
 40
0.585607660515742
 50
265.3924935732169956
 51
269.1545609005775077
  0
ARC
  5
7217
  8
0
 10
233.3346471751584943
 20
24.8215548789508595
 30
0.0
 40
0.1633423253179673
 50
284.479770309840319
 51
288.0770189803408812
  0
LINE
  5
7218
  8
0
 10
233.3754889896339932
 20
24.6634009620514405
 30
0.0
 11
233.3759736081489109
 21
24.6631978482075986
 31
0.0
  0
LINE
  5
7219
  8
0
 10
233.3759736081489109
 20
24.6631978482075986
 30
0.0
 11
233.3759736081489109
 21
24.6635269030207311
 31
0.0
  0
LINE
  5
721A
  8
0
 10
233.4143744516240133
 20
24.6613691279465499
 30
0.0
 11
233.4148590698358987
 21
24.661525648878289
 31
0.0
  0
LINE
  5
721B
  8
0
 10
233.4143744516240133
 20
24.6613691279465499
 30
0.0
 11
233.4143744516240133
 21
24.6616973552145602
 31
0.0
  0
ARC
  5
721C
  8
0
 10
233.3020243107118858
 20
24.8479224419693416
 30
0.0
 40
0.1859813349639008
 50
293.2666592253207796
 51
296.6111474417086242
  0
ARC
  5
721D
  8
0
 10
233.4230143486620932
 20
25.2507374394864783
 30
0.0
 40
0.5703410195552876
 50
266.2116659094983788
 51
268.1916610404716153
  0
ARC
  5
721E
  8
0
 10
233.4644678734358081
 20
24.7750590117422789
 30
0.0
 40
0.1115426916118428
 50
237.7921795082642973
 51
243.5925403954537956
  0
ARC
  5
721F
  8
0
 10
233.3318732638398956
 20
24.8420785284097505
 30
0.0
 40
0.1864134751843952
 50
293.1021236821599132
 51
296.4342538722715972
  0
ARC
  5
7220
  8
0
 10
233.4230129834380989
 20
25.2489347842084406
 30
0.0
 40
0.5786006095329267
 50
266.2659064391020252
 51
268.2176197173246806
  0
ARC
  5
7221
  8
0
 10
233.4802588732391087
 20
24.8528833679402084
 30
0.0
 40
0.2046669360713778
 50
239.2092399291144886
 51
242.3663484017710061
  0
LINE
  5
7222
  8
0
 10
233.3853309814809052
 20
24.6715625194776393
 30
0.0
 11
233.3853314979498919
 21
24.6816426484391194
 31
0.0
  0
LINE
  5
7223
  8
0
 10
233.4050165446105041
 20
24.6706141175006017
 30
0.0
 11
233.4050165380965893
 21
24.6806804621930205
 31
0.0
  0
ARC
  5
7224
  8
0
 10
233.4878878884827884
 20
24.8783980681779013
 30
0.0
 40
0.2356159364685079
 50
233.4733632566417896
 51
236.3976851741365124
  0
ARC
  5
7225
  8
0
 10
233.4230123451102088
 20
25.2503672142979312
 30
0.0
 40
0.5719784674973211
 50
263.422317480901711
 51
265.4037586238100062
  0
ARC
  5
7226
  8
0
 10
233.2963467634305914
 20
24.8532805918800292
 30
0.0
 40
0.1909994391466785
 50
295.0367699206327075
 51
298.3418665016170053
  0
ARC
  5
7227
  8
0
 10
233.5167495236453021
 20
24.8798600064234385
 30
0.0
 40
0.2339476670576466
 50
233.3736302673391094
 51
236.3221463195530134
  0
ARC
  5
7228
  8
0
 10
233.4230152560812996
 20
25.25216731417677
 30
0.0
 40
0.5619330011522627
 50
263.3039546724286879
 51
265.3211130819889831
  0
ARC
  5
7229
  8
0
 10
233.2662141960350937
 20
24.8613664588108492
 30
0.0
 40
0.1905799581708926
 50
295.2967024422292752
 51
298.6169064316491131
  0
LINE
  5
722A
  8
0
 10
233.3574926396813112
 20
24.6940674265902516
 30
0.0
 11
233.357492091738294
 21
24.6821538180473183
 31
0.0
  0
LINE
  5
722B
  8
0
 10
233.3771776805764944
 20
24.692106947462829
 30
0.0
 11
233.3771776885072882
 21
24.6802281509680483
 31
0.0
  0
ARC
  5
722C
  8
0
 10
233.526240076900109
 20
24.8886777876875698
 30
0.0
 40
0.244264840775341
 50
231.890777360688503
 51
234.7694414336887974
  0
ARC
  5
722D
  8
0
 10
233.4230143552101993
 20
25.2518590629938799
 30
0.0
 40
0.5639662660932756
 50
266.1687801324919747
 51
268.1712126675164996
  0
ARC
  5
722E
  8
0
 10
233.2915153915429016
 20
24.8753519483828001
 30
0.0
 40
0.2188968433122172
 50
301.2326457507259079
 51
304.2966996497706873
  0
ARC
  5
722F
  8
0
 10
233.5555663266958106
 20
24.8924136033898797
 30
0.0
 40
0.2428221153625808
 50
231.68383802269949
 51
234.5869730353761895
  0
ARC
  5
7230
  8
0
 10
233.4230144475532995
 20
25.2536272721727215
 30
0.0
 40
0.5520257425882007
 50
266.0857710323733727
 51
268.1316308717368884
  0
ARC
  5
7231
  8
0
 10
233.2607561700835959
 20
24.8834789154380616
 30
0.0
 40
0.219389268045764
 50
301.5313149690049954
 51
304.5988863111342084
  0
LINE
  5
7232
  8
0
 10
233.3853314929476142
 20
24.6891531440780589
 30
0.0
 11
233.3853314834794901
 21
24.7028892085719995
 31
0.0
  0
LINE
  5
7233
  8
0
 10
233.4050165330872062
 20
24.6881800517738199
 30
0.0
 11
233.4050165236336909
 21
24.7018950045188213
 31
0.0
  0
ARC
  5
7234
  8
0
 10
233.5441940167482926
 20
24.9203039855088093
 30
0.0
 40
0.2866490425681172
 50
226.7124307247572972
 51
229.3583441411473984
  0
ARC
  5
7235
  8
0
 10
233.4230125827099869
 20
25.2532605116948012
 30
0.0
 40
0.5543509018941783
 50
263.2121562910846251
 51
265.2572491051058137
  0
ARC
  5
7236
  8
0
 10
233.2534060058308967
 20
24.8901448277992792
 30
0.0
 40
0.2262033713222985
 50
303.1730698741700962
 51
306.2053960770019216
  0
ARC
  5
7237
  8
0
 10
233.5723229592198038
 20
24.9222342577846483
 30
0.0
 40
0.2835423799597938
 50
226.5090248874925862
 51
229.1919015318061952
  0
ARC
  5
7238
  8
0
 10
233.4230144882679099
 20
25.2550425144867994
 30
0.0
 40
0.540460606591326
 50
264.1216035679452716
 51
265.1348624101157725
  0
ARC
  5
7239
  8
0
 10
233.2231663597551119
 20
24.8990821146242389
 30
0.0
 40
0.2250077998895779
 50
303.5897079986024778
 51
306.1073368310568981
  0
LINE
  5
723A
  8
0
 10
233.3574920253415996
 20
24.7027952730166191
 30
0.0
 11
233.3574920253415996
 21
24.7173153386697599
 31
0.0
  0
LINE
  5
723B
  8
0
 10
233.3771776745666102
 20
24.7008077230998211
 30
0.0
 11
233.3771776635863091
 21
24.7165291415979098
 31
0.0
  0
LINE
  5
723C
  8
0
 10
233.3449603998722068
 20
24.7171564147619094
 30
0.0
 11
233.3493388137123929
 21
24.7165386321382599
 31
0.0
  0
LINE
  5
723D
  8
0
 10
233.3493388137123929
 20
24.7165386321382599
 30
0.0
 11
233.3503090867272931
 21
24.7172276397036299
 31
0.0
  0
LINE
  5
723E
  8
0
 10
233.3493388137123929
 20
24.7165386321382599
 30
0.0
 11
233.3493388137123929
 21
24.7172150944990499
 31
0.0
  0
ARC
  5
723F
  8
0
 10
233.5813437951586025
 20
24.9288171430032683
 30
0.0
 40
0.2916715400148513
 50
226.4181400596955882
 51
227.7759869603478933
  0
ARC
  5
7240
  8
0
 10
233.423014506411107
 20
25.2547429705133695
 30
0.0
 40
0.5432239116127814
 50
266.0222407429369014
 51
268.1013398321878753
  0
ARC
  5
7241
  8
0
 10
233.2419404774103953
 20
24.914784157503
 30
0.0
 40
0.2603638653843499
 50
308.7805330600277784
 51
310.7979642819702235
  0
LINE
  5
7242
  8
0
 10
233.4050165167479918
 20
24.7118172937251117
 30
0.0
 11
233.4050165167479918
 21
24.7176659372779213
 31
0.0
  0
LINE
  5
7243
  8
0
 10
233.3853314765785001
 20
24.7128276566399485
 30
0.0
 11
233.3853314765785001
 21
24.7175691186847111
 31
0.0
  0
ARC
  5
7244
  8
0
 10
233.2485269952420879
 20
24.9101960805535114
 30
0.0
 40
0.2556114842973085
 50
307.2727342020442052
 51
310.0993937911601961
  0
ARC
  5
7245
  8
0
 10
233.565773745474587
 20
24.9018407973255407
 30
0.0
 40
0.2538373571679689
 50
230.2111104055184967
 51
233.045129856981589
  0
LINE
  5
7246
  8
0
 10
233.4131703359452956
 20
24.6989970068941815
 30
0.0
 11
233.4131703236105011
 21
24.7146716439005907
 31
0.0
  0
ARC
  5
7247
  8
0
 10
233.2984618964653976
 20
24.8690820515620494
 30
0.0
 40
0.2123997633227686
 50
299.5853558025164034
 51
302.6876682273642132
  0
ARC
  5
7248
  8
0
 10
233.5169496403804885
 20
24.8627214003248014
 30
0.0
 40
0.2114650160493286
 50
237.4994397705723941
 51
240.609229914840995
  0
LINE
  5
7249
  8
0
 10
233.4131703498410104
 20
24.67847343735124
 30
0.0
 11
233.4131703405105043
 21
24.6903206678005986
 31
0.0
  0
ARC
  5
724A
  8
0
 10
233.337341593841586
 20
24.8369711337539414
 30
0.0
 40
0.1814687711250978
 50
291.3228724709933886
 51
294.6996296703566145
  0
ARC
  5
724B
  8
0
 10
233.4785971657508981
 20
24.8322192754266204
 30
0.0
 40
0.1807158329921836
 50
245.3857727375828119
 51
248.7743157747592875
  0
LINE
  5
724C
  8
0
 10
233.4131703591104952
 20
24.6637629153005911
 30
0.0
 11
233.4131703526105071
 21
24.6721047811006002
 31
0.0
  0
ARC
  5
724D
  8
0
 10
231.9178050293139961
 20
-5.1572879472785473
 30
0.0
 40
1.54758044720626
 50
257.9102535928319071
 51
282.0890340745045251
  0
ARC
  5
724E
  8
0
 10
231.9178050293139961
 20
-5.1572879472785473
 30
0.0
 40
0.9767512888062597
 50
257.9102535928319071
 51
289.3796746874486985
  0
ARC
  5
724F
  8
0
 10
231.9553776279720125
 20
-5.0147123748083544
 30
0.0
 40
1.6948770924009819
 50
217.1198960620099001
 51
257.6777494890442881
  0
ARC
  5
7250
  8
0
 10
231.9553776279720125
 20
-5.0147123748083544
 30
0.0
 40
1.1240479340009819
 50
217.1198960620099001
 51
257.6777494890442881
  0
ARC
  5
7251
  8
0
 10
232.4493182568859879
 20
-4.6279285583704128
 30
0.0
 40
2.3221738684158679
 50
180.2273616084497974
 51
217.3746688929902859
  0
ARC
  5
7252
  8
0
 10
232.4493182568859879
 20
-4.6279285583704128
 30
0.0
 40
1.7513447100158679
 50
180.261805505577712
 51
217.3746688929902859
  0
ARC
  5
7253
  8
0
 10
235.7379799808354051
 20
-9.7541798058211722
 30
0.0
 40
0.0472441051750938
 50
0.0000053625470969
 51
89.9705205554220981
  0
LINE
  5
7254
  8
0
 10
235.7852240860104871
 20
-9.7541798013994025
 30
0.0
 11
235.7852240860104871
 21
-10.3959120848994004
 31
0.0
  0
LINE
  5
7255
  8
0
 10
234.6041217238106071
 20
-9.7069357068994027
 30
0.0
 11
234.6041217238106071
 21
15.5684708828989606
 31
0.0
  0
LINE
  5
7256
  8
0
 10
234.6041217238106071
 20
15.6296531782880699
 30
0.0
 11
234.6041217238106071
 21
17.3417043210018207
 31
0.0
  0
LINE
  5
7257
  8
0
 10
234.6041217238106071
 20
17.3912843772519814
 30
0.0
 11
234.6041217238106071
 21
23.7347509276005617
 31
0.0
  0
ARC
  5
7258
  8
0
 10
234.5724919122810945
 20
15.5684174749909605
 30
0.0
 40
0.0316298566198744
 50
0.0967455940773441
 51
85.7542758095669768
  0
ARC
  5
7259
  8
0
 10
234.5742134039005862
 20
15.6298631563117194
 30
0.0
 40
0.0299090569996158
 50
271.188172623632795
 51
359.5977488231288248
  0
ARC
  5
725A
  8
0
 10
234.5844498224377048
 20
17.391296579525541
 30
0.0
 40
0.0196719051572833
 50
270.0185620175483905
 51
359.9644600342758736
  0
LINE
  5
725B
  8
0
 10
234.4465745158290986
 20
25.5688531778167913
 30
0.0
 11
234.4465745158290986
 21
25.4635198487610985
 31
0.0
  0
ARC
  5
725C
  8
0
 10
234.2539520373269966
 20
25.5161865132889396
 30
0.0
 40
0.1996927559446417
 50
344.7079932717019801
 51
15.29200672829875
  0
ARC
  5
725D
  8
0
 10
232.6993472187093914
 20
25.1635887748651683
 30
0.0
 40
1.793611570017275
 50
13.0586779688180403
 51
21.1625913646394892
  0
ARC
  5
725E
  8
0
 10
264.4594586429653873
 20
37.3825676186754521
 30
0.0
 40
32.2359109353439806
 50
199.239527233472387
 51
201.0364429795232013
  0
ARC
  5
725F
  8
0
 10
233.7922694420689993
 20
25.4907147594576493
 30
0.0
 40
1.3169984511091131
 50
84.7243072277444185
 51
89.9000314712637163
  0
ARC
  5
7260
  8
0
 10
233.8655660186618093
 20
26.2958069206652709
 30
0.0
 40
0.5085784045069222
 50
77.2456753928157411
 51
84.6070678753119836
  0
ARC
  5
7261
  8
0
 10
233.9482414423740124
 20
26.6743460456599699
 30
0.0
 40
0.1211626962470935
 50
60.5921588824297075
 51
75.8576192002527279
  0
ARC
  5
7262
  8
0
 10
233.9858325798822989
 20
26.745309222979639
 30
0.0
 40
0.0409390020614365
 50
21.4080907570871695
 51
57.655816474238712
  0
ARC
  5
7263
  8
0
 10
234.3271438514547924
 20
25.4997564938153189
 30
0.0
 40
0.1248069630976112
 50
304.3879291365711879
 51
343.1215957638527243
  0
ARC
  5
7264
  8
0
 10
234.2398856089409094
 20
25.6272515544634096
 30
0.0
 40
0.2793028898279851
 50
290.6108649535856898
 51
304.3879291365711879
  0
ARC
  5
7265
  8
0
 10
233.7814218758078937
 20
25.2831833874065595
 30
0.0
 40
0.5602412521975039
 50
17.0345405759400883
 51
30.3421595939046185
  0
ARC
  5
7266
  8
0
 10
233.2981353912545899
 20
25.1396936844254206
 30
0.0
 40
1.064369219860638
 50
11.4729884606661905
 51
16.7985828201735892
  0
ARC
  5
7267
  8
0
 10
234.4387684615298042
 20
25.6337309075549911
 30
0.0
 40
0.2986995291032696
 50
248.1461272565555021
 51
253.7696176702924902
  0
ARC
  5
7268
  8
0
 10
234.3995214669579923
 20
25.4722206822319883
 30
0.0
 40
0.1362625553920036
 50
233.2868234400793028
 51
238.1323039365300076
  0
ARC
  5
7269
  8
0
 10
234.2684123917902923
 20
25.3128692798927908
 30
0.0
 40
0.0705475170924343
 50
45.2688299072297369
 51
57.0499662247761208
  0
ARC
  5
726A
  8
0
 10
232.0897574896085018
 20
22.267232094823509
 30
0.0
 40
3.8151299848575801
 50
54.4710520163100611
 51
57.4767610924344226
  0
ARC
  5
726B
  8
0
 10
234.1198337449175142
 20
25.4541368029148813
 30
0.0
 40
0.0366028111550864
 50
54.8048983185938283
 51
83.461104244020504
  0
ARC
  5
726C
  8
0
 10
233.5492253821053055
 20
21.0999693862144611
 30
0.0
 40
4.5249924788485938
 50
83.1056120290147646
 51
86.060834118198315
  0
ARC
  5
726D
  8
0
 10
233.8030895426406914
 20
23.09151428372477
 30
0.0
 40
2.517407864621382
 50
77.1775054857105971
 51
83.4006773421801739
  0
ARC
  5
726E
  8
0
 10
234.3335424057758871
 20
25.4190547166337986
 30
0.0
 40
0.130188558629741
 50
67.0839991621167542
 51
77.4725707988754095
  0
ARC
  5
726F
  8
0
 10
234.3762698704045135
 20
25.5201260393822196
 30
0.0
 40
0.0204568470979565
 50
12.2493626485756302
 51
67.0839991621239449
  0
ARC
  5
7270
  8
0
 10
234.2202148204175103
 20
25.5026605073783905
 30
0.0
 40
0.1773915024781521
 50
351.5289969148569753
 51
7.0609251113285509
  0
ARC
  5
7271
  8
0
 10
233.9317083650514917
 20
25.4020304040628808
 30
0.0
 40
0.4507008118079342
 50
16.7290873614154414
 51
18.6621507340793897
  0
ARC
  5
7272
  8
0
 10
234.4232374667051033
 20
25.5515846646934399
 30
0.0
 40
0.0630977415061132
 50
198.3088815974716113
 51
208.3670893544469038
  0
ARC
  5
7273
  8
0
 10
235.8476424504819136
 20
26.3435074904547193
 30
0.0
 40
1.69283891968029
 50
209.0463379697714004
 51
210.3065197869723022
  0
ARC
  5
7274
  8
0
 10
234.4519516731355111
 20
25.5275395347255305
 30
0.0
 40
0.0761274675718247
 50
210.1901763549892905
 51
218.931924673597706
  0
ARC
  5
7275
  8
0
 10
234.4040012543277953
 20
25.48719271465459
 30
0.0
 40
0.0135315587177424
 50
213.6161201171931054
 51
237.6380633225527106
  0
ARC
  5
7276
  8
0
 10
234.3700873188059859
 20
25.4298902004267617
 30
0.0
 40
0.0530625835862617
 50
45.5518286780484729
 51
59.825711360860943
  0
ARC
  5
7277
  8
0
 10
234.3929029827357056
 20
25.4528664965231108
 30
0.0
 40
0.0206841362888445
 50
24.9053616644645714
 51
46.1010619377533928
  0
ARC
  5
7278
  8
0
 10
234.3954402054357047
 20
25.4553833979811301
 30
0.0
 40
0.0173654565284563
 50
333.6441974995913142
 51
20.8954020379717598
  0
ARC
  5
7279
  8
0
 10
234.3744963425855019
 20
25.4678978076432507
 30
0.0
 40
0.0417319896635546
 50
305.9555878896620129
 51
331.0131355624923799
  0
ARC
  5
727A
  8
0
 10
234.2879356356374956
 20
25.606326953971049
 30
0.0
 40
0.2049182874870653
 50
288.0029383813525214
 51
302.8193145617377127
  0
ARC
  5
727B
  8
0
 10
234.3532379296360943
 20
25.432545945353759
 30
0.0
 40
0.0211962743944839
 50
232.7198926456202059
 51
264.669720147218527
  0
ARC
  5
727C
  8
0
 10
234.6889512708079906
 20
25.8378344087975407
 30
0.0
 40
0.5474510211960175
 50
227.8538797910597964
 51
230.4551566467027897
  0
ARC
  5
727D
  8
0
 10
234.3347261563243933
 20
25.2815106879141887
 30
0.0
 40
0.0685783554271286
 50
56.3585723137302281
 51
72.5579896960003623
  0
ARC
  5
727E
  8
0
 10
234.2465578563709983
 20
25.1912751639631516
 30
0.0
 40
0.1939641283725189
 50
26.3322508634042087
 51
49.4258980874790694
  0
ARC
  5
727F
  8
0
 10
233.3518313524648136
 20
24.8488130987999511
 30
0.0
 40
1.151278335505731
 50
16.3399596659021995
 51
21.85104208483882
  0
ARC
  5
7280
  8
0
 10
231.41936552243601
 20
24.2977503663939807
 30
0.0
 40
3.160759315195854
 50
4.0531235938781691
 51
16.0704550431280389
  0
ARC
  5
7281
  8
0
 10
214.2957361607622033
 20
23.3047513914175717
 30
0.0
 40
20.3129373498406096
 50
1.2129707591659551
 51
3.4331144239077882
  0
ARC
  5
7282
  8
0
 10
233.34220645875169
 20
25.6510831640542882
 30
0.0
 40
0.8271312238750244
 50
316.6641056404487813
 51
342.9168866745580999
  0
ARC
  5
7283
  8
0
 10
232.2325120497739022
 20
26.0087926326042407
 30
0.0
 40
2.0279669423439342
 50
333.002109676714781
 51
340.5000270182283089
  0
ARC
  5
7284
  8
0
 10
235.0520251106283069
 20
24.5723097397096417
 30
0.0
 40
1.13638717846932
 50
153.0021096767148947
 51
169.4983394398880137
  0
ARC
  5
7285
  8
0
 10
233.932913374273312
 20
24.7796729438452203
 30
0.0
 40
0.0017758573381397
 50
308.837708526576705
 51
51.1622914735661922
  0
ARC
  5
7286
  8
0
 10
233.9107274434607859
 20
24.7386169275670014
 30
0.0
 40
0.0484144976599735
 50
61.2327600427479268
 51
78.0991291039093767
  0
ARC
  5
7287
  8
0
 10
233.7728718952376141
 20
23.8770558853431787
 30
0.0
 40
0.9208795811242829
 50
80.7616622713713923
 51
86.4922345453230719
  0
ARC
  5
7288
  8
0
 10
233.9143864668459969
 20
24.8114919555920608
 30
0.0
 40
0.0385764583797295
 50
281.1572473054296211
 51
300.6061466568156106
  0
ARC
  5
7289
  8
0
 10
233.8175989894299107
 20
25.3283080628238793
 30
0.0
 40
0.5643758149728906
 50
274.0381796249546937
 51
280.644871403127695
  0
ARC
  5
728A
  8
0
 10
233.659121893210596
 20
27.1766694413926011
 30
0.0
 40
2.419469595957235
 50
272.8148437577260097
 51
274.6993676065029035
  0
ARC
  5
728B
  8
0
 10
233.8938694904489068
 20
24.7796914275323701
 30
0.0
 40
0.0015973943617103
 50
310.3784559197982276
 51
49.6215440801201666
  0
ARC
  5
728C
  8
0
 10
233.8763502765646933
 20
24.7492994518702503
 30
0.0
 40
0.0366520396012706
 50
59.5875117993750365
 51
76.7501994862883521
  0
ARC
  5
728D
  8
0
 10
233.8056594558246957
 20
24.3903660715406616
 30
0.0
 40
0.4024578159006781
 50
78.6664179648323767
 51
83.93123017492033
  0
ARC
  5
728E
  8
0
 10
233.8763502765646933
 20
24.8100834031944615
 30
0.0
 40
0.0366520396012706
 50
283.2498005137117048
 51
300.4124882006249777
  0
ARC
  5
728F
  8
0
 10
233.8056594558246957
 20
25.1690167835240501
 30
0.0
 40
0.4024578159006781
 50
276.0687698250796984
 51
281.3335820351675807
  0
ARC
  5
7290
  8
0
 10
233.7045078357903947
 20
26.1355855302203217
 30
0.0
 40
1.374304532163259
 50
273.2012815896463849
 51
276.0019431636210925
  0
LINE
  5
7291
  8
0
 10
233.8822163784168993
 20
24.7854753364064315
 30
0.0
 11
233.8751482897106087
 21
24.7784269987005992
 31
0.0
  0
ARC
  5
7292
  8
0
 10
233.7801809385746878
 20
25.2388012007319205
 30
0.0
 40
0.4722230687720933
 50
276.0147111148364729
 51
279.2800971781658745
  0
ARC
  5
7293
  8
0
 10
233.8386579229533879
 20
24.8811510995113707
 30
0.0
 40
0.1098239147414253
 50
279.260997604515012
 51
286.7732080568194988
  0
ARC
  5
7294
  8
0
 10
233.8659134518100018
 20
24.7907236344579793
 30
0.0
 40
0.0153782145257548
 50
286.7732080568229094
 51
306.9067413461727938
  0
ARC
  5
7295
  8
0
 10
233.7003156337684118
 20
26.0077635320354688
 30
0.0
 40
1.2453214021832231
 50
273.8081853917590252
 51
275.9618398266838994
  0
ARC
  5
7296
  8
0
 10
233.8737460091826961
 20
24.7796904203590316
 30
0.0
 40
0.0018874917127518
 50
317.9818945153376717
 51
42.0181054841787684
  0
ARC
  5
7297
  8
0
 10
233.866377899234493
 20
24.7694083286259392
 30
0.0
 40
0.0144989181864298
 50
52.7783791879064168
 51
70.1217497131920737
  0
ARC
  5
7298
  8
0
 10
233.8219154410786871
 20
24.6059610128457216
 30
0.0
 40
0.1838416960449132
 50
74.414967550709747
 51
82.3658996669739167
  0
ARC
  5
7299
  8
0
 10
233.6873148330921026
 20
23.4547307207477012
 30
0.0
 40
1.342891433861827
 50
83.1991568493702971
 51
86.8309008548470729
  0
ARC
  5
729A
  8
0
 10
233.6791139545977103
 20
23.1203861660731
 30
0.0
 40
1.6787202076333709
 50
84.218904920609944
 51
87.0827228364067167
  0
LINE
  5
729B
  8
0
 10
233.7773566330104984
 20
24.7600339621006
 30
0.0
 11
233.7773566148105999
 21
24.7370036859005999
 31
0.0
  0
LINE
  5
729C
  8
0
 10
233.777356632619302
 20
24.7595388278034889
 30
0.0
 11
233.7965183159105038
 21
24.7786469661005988
 31
0.0
  0
ARC
  5
729D
  8
0
 10
233.7956340893711058
 20
24.7796904733770802
 30
0.0
 40
0.0013677587539894
 50
310.2766141977667189
 51
49.7233858022332598
  0
ARC
  5
729E
  8
0
 10
233.7906138752668994
 20
24.7735094064703283
 30
0.0
 40
0.009330428256169
 50
50.7418400581411575
 51
68.729178587774669
  0
ARC
  5
729F
  8
0
 10
233.7323387426795875
 20
24.5350285240493804
 30
0.0
 40
0.2547504159653005
 50
75.9929785745690793
 51
84.4250762408521211
  0
ARC
  5
72A0
  8
0
 10
233.5126677048370993
 20
21.7436593607839903
 30
0.0
 40
3.0547087951484841
 50
85.4106316599037427
 51
88.7843162001192781
  0
ARC
  5
72A1
  8
0
 10
233.4896269434084104
 20
19.7876502692061997
 30
0.0
 40
5.0152955373932686
 50
86.8919255289613233
 51
89.0530381006084752
  0
ARC
  5
72A2
  8
0
 10
233.5292095960959102
 20
20.3941734849496612
 30
0.0
 40
4.4090427430269186
 50
86.9402713029677869
 51
88.3037730005027157
  0
ARC
  5
72A3
  8
0
 10
233.5568933959528124
 20
20.5815574285696492
 30
0.0
 40
4.2234413752422713
 50
86.3030858294089995
 51
88.3270194803001942
  0
ARC
  5
72A4
  8
0
 10
233.7761863550229009
 20
24.7600089863747996
 30
0.0
 40
0.0011705444695849
 50
1.2226039403806861
 51
36.2868155324254289
  0
ARC
  5
72A5
  8
0
 10
233.7731940896424874
 20
24.7572239012380315
 30
0.0
 40
0.0052522310212549
 50
41.4652302825058001
 51
62.6048437833759408
  0
ARC
  5
72A6
  8
0
 10
233.7280830947395032
 20
24.5987717208883296
 30
0.0
 40
0.1698985358451741
 50
73.7552210106767063
 51
83.6870674833434549
  0
ARC
  5
72A7
  8
0
 10
233.5458171612617093
 20
22.6017585430283887
 30
0.0
 40
2.1751833411562931
 50
84.6993443213898729
 51
88.6689598785810915
  0
ARC
  5
72A8
  8
0
 10
233.7367695928512035
 20
24.7370685039595308
 30
0.0
 40
0.0405870737170159
 50
314.7543399122998835
 51
359.9084978922721234
  0
ARC
  5
72A9
  8
0
 10
217.7696358994718935
 20
40.7447080664230015
 30
0.0
 40
22.6501840268987991
 50
314.898047652153025
 51
314.9271072012214745
  0
ARC
  5
72AA
  8
0
 10
233.7521806432897904
 20
24.7061677428978506
 30
0.0
 40
0.0078538401635853
 50
291.9813334370488747
 51
309.8209337376641201
  0
ARC
  5
72AB
  8
0
 10
233.729064081643088
 20
24.7779235695702695
 30
0.0
 40
0.0832229079993975
 50
278.6572795712046968
 51
288.2455683909158211
  0
ARC
  5
72AC
  8
0
 10
233.6515524773321886
 20
25.3316615040145194
 30
0.0
 40
0.642354282631098
 50
274.1461235293641039
 51
278.057668064178074
  0
ARC
  5
72AD
  8
0
 10
233.5495103857755907
 20
26.7329248907212502
 30
0.0
 40
2.0473281614143861
 50
272.1951527380082894
 51
274.1590858764208178
  0
ARC
  5
72AE
  8
0
 10
233.682384990581113
 20
24.4610617805769799
 30
0.0
 40
0.2483892077973779
 50
79.5649591877214988
 51
83.3535710423393112
  0
ARC
  5
72AF
  8
0
 10
234.5190947054938135
 20
25.2685381171335806
 30
0.0
 40
0.410692826517632
 50
153.2574991358461887
 51
160.1331295304539992
  0
ARC
  5
72B0
  8
0
 10
234.1294677449762105
 20
25.4623234087542691
 30
0.0
 40
0.0245634715561464
 50
338.5537642650746761
 51
62.1830932965919132
  0
ARC
  5
72B1
  8
0
 10
233.7365706430323087
 20
24.7010610863828397
 30
0.0
 40
0.0013088924897411
 50
309.1185770151082011
 51
50.8814229848917989
  0
ARC
  5
72B2
  8
0
 10
233.7300166052530983
 20
24.6909681611738812
 30
0.0
 40
0.0133363867807246
 50
56.4020107566165692
 51
71.7380623326632616
  0
ARC
  5
72B3
  8
0
 10
233.518559686160188
 20
22.5681396847376909
 30
0.0
 40
2.1482906202613381
 50
84.8570598020482265
 51
88.8571272320564844
  0
ARC
  5
72B4
  8
0
 10
233.7160665680029865
 20
24.6457682772247999
 30
0.0
 40
0.0606380601731548
 50
72.6040635636750409
 51
79.2534819725508441
  0
ARC
  5
72B5
  8
0
 10
233.7267362608887993
 20
24.7180774227432209
 30
0.0
 40
0.0209472365552923
 50
281.1729647539440862
 51
300.5910623410933908
  0
ARC
  5
72B6
  8
0
 10
233.6589006642477102
 20
25.0911996688186996
 30
0.0
 40
0.4001835054411237
 50
274.2576379080512083
 51
280.3496077836373956
  0
ARC
  5
72B7
  8
0
 10
234.1294984708758875
 20
17.3453890356822811
 30
0.0
 40
7.3599487663460641
 50
93.4342809377436652
 51
93.878604732125325
  0
ARC
  5
72B8
  8
0
 10
233.437823294892894
 20
25.2021761034681688
 30
0.0
 40
0.5490582567242726
 50
291.1787965994897718
 51
296.3652775658497944
  0
ARC
  5
72B9
  8
0
 10
233.4228547233583981
 20
25.248183685065829
 30
0.0
 40
0.5831602893160484
 50
288.5166912964343169
 51
290.5690961750992756
  0
ARC
  5
72BA
  8
0
 10
233.470714639204914
 20
24.8802084514376496
 30
0.0
 40
0.2304035679231904
 50
303.598431322739998
 51
306.5901873738238237
  0
LINE
  5
72BB
  8
0
 10
233.5982127723914914
 20
24.6882969349888697
 30
0.0
 11
233.5986973908105142
 21
24.6882799400006014
 31
0.0
  0
ARC
  5
72BC
  8
0
 10
233.4230764355627912
 20
25.2466213072406909
 30
0.0
 40
0.585310005290935
 50
287.4604716451158879
 51
291.4479273166118105
  0
LINE
  5
72BD
  8
0
 10
233.6370982435603025
 20
24.7018438591069405
 30
0.0
 11
233.6375828620963091
 21
24.7022068905779513
 31
0.0
  0
ARC
  5
72BE
  8
0
 10
233.6325712376643082
 20
24.83810574428961
 30
0.0
 40
0.1359912306716585
 50
267.9642202556690904
 51
272.1119741513429062
  0
LINE
  5
72BF
  8
0
 10
233.6370982435603025
 20
24.7018438591069405
 30
0.0
 11
233.6370982435603025
 21
24.7021898841510392
 31
0.0
  0
LINE
  5
72C0
  8
0
 10
233.5986973908105142
 20
24.6882799400006014
 30
0.0
 11
233.5986973908105142
 21
24.6886197790084303
 31
0.0
  0
LINE
  5
72C1
  8
0
 10
233.6552662982105915
 20
24.703764223500599
 30
0.0
 11
233.649446124210499
 21
24.7049019857006016
 31
0.0
  0
LINE
  5
72C2
  8
0
 10
233.649446124210499
 20
24.7049019857006016
 30
0.0
 11
233.6555791982104893
 21
24.7075083873005994
 31
0.0
  0
ARC
  5
72C3
  8
0
 10
233.6411161311702074
 20
24.8433498507461294
 30
0.0
 40
0.1366092365077768
 50
276.0773975393921091
 51
280.2486596492238959
  0
ARC
  5
72C4
  8
0
 10
233.5364766877789009
 20
24.8870767087912199
 30
0.0
 40
0.2199239652742638
 50
302.790047916118283
 51
305.896043108704589
  0
ARC
  5
72C5
  8
0
 10
233.4231338832695997
 20
25.2441580489983899
 30
0.0
 40
0.589707103425257
 50
291.1791941904695022
 51
293.2142679486992733
  0
LINE
  5
72C6
  8
0
 10
233.6361867988941867
 20
24.6942826785970304
 30
0.0
 11
233.6368425388104981
 21
24.6934495720005991
 31
0.0
  0
LINE
  5
72C7
  8
0
 10
233.6368425388104981
 20
24.6934495720005991
 30
0.0
 11
233.6375828577104983
 21
24.6936036098006007
 31
0.0
  0
LINE
  5
72C8
  8
0
 10
233.6375828577104983
 20
24.6936036098006007
 30
0.0
 11
233.6369751026105916
 21
24.6932592056006008
 31
0.0
  0
LINE
  5
72C9
  8
0
 10
233.6369751026105916
 20
24.6932592056006008
 30
0.0
 11
233.6374078764272895
 21
24.6925256315550712
 31
0.0
  0
LINE
  5
72CA
  8
0
 10
233.6374078764272895
 20
24.6925256315550712
 30
0.0
 11
233.6358941484795082
 21
24.6932902068881397
 31
0.0
  0
LINE
  5
72CB
  8
0
 10
233.6358941484795082
 20
24.6932902068881397
 30
0.0
 11
233.6326466225308991
 21
24.6946105965265801
 31
0.0
  0
LINE
  5
72CC
  8
0
 10
233.6368425388104981
 20
24.6934495720005991
 30
0.0
 11
233.634007339378087
 21
24.6951306401772293
 31
0.0
  0
LINE
  5
72CD
  8
0
 10
233.6369751026105916
 20
24.6932592056006008
 30
0.0
 11
233.6331765326351899
 21
24.6948126610493901
 31
0.0
  0
ARC
  5
72CE
  8
0
 10
233.4230835525384009
 20
25.2431442633736616
 30
0.0
 40
0.5908602148784433
 50
291.2681159280118095
 51
293.1716274059006082
  0
ARC
  5
72CF
  8
0
 10
233.6146987713896124
 20
24.8446667413860496
 30
0.0
 40
0.1503813832865775
 50
285.7740830512358912
 51
289.7121789259858815
  0
ARC
  5
72D0
  8
0
 10
233.578819431271711
 20
24.8630398314285195
 30
0.0
 40
0.1818828867142389
 50
294.9627215635118773
 51
298.4338044274354047
  0
ARC
  5
72D1
  8
0
 10
233.4231117698986111
 20
25.2412745598629904
 30
0.0
 40
0.5907855677876788
 50
291.2679972415205043
 51
293.1717491313152095
  0
LINE
  5
72D2
  8
0
 10
233.6374078764272895
 20
24.6907250472550608
 30
0.0
 11
233.6358941485291894
 21
24.6914896225144211
 31
0.0
  0
LINE
  5
72D3
  8
0
 10
233.6358941485291894
 20
24.6914896225144211
 30
0.0
 11
233.6313939791739926
 21
24.6941352613093095
 31
0.0
  0
LINE
  5
72D4
  8
0
 10
233.6368946394262025
 20
24.6904773942037998
 30
0.0
 11
233.6309582082078009
 21
24.6939706647409309
 31
0.0
  0
LINE
  5
72D5
  8
0
 10
233.6367373235750904
 20
24.6904162198600901
 30
0.0
 11
233.6293862648672075
 21
24.69338018856525
 31
0.0
  0
LINE
  5
72D6
  8
0
 10
233.6362247539827024
 20
24.6902172864641294
 30
0.0
 11
233.6288432456408941
 21
24.6931773989594916
 31
0.0
  0
LINE
  5
72D7
  8
0
 10
233.6358941485291894
 20
24.6914896225144211
 30
0.0
 11
233.6358941484795082
 21
24.6932902068881397
 31
0.0
  0
LINE
  5
72D8
  8
0
 10
233.6358941485291894
 20
24.694429964414411
 30
0.0
 11
233.635894149611687
 21
24.6958581405608015
 31
0.0
  0
LINE
  5
72D9
  8
0
 10
233.6361867988941867
 20
24.6942826785970304
 30
0.0
 11
233.6358941485291894
 21
24.694429964414411
 31
0.0
  0
LINE
  5
72DA
  8
0
 10
233.6358941485291894
 20
24.694429964414411
 30
0.0
 11
233.6344341040625068
 21
24.6952945376507103
 31
0.0
  0
ARC
  5
72DB
  8
0
 10
233.4231159687622039
 20
25.2445267822752406
 30
0.0
 40
0.5893063987047222
 50
294.0984329371892159
 51
295.0990676799881953
  0
ARC
  5
72DC
  8
0
 10
233.5446091339609893
 20
24.8807877212215587
 30
0.0
 40
0.211041267910754
 50
301.1861220513515036
 51
304.3646435599292204
  0
ARC
  5
72DD
  8
0
 10
233.6187362577047963
 20
24.8437426593951507
 30
0.0
 40
0.1477418678312072
 50
283.7651992517201052
 51
287.7318919210590025
  0
ARC
  5
72DE
  8
0
 10
233.4234019634351966
 20
25.2421052682259592
 30
0.0
 40
0.5902306863943821
 50
294.0279063845239875
 51
295.7274538498011793
  0
LINE
  5
72DF
  8
0
 10
233.6637330060532918
 20
24.7030196969891804
 30
0.0
 11
233.6637330074372016
 21
24.7065811795126891
 31
0.0
  0
LINE
  5
72E0
  8
0
 10
233.6667313425907082
 20
24.7113143741490511
 30
0.0
 11
233.6637330092106026
 21
24.7099585325006004
 31
0.0
  0
LINE
  5
72E1
  8
0
 10
233.6637330092106026
 20
24.7099585325006004
 30
0.0
 11
233.6637330092106026
 21
24.7115195613291796
 31
0.0
  0
ARC
  5
72E2
  8
0
 10
233.6446032873668059
 20
24.8437699431515888
 30
0.0
 40
0.1351718901185741
 50
273.939701870889678
 51
278.1358955511830118
  0
ARC
  5
72E3
  8
0
 10
233.4981247099902077
 20
24.9061632789258915
 30
0.0
 40
0.2513342082324403
 50
308.2982878551620729
 51
309.3912546960852978
  0
ARC
  5
72E4
  8
0
 10
233.4231296297068923
 20
25.2470928884206813
 30
0.0
 40
0.5833971500629183
 50
291.3890774078168988
 51
293.4918650970298017
  0
ARC
  5
72E5
  8
0
 10
233.6359506528316956
 20
24.8400742928839513
 30
0.0
 40
0.1361972959831367
 50
265.831983488957178
 51
269.9762317836646162
  0
LINE
  5
72E6
  8
0
 10
233.6358941536142879
 20
24.7038770086196884
 30
0.0
 11
233.6358941591350913
 21
24.7127091785512683
 31
0.0
  0
LINE
  5
72E7
  8
0
 10
233.6358941591350913
 20
24.7127091785512683
 30
0.0
 11
233.6370292059827989
 21
24.7131612608473183
 31
0.0
  0
ARC
  5
72E8
  8
0
 10
233.4559480658978998
 20
24.9118128096376203
 30
0.0
 40
0.2683707377760173
 50
309.3338531655426777
 51
312.1066782856750024
  0
LINE
  5
72E9
  8
0
 10
233.6555791939211133
 20
24.7021952777803691
 30
0.0
 11
233.6555791982104893
 21
24.7075083873005994
 31
0.0
  0
LINE
  5
72EA
  8
0
 10
233.6555791931228043
 20
24.6981479776574417
 30
0.0
 11
233.6555791931106114
 21
24.6999485620005892
 31
0.0
  0
ARC
  5
72EB
  8
0
 10
233.446162169374702
 20
24.9186221444870384
 30
0.0
 40
0.2782658002312978
 50
310.7330043082272937
 51
312.4582316527042281
  0
ARC
  5
72EC
  8
0
 10
233.4231042542147065
 20
25.2486099343223103
 30
0.0
 40
0.5782650084305422
 50
288.6531199753630972
 51
290.7247827954698778
  0
ARC
  5
72ED
  8
0
 10
233.627925789530309
 20
24.8425606480114389
 30
0.0
 40
0.1432258520794875
 50
258.0267132758993966
 51
262.0253267829787092
  0
ARC
  5
72EE
  8
0
 10
233.4163559194275024
 20
24.9158047337811901
 30
0.0
 40
0.2803423586572241
 50
310.4433297153498188
 51
313.1416662291381954
  0
ARC
  5
72EF
  8
0
 10
233.4230906586658989
 20
25.2504258655053313
 30
0.0
 40
0.5700210243221693
 50
288.9345230695399209
 51
289.8282225010955244
  0
LINE
  5
72F0
  8
0
 10
233.6080553003135094
 20
24.7007198627549194
 30
0.0
 11
233.6080553072303019
 21
24.7112486711148698
 31
0.0
  0
LINE
  5
72F1
  8
0
 10
233.6277403451807118
 20
24.7077638469283585
 30
0.0
 11
233.6277403451807118
 21
24.7136541155441307
 31
0.0
  0
ARC
  5
72F2
  8
0
 10
233.4047111157213124
 20
24.9245783304855095
 30
0.0
 40
0.2927285371620138
 50
311.820299588848286
 51
314.1505674296067809
  0
ARC
  5
72F3
  8
0
 10
233.4230799073590958
 20
25.2501288548890983
 30
0.0
 40
0.571733635265616
 50
285.9526117586042915
 51
288.015403486052378
  0
ARC
  5
72F4
  8
0
 10
233.6221321762511991
 20
24.8509901592599007
 30
0.0
 40
0.1563022439907296
 50
250.661892292636395
 51
254.4445411356126954
  0
ARC
  5
72F5
  8
0
 10
233.3759642718092095
 20
24.9221882789020093
 30
0.0
 40
0.2926036638019571
 50
311.6373032422166034
 51
314.2708180516985976
  0
ARC
  5
72F6
  8
0
 10
233.4230551989126923
 20
25.2519839700378412
 30
0.0
 40
0.5617466699121976
 50
286.246626042537514
 51
287.1719458910694129
  0
LINE
  5
72F7
  8
0
 10
233.5999014933858007
 20
24.7064253728246399
 30
0.0
 11
233.5999014933858007
 21
24.7148898098105008
 31
0.0
  0
LINE
  5
72F8
  8
0
 10
233.5802164492104964
 20
24.7004130584005885
 30
0.0
 11
233.5802164575543998
 21
24.7126699057491415
 31
0.0
  0
ARC
  5
72F9
  8
0
 10
233.3642032272549898
 20
24.9309080244019405
 30
0.0
 40
0.304825258927109
 50
312.992056395348186
 51
315.0503086670830726
  0
ARC
  5
72FA
  8
0
 10
233.4230440861084048
 20
25.25170076950889
 30
0.0
 40
0.5638065461085628
 50
283.261285735918193
 51
285.3258356931871162
  0
ARC
  5
72FB
  8
0
 10
233.6205199001180972
 20
24.866072617992149
 30
0.0
 40
0.1768033719393667
 50
243.8270511658024873
 51
247.3303651827932015
  0
ARC
  5
72FC
  8
0
 10
233.3351672806691965
 20
24.9303984618768801
 30
0.0
 40
0.3045173975188838
 50
312.9196406015174716
 51
315.3081067435628029
  0
LINE
  5
72FD
  8
0
 10
233.5523768628200969
 20
24.7029286361940699
 30
0.0
 11
233.5523768628200969
 21
24.71621656333879
 31
0.0
  0
LINE
  5
72FE
  8
0
 10
233.5720626437729948
 20
24.7079441227390113
 30
0.0
 11
233.5720626437729948
 21
24.7157639588204603
 31
0.0
  0
ARC
  5
72FF
  8
0
 10
233.624221530045503
 20
24.8391863581115295
 30
0.0
 40
0.141502107589244
 50
260.1034076036382885
 51
264.1276143230589923
  0
ARC
  5
7300
  8
0
 10
233.4645724513235052
 20
25.1117894305020997
 30
0.0
 40
0.4336560737488079
 50
285.4663355922493793
 51
288.1837428868636266
  0
ARC
  5
7301
  8
0
 10
233.4327792170109035
 20
24.8838915452953593
 30
0.0
 40
0.2405377020408937
 50
304.8918827003074057
 51
307.8030071522625803
  0
ARC
  5
7302
  8
0
 10
233.5949660958970071
 20
24.8290268165481294
 30
0.0
 40
0.1445396512322165
 50
260.2039607453937151
 51
264.1430142581352811
  0
ARC
  5
7303
  8
0
 10
233.4230602017339891
 20
25.2472857662049783
 30
0.0
 40
0.5836022706158954
 50
285.6218164172345269
 51
287.638974788989799
  0
ARC
  5
7304
  8
0
 10
233.4611971781590967
 20
24.8882715620183212
 30
0.0
 40
0.2410543240987165
 50
305.1283715396945126
 51
308.0419294243366721
  0
LINE
  5
7305
  8
0
 10
233.5999023215819079
 20
24.6911216942659983
 30
0.0
 11
233.5999014904105877
 21
24.6997898656006001
 31
0.0
  0
LINE
  5
7306
  8
0
 10
233.5802164396106093
 20
24.6852417046005996
 30
0.0
 11
233.5802164449482916
 21
24.6938372123354597
 31
0.0
  0
ARC
  5
7307
  8
0
 10
233.4230611017108004
 20
25.2466729713994802
 30
0.0
 40
0.5853638938988559
 50
281.825726167299706
 51
285.6959022780051782
  0
ARC
  5
7308
  8
0
 10
233.4415540809098104
 20
24.8565220057019012
 30
0.0
 40
0.2087714838014874
 50
298.9267750083988062
 51
302.0619849156768169
  0
ARC
  5
7309
  8
0
 10
233.4230361844680885
 20
25.2477068322205511
 30
0.0
 40
0.5826507659921257
 50
282.8258168710735276
 51
284.8194049958793812
  0
ARC
  5
730A
  8
0
 10
233.6008325245130948
 20
24.9196821954038299
 30
0.0
 40
0.236998023769722
 50
263.0274978363581226
 51
265.4193081746107055
  0
LINE
  5
730B
  8
0
 10
233.5819051480104918
 20
24.6834411793006012
 30
0.0
 11
233.5814205294553858
 21
24.6831366549789308
 31
0.0
  0
LINE
  5
730C
  8
0
 10
233.5814205294553858
 20
24.6831366549789308
 30
0.0
 11
233.5814205294553858
 21
24.6834805067590786
 31
0.0
  0
LINE
  5
730D
  8
0
 10
233.5425350617090885
 20
24.6737971470605792
 30
0.0
 11
233.5430229725899949
 21
24.6737331509858606
 31
0.0
  0
LINE
  5
730E
  8
0
 10
233.5430229725899949
 20
24.6737331509858606
 30
0.0
 11
233.5430229725899949
 21
24.6740676375166608
 31
0.0
  0
ARC
  5
730F
  8
0
 10
233.6177719694204029
 20
24.8464848384583306
 30
0.0
 40
0.1532451194985952
 50
252.6459189912602881
 51
256.4644496780244936
  0
ARC
  5
7310
  8
0
 10
233.4230384514767138
 20
25.2506033266522891
 30
0.0
 40
0.5702060894247651
 50
283.1104395414521946
 51
285.150267395594426
  0
ARC
  5
7311
  8
0
 10
233.3942471102103013
 20
24.8899023320008688
 30
0.0
 40
0.2507806686003697
 50
306.2496971910105117
 51
309.0909284182055785
  0
ARC
  5
7312
  8
0
 10
233.5883460458179002
 20
24.8363974922731003
 30
0.0
 40
0.1556317442183626
 50
252.8811381478996907
 51
256.6374159379561206
  0
ARC
  5
7313
  8
0
 10
233.4230445132463956
 20
25.2488022301352508
 30
0.0
 40
0.5784665015249417
 50
282.9193438433418919
 51
284.9283102342258189
  0
ARC
  5
7314
  8
0
 10
233.4224979592883926
 20
24.8927757710062316
 30
0.0
 40
0.2520809333109266
 50
306.3931863088042178
 51
309.2248354613288939
  0
LINE
  5
7315
  8
0
 10
233.572063416061809
 20
24.6898596033923994
 30
0.0
 11
233.572062638541496
 21
24.7002154851379991
 31
0.0
  0
LINE
  5
7316
  8
0
 10
233.5523775886105113
 20
24.6849791648005983
 30
0.0
 11
233.5523775953072914
 21
24.6952598560953085
 31
0.0
  0
ARC
  5
7317
  8
0
 10
233.5842214102009109
 20
24.8325204787602516
 30
0.0
 40
0.1529544990002053
 50
254.8409031625268142
 51
258.6296006454430199
  0
ARC
  5
7318
  8
0
 10
233.4230288527774917
 20
25.2492056971532008
 30
0.0
 40
0.5771848628431475
 50
280.1293292491441207
 51
282.1209415104240747
  0
ARC
  5
7319
  8
0
 10
233.4046999979510133
 20
24.8619829252903806
 30
0.0
 40
0.2170481474254567
 50
300.4497536989882178
 51
303.5132456242515104
  0
ARC
  5
731A
  8
0
 10
233.4331275961567087
 20
24.8645958314412816
 30
0.0
 40
0.2185413074704498
 50
300.5544060061952223
 51
303.5999331414377025
  0
ARC
  5
731B
  8
0
 10
233.4230345678741969
 20
25.2473951168425188
 30
0.0
 40
0.5837146387589015
 50
280.0142711731961072
 51
281.9828188660188744
  0
ARC
  5
731C
  8
0
 10
233.5547960394005997
 20
24.8244149728776797
 30
0.0
 40
0.1548266225529681
 50
254.9893685494944009
 51
258.7303286206789039
  0
LINE
  5
731D
  8
0
 10
233.5245387302452968
 20
24.6725736797659501
 30
0.0
 11
233.5245387354823094
 21
24.6810172519046311
 31
0.0
  0
LINE
  5
731E
  8
0
 10
233.5442244479314127
 20
24.6763996768667191
 30
0.0
 11
233.5442237794104869
 21
24.6848882726005989
 31
0.0
  0
ARC
  5
731F
  8
0
 10
233.6146492297083057
 20
24.8593062478862095
 30
0.0
 40
0.1710189936086915
 50
245.6821087292647974
 51
249.2527136511411925
  0
ARC
  5
7320
  8
0
 10
233.4230295041035106
 20
25.2520995711303513
 30
0.0
 40
0.5618650908347388
 50
280.4084849980009153
 51
282.4565965463710882
  0
ARC
  5
7321
  8
0
 10
233.3549972570770024
 20
24.8982602197909983
 30
0.0
 40
0.2612620218804369
 50
307.6806489441842132
 51
310.461186872316091
  0
ARC
  5
7322
  8
0
 10
233.5848259677279941
 20
24.8491077294199414
 30
0.0
 40
0.172515658157699
 50
246.0140665954374128
 51
249.5457434118330866
  0
ARC
  5
7323
  8
0
 10
233.4230351775626957
 20
25.250299656576459
 30
0.0
 40
0.5719103105239423
 50
280.2231048879361879
 51
282.2338701982569091
  0
ARC
  5
7324
  8
0
 10
233.3833812435368884
 20
24.8992925735037716
 30
0.0
 40
0.2628677029635964
 50
307.725481085339311
 51
310.490297072353826
  0
LINE
  5
7325
  8
0
 10
233.5442244338572095
 20
24.6913769719031784
 30
0.0
 11
233.5442237903154137
 21
24.7034609603050583
 31
0.0
  0
LINE
  5
7326
  8
0
 10
233.5245387397104935
 20
24.6874689270005909
 30
0.0
 11
233.5245387492105067
 21
24.6994801239005888
 31
0.0
  0
ARC
  5
7327
  8
0
 10
233.3256899055533893
 20
24.93664250132991
 30
0.0
 40
0.31317288603571
 50
314.2512358604263909
 51
315.2874227139554932
  0
LINE
  5
7328
  8
0
 10
233.5442237963412992
 20
24.7123208681220916
 30
0.0
 11
233.5442237963412992
 21
24.7163970213599704
 31
0.0
  0
LINE
  5
7329
  8
0
 10
233.5442237963412992
 20
24.7123208681220916
 30
0.0
 11
233.5245380907977903
 21
24.7082833323063511
 31
0.0
  0
LINE
  5
732A
  8
0
 10
233.5245380907977903
 20
24.7082833323063511
 30
0.0
 11
233.5245380907977903
 21
24.7167843099505191
 31
0.0
  0
LINE
  5
732B
  8
0
 10
233.5245380907977903
 20
24.7082833323063511
 30
0.0
 11
233.5146962380576099
 21
24.7141623946769897
 31
0.0
  0
LINE
  5
732C
  8
0
 10
233.5146962380576099
 20
24.7141623946769897
 30
0.0
 11
233.5174735882889934
 21
24.7169065958858702
 31
0.0
  0
LINE
  5
732D
  8
0
 10
233.5163849457105982
 20
24.7095539737006007
 30
0.0
 11
233.5262274603504977
 21
24.7040772893323997
 31
0.0
  0
LINE
  5
732E
  8
0
 10
233.5262274603504977
 20
24.7040772893323997
 30
0.0
 11
233.5163849347106009
 21
24.6956744516005884
 31
0.0
  0
LINE
  5
732F
  8
0
 10
233.5163849347106009
 20
24.6956744516005884
 30
0.0
 11
233.4966998930104864
 21
24.6927260910006012
 31
0.0
  0
LINE
  5
7330
  8
0
 10
233.4966998930104864
 20
24.6927260910006012
 30
0.0
 11
233.4868573768933118
 21
24.6981162864748001
 31
0.0
  0
LINE
  5
7331
  8
0
 10
233.4868573768933118
 20
24.6981162864748001
 30
0.0
 11
233.4966999025224084
 21
24.7065403247442106
 31
0.0
  0
LINE
  5
7332
  8
0
 10
233.4966999025224084
 20
24.7065403247442106
 30
0.0
 11
233.5163849457105982
 21
24.7095539737006007
 31
0.0
  0
LINE
  5
7333
  8
0
 10
233.5163849347106009
 20
24.6956744516005884
 30
0.0
 11
233.5163849443243862
 21
24.7095539737244501
 31
0.0
  0
LINE
  5
7334
  8
0
 10
233.4966999025733969
 20
24.7065403248363893
 30
0.0
 11
233.4966998930433135
 21
24.6927260909122595
 31
0.0
  0
ARC
  5
7335
  8
0
 10
233.5799042956143126
 20
24.8442643590599594
 30
0.0
 40
0.1685976639747052
 50
247.8674137172326937
 51
251.435474965649604
  0
ARC
  5
7336
  8
0
 10
233.4230247941970902
 20
25.2506928572688807
 30
0.0
 40
0.5702965949220217
 50
277.4226338428900931
 51
279.4219863418994123
  0
ARC
  5
7337
  8
0
 10
233.3673164807501905
 20
24.8697448997092785
 30
0.0
 40
0.2254019284281136
 50
302.0287972530783804
 51
305.0304703190417968
  0
ARC
  5
7338
  8
0
 10
233.5502673181102864
 20
24.8363455938505808
 30
0.0
 40
0.1699637835308568
 50
248.0943540056155996
 51
251.6289405488753061
  0
ARC
  5
7339
  8
0
 10
233.4230287286366945
 20
25.2488899135077283
 30
0.0
 40
0.5785556311799132
 50
277.3156961869898964
 51
279.285954645249717
  0
ARC
  5
733A
  8
0
 10
233.3961072914042063
 20
24.8700642475584601
 30
0.0
 40
0.2266887330653669
 50
302.0451779346735748
 51
305.0298856474200875
  0
LINE
  5
733B
  8
0
 10
233.5163855649587958
 20
24.6779160791843601
 30
0.0
 11
233.516384929652105
 21
24.6880898968837812
 31
0.0
  0
LINE
  5
733C
  8
0
 10
233.4966998814253998
 20
24.6750439589905817
 30
0.0
 11
233.496699888002496
 21
24.6851752301817804
 31
0.0
  0
ARC
  5
733D
  8
0
 10
233.4230369130104918
 20
25.2467730128013095
 30
0.0
 40
0.5854668557007111
 50
276.3060670540974115
 51
280.1034295821935984
  0
ARC
  5
733E
  8
0
 10
233.4086357671106953
 20
24.8388185086003297
 30
0.0
 40
0.1906454881996915
 50
294.2235975058889039
 51
297.511459847494109
  0
ARC
  5
733F
  8
0
 10
233.4230265577926957
 20
25.2477755974697189
 30
0.0
 40
0.5827201129798797
 50
277.2633456042149191
 51
279.2191625382581037
  0
ARC
  5
7340
  8
0
 10
233.5507805168913933
 20
24.8207216451468717
 30
0.0
 40
0.1520796633847819
 50
256.9284127622498772
 51
260.7090005635611192
  0
LINE
  5
7341
  8
0
 10
233.5262274385744945
 20
24.6706371011045391
 30
0.0
 11
233.5257428200496008
 21
24.6703851782807106
 31
0.0
  0
LINE
  5
7342
  8
0
 10
233.5257428200496008
 20
24.6703851782807106
 30
0.0
 11
233.5257428200496008
 21
24.6707171860395214
 31
0.0
  0
LINE
  5
7343
  8
0
 10
233.4868573553665101
 20
24.6649591248971909
 30
0.0
 11
233.4873443354620974
 21
24.6648486237766598
 31
0.0
  0
LINE
  5
7344
  8
0
 10
233.4873443354620974
 20
24.6648486237766598
 30
0.0
 11
233.4873443354620974
 21
24.6651790446557193
 31
0.0
  0
ARC
  5
7345
  8
0
 10
233.5455454872071925
 20
24.8318384611650202
 30
0.0
 40
0.166168853643493
 50
249.9389600710796913
 51
253.5135232600055133
  0
ARC
  5
7346
  8
0
 10
233.4230247418556985
 20
25.2492575792125216
 30
0.0
 40
0.5772368003491445
 50
274.5544458064532023
 51
276.5176098428279943
  0
ARC
  5
7347
  8
0
 10
233.3728434502299933
 20
24.8458423883507997
 30
0.0
 40
0.1969847514339525
 50
295.9426129180214957
 51
299.172236955096821
  0
ARC
  5
7348
  8
0
 10
233.5159458375241002
 20
24.8258031564619515
 30
0.0
 40
0.1670923095632534
 50
250.0808443665102914
 51
253.6329797960565884
  0
ARC
  5
7349
  8
0
 10
233.4230275633154008
 20
25.2474461359989917
 30
0.0
 40
0.5837661477671082
 50
274.5031207408802061
 51
276.4441211545344004
  0
ARC
  5
734A
  8
0
 10
233.4019850797103004
 20
24.8453518737571883
 30
0.0
 40
0.1979164978201973
 50
295.9356327658832129
 51
299.1496146995282857
  0
LINE
  5
734B
  8
0
 10
233.4885460662106027
 20
24.6673683472006005
 30
0.0
 11
233.4885460714104966
 21
24.6757514512006004
 31
0.0
  0
LINE
  5
734C
  8
0
 10
233.4688610254235073
 20
24.6654820400413612
 30
0.0
 11
233.468861030509089
 21
24.6738435038206312
 31
0.0
  0
ARC
  5
734D
  8
0
 10
233.4230255279811956
 20
25.2478085215775607
 30
0.0
 40
0.5827529876860917
 50
271.7696964788888749
 51
273.7074181451775985
  0
ARC
  5
734E
  8
0
 10
233.3728591374093071
 20
24.8268972579039513
 30
0.0
 40
0.1753540751035928
 50
289.4258817528341865
 51
292.8746653719622941
  0
ARC
  5
734F
  8
0
 10
233.4230235366026136
 20
25.2469130372765598
 30
0.0
 40
0.585607660515742
 50
270.8454390994223786
 51
274.6075064267828907
  0
ARC
  5
7350
  8
0
 10
233.5113915480627043
 20
24.8215548789508595
 30
0.0
 40
0.1633423253179673
 50
251.9229810196590904
 51
255.5202296901597094
  0
LINE
  5
7351
  8
0
 10
233.4705497335872053
 20
24.6634009620514405
 30
0.0
 11
233.4700651150722024
 21
24.6631978482075986
 31
0.0
  0
LINE
  5
7352
  8
0
 10
233.4700651150722024
 20
24.6631978482075986
 30
0.0
 11
233.4700651150722024
 21
24.6635269030207311
 31
0.0
  0
LINE
  5
7353
  8
0
 10
233.4316642715971
 20
24.6613691279465499
 30
0.0
 11
233.4311796533851862
 21
24.661525648878289
 31
0.0
  0
LINE
  5
7354
  8
0
 10
233.4316642715971
 20
24.6613691279465499
 30
0.0
 11
233.4316642715971
 21
24.6616973552145602
 31
0.0
  0
ARC
  5
7355
  8
0
 10
233.544014412509199
 20
24.8479224419693416
 30
0.0
 40
0.1859813349639008
 50
243.3888525582914042
 51
246.733340774679192
  0
ARC
  5
7356
  8
0
 10
233.4230243745589917
 20
25.2507374394864783
 30
0.0
 40
0.5703410195552876
 50
271.8083389595267931
 51
273.7883340905016212
  0
ARC
  5
7357
  8
0
 10
233.3815708497851915
 20
24.7750590117422789
 30
0.0
 40
0.1115426916118428
 50
296.4074596045462044
 51
302.2078204917356743
  0
ARC
  5
7358
  8
0
 10
233.514165459381303
 20
24.8420785284097505
 30
0.0
 40
0.1864134751843952
 50
243.5657461277284881
 51
246.8978763178386089
  0
ARC
  5
7359
  8
0
 10
233.4230257397829007
 20
25.2489347842084406
 30
0.0
 40
0.5786006095329267
 50
271.7823802826753194
 51
273.7340935608979748
  0
ARC
  5
735A
  8
0
 10
233.3657798499820046
 20
24.8528833679402084
 30
0.0
 40
0.2046669360713778
 50
297.6336515982288233
 51
300.7907600708854829
  0
LINE
  5
735B
  8
0
 10
233.4607077417402081
 20
24.6715625194776393
 30
0.0
 11
233.4607072252711077
 21
24.6816426484391194
 31
0.0
  0
LINE
  5
735C
  8
0
 10
233.4410221786104955
 20
24.6706141175006017
 30
0.0
 11
233.4410221851244955
 21
24.6806804621930205
 31
0.0
  0
ARC
  5
735D
  8
0
 10
233.3581508347382965
 20
24.8783980681779013
 30
0.0
 40
0.2356159364685079
 50
303.602314825863516
 51
306.5266367433582104
  0
ARC
  5
735E
  8
0
 10
233.4230263781109045
 20
25.2503672142979312
 30
0.0
 40
0.5719784674973211
 50
274.5962413761882885
 51
276.577682519098289
  0
ARC
  5
735F
  8
0
 10
233.5496919597904935
 20
24.8532805918800292
 30
0.0
 40
0.1909994391466785
 50
241.6581334983829095
 51
244.9632300793672073
  0
ARC
  5
7360
  8
0
 10
233.3292891995758112
 20
24.8798600064234385
 30
0.0
 40
0.2339476670576466
 50
303.677853680447015
 51
306.626369732660919
  0
ARC
  5
7361
  8
0
 10
233.4230234671398136
 20
25.25216731417677
 30
0.0
 40
0.5619330011522627
 50
274.6788869180093116
 51
276.6960453275697205
  0
ARC
  5
7362
  8
0
 10
233.5798245271859912
 20
24.8613664588108492
 30
0.0
 40
0.1905799581708926
 50
241.3830935683508017
 51
244.7032975577706964
  0
LINE
  5
7363
  8
0
 10
233.4885460835398021
 20
24.6940674265902516
 30
0.0
 11
233.4885466314827909
 21
24.6821538180473183
 31
0.0
  0
LINE
  5
7364
  8
0
 10
233.4688610426445905
 20
24.692106947462829
 30
0.0
 11
233.4688610347137967
 21
24.6802281509680483
 31
0.0
  0
ARC
  5
7365
  8
0
 10
233.3197986463208906
 20
24.8886777876875698
 30
0.0
 40
0.244264840775341
 50
305.2305585663111174
 51
308.1092226393116107
  0
ARC
  5
7366
  8
0
 10
233.4230243680109993
 20
25.2518590629938799
 30
0.0
 40
0.5639662660932756
 50
271.8287873324817951
 51
273.8312198675080253
  0
ARC
  5
7367
  8
0
 10
233.5545233316782117
 20
24.8753519483828001
 30
0.0
 40
0.2188968433122172
 50
235.7033003502293127
 51
238.7673542492740921
  0
ARC
  5
7368
  8
0
 10
233.290472396525189
 20
24.8924136033898797
 30
0.0
 40
0.2428221153625808
 50
305.4130269646237252
 51
308.31616197730051
  0
ARC
  5
7369
  8
0
 10
233.423024275667899
 20
25.2536272721727215
 30
0.0
 40
0.5520257425882007
 50
271.8683691282631116
 51
273.914228967624922
  0
ARC
  5
736A
  8
0
 10
233.585282553137489
 20
24.8834789154380616
 30
0.0
 40
0.219389268045764
 50
235.4011136888657916
 51
238.4686850309950046
  0
LINE
  5
736B
  8
0
 10
233.4607072302734991
 20
24.6891531440780589
 30
0.0
 11
233.4607072397415948
 21
24.7028892085719995
 31
0.0
  0
LINE
  5
736C
  8
0
 10
233.4410221901339924
 20
24.6881800517738199
 30
0.0
 11
233.4410221995873087
 21
24.7018950045188213
 31
0.0
  0
ARC
  5
736D
  8
0
 10
233.3018447064727923
 20
24.9203039855088093
 30
0.0
 40
0.2866490425681172
 50
310.6416558588525731
 51
313.2875692752414807
  0
ARC
  5
736E
  8
0
 10
233.423026140511098
 20
25.2532605116948012
 30
0.0
 40
0.5543509018941783
 50
274.7427508948943
 51
276.7878437089153749
  0
ARC
  5
736F
  8
0
 10
233.5926327173901029
 20
24.8901448277992792
 30
0.0
 40
0.2262033713222985
 50
233.7946039229983057
 51
236.8269301258299038
  0
ARC
  5
7370
  8
0
 10
233.2737157640013095
 20
24.9222342577846483
 30
0.0
 40
0.2835423799597938
 50
310.8080984681923269
 51
313.4909751125073853
  0
ARC
  5
7371
  8
0
 10
233.4230242349532034
 20
25.2550425144867994
 30
0.0
 40
0.540460606591326
 50
274.8651375898842275
 51
275.8783964320547284
  0
ARC
  5
7372
  8
0
 10
233.6228723634658877
 20
24.8990821146242389
 30
0.0
 40
0.2250077998895779
 50
233.8926631689431872
 51
236.4102920013961011
  0
LINE
  5
7373
  8
0
 10
233.4885466978794
 20
24.7027952730166191
 30
0.0
 11
233.4885466978794
 21
24.7173153386697599
 31
0.0
  0
LINE
  5
7374
  8
0
 10
233.4688610486545031
 20
24.7008077230998211
 30
0.0
 11
233.4688610596348042
 21
24.7165291415979098
 31
0.0
  0
LINE
  5
7375
  8
0
 10
233.5010783233489065
 20
24.7171564147619094
 30
0.0
 11
233.4966999095086919
 21
24.7165386321382599
 31
0.0
  0
LINE
  5
7376
  8
0
 10
233.4966999095086919
 20
24.7165386321382599
 30
0.0
 11
233.4957296364937918
 21
24.7172276397036299
 31
0.0
  0
LINE
  5
7377
  8
0
 10
233.4966999095086919
 20
24.7165386321382599
 30
0.0
 11
233.4966999095086919
 21
24.7172150944990499
 31
0.0
  0
ARC
  5
7378
  8
0
 10
233.2646949280625108
 20
24.9288171430032683
 30
0.0
 40
0.2916715400148513
 50
312.2240130396522204
 51
313.5818599403041844
  0
ARC
  5
7379
  8
0
 10
233.4230242168100062
 20
25.2547429705133695
 30
0.0
 40
0.5432239116127814
 50
271.8986601678104762
 51
273.9777592570613933
  0
ARC
  5
737A
  8
0
 10
233.6040982458106896
 20
24.914784157503
 30
0.0
 40
0.2603638653843499
 50
229.2020357180298049
 51
231.2194669399721079
  0
LINE
  5
737B
  8
0
 10
233.4410222064730931
 20
24.7118172937251117
 30
0.0
 11
233.4410222064730931
 21
24.7176659372779213
 31
0.0
  0
LINE
  5
737C
  8
0
 10
233.4607072466426132
 20
24.7128276566399485
 30
0.0
 11
233.4607072466426132
 21
24.7175691186847111
 31
0.0
  0
ARC
  5
737D
  8
0
 10
233.597511727978997
 20
24.9101960805535114
 30
0.0
 40
0.2556114842973085
 50
229.9006062088386102
 51
232.7272657979555959
  0
ARC
  5
737E
  8
0
 10
233.2802649777464978
 20
24.9018407973255407
 30
0.0
 40
0.2538373571679689
 50
306.9548701430181268
 51
309.7888895944814749
  0
LINE
  5
737F
  8
0
 10
233.4328683872757892
 20
24.6989970068941815
 30
0.0
 11
233.4328683996104985
 21
24.7146716439005907
 31
0.0
  0
ARC
  5
7380
  8
0
 10
233.5475768267556873
 20
24.8690820515620494
 30
0.0
 40
0.2123997633227686
 50
237.3123317726359005
 51
240.4146441974835966
  0
ARC
  5
7381
  8
0
 10
233.3290890828405963
 20
24.8627214003248014
 30
0.0
 40
0.2114650160493286
 50
299.3907700851574987
 51
302.5005602294274922
  0
LINE
  5
7382
  8
0
 10
233.4328683733801029
 20
24.67847343735124
 30
0.0
 11
233.432868382710609
 21
24.6903206678005986
 31
0.0
  0
ARC
  5
7383
  8
0
 10
233.5086971293794988
 20
24.8369711337539414
 30
0.0
 40
0.1814687711250978
 50
245.3003703296433002
 51
248.6771275290066114
  0
ARC
  5
7384
  8
0
 10
233.3674415574701868
 20
24.8322192754266204
 30
0.0
 40
0.1807158329921836
 50
291.2256842252392062
 51
294.6142272624172165
  0
LINE
  5
7385
  8
0
 10
233.4328683641105897
 20
24.6637629153005911
 30
0.0
 11
233.4328683706106062
 21
24.6721047811006002
 31
0.0
  0
ARC
  5
7386
  8
0
 10
234.57362671686721
 20
17.3411802249472089
 30
0.0
 40
0.0304995102444128
 50
0.9846049904804663
 51
86.556708160721783
  0
ARC
  5
7387
  8
0
 10
233.3219959885917945
 20
25.7899560458335202
 30
0.0
 40
0.9411785334121026
 50
311.351812092312116
 51
330.8732869261336873
  0
ARC
  5
7388
  8
0
 10
233.4230193616106135
 20
16.0310094829116316
 30
0.0
 40
8.7759580874889682
 50
88.3207237319921461
 51
91.6792762680062339
  0
ARC
  5
7389
  8
0
 10
233.4230193616106135
 20
18.0325911153513587
 30
0.0
 40
6.7668524851492391
 50
88.6920770420117748
 51
91.307922957986591
  0
ARC
  5
738A
  8
0
 10
233.4230193616106135
 20
16.4700853729486099
 30
0.0
 40
8.3335164529573191
 50
88.9721181440950062
 51
91.0278818559066423
  0
ARC
  5
738B
  8
0
 10
233.4230193616106135
 20
16.4587001242436095
 30
0.0
 40
8.3459413154595872
 50
88.3748129255405956
 51
91.6251870744594186
  0
ARC
  5
738C
  8
0
 10
233.4230193616106135
 20
18.4966586065675784
 30
0.0
 40
6.2820878557330211
 50
88.4189886974287447
 51
91.5810113025712553
  0
ARC
  5
738D
  8
0
 10
233.4230193616106135
 20
19.0561313471498615
 30
0.0
 40
5.6615632132512301
 50
88.5993431641198441
 51
91.4006568358801559
  0
ARC
  5
738E
  8
0
 10
233.0898755032378915
 20
24.7010613319209504
 30
0.0
 40
0.0013975226855874
 50
138.5163504659294915
 51
221.4836495340705085
  0
ARC
  5
738F
  8
0
 10
233.0942970471897979
 20
24.6953179910070091
 30
0.0
 40
0.008624434426971
 50
108.3169866972633031
 51
129.3510047457166081
  0
ARC
  5
7390
  8
0
 10
233.1128467618461002
 20
24.6392845663684312
 30
0.0
 40
0.0676484684348177
 50
99.051616362555464
 51
108.3169866972633031
  0
ARC
  5
7391
  8
0
 10
233.2008544977354063
 20
24.0208588689915814
 30
0.0
 40
0.6922965074738744
 50
94.020647535257595
 51
98.1923878871612033
  0
ARC
  5
7392
  8
0
 10
233.3463241526573029
 20
21.726404529401389
 30
0.0
 40
2.9913451385961891
 50
91.4739652636541649
 51
93.7186620355969637
  0
ARC
  5
7393
  8
0
 10
233.7561632199831934
 20
24.7010613319209504
 30
0.0
 40
0.0013975226855874
 50
318.5163504659294063
 51
41.4836495340705014
  0
ARC
  5
7394
  8
0
 10
233.7517416760312869
 20
24.6953179910070091
 30
0.0
 40
0.008624434426971
 50
50.6489952542833706
 51
71.6830133027367253
  0
ARC
  5
7395
  8
0
 10
233.7331919613750131
 20
24.6392845663684312
 30
0.0
 40
0.0676484684348177
 50
71.6830133027367253
 51
80.948383637444536
  0
ARC
  5
7396
  8
0
 10
233.645184225485707
 20
24.0208588689915814
 30
0.0
 40
0.6922965074738744
 50
81.807612112838811
 51
85.979352464742405
  0
ARC
  5
7397
  8
0
 10
233.4997145705638104
 20
21.726404529401389
 30
0.0
 40
2.9913451385961891
 50
86.2813379644030505
 51
88.5260347363474409
  0
ARC
  5
7398
  8
0
 10
233.4230193616106135
 20
18.7395677438733905
 30
0.0
 40
5.9791664394272033
 50
88.5275651022213026
 51
91.4724348977770489
  0
LINE
  5
7399
  8
0
 10
230.3754600449105965
 20
20.8260763741979105
 30
0.0
 11
230.4496944569104926
 21
20.8260763741979105
 31
0.0
  0
ARC
  5
739A
  8
0
 10
230.4125772509104877
 20
18.2978368930306488
 30
0.0
 40
0.679512645275416
 50
263.0283061096071151
 51
276.9716938903929986
  0
ARC
  5
739B
  8
0
 10
230.4125772509104877
 20
18.1263819835753317
 30
0.0
 40
0.6788201858940642
 50
263.0211589748495271
 51
276.9788410251504729
  0
LINE
  5
739C
  8
0
 10
233.0561249892099056
 20
26.6900887056005907
 30
0.0
 11
233.7899137340112077
 21
26.6900887056005907
 31
0.0
  0
ARC
  5
739D
  8
0
 10
233.0562714320678879
 20
25.4319794442322014
 30
0.0
 40
1.2581092698913121
 50
90.0066691804016443
 51
93.3788167898926389
  0
ARC
  5
739E
  8
0
 10
233.0236088283758136
 20
25.9852084500453593
 30
0.0
 40
0.7039169038730062
 50
93.3788167898926389
 51
103.7014658275146957
  0
ARC
  5
739F
  8
0
 10
232.8756197149996012
 20
26.6114200672804593
 30
0.0
 40
0.060643031733407
 50
108.0030100836952016
 51
135.7110341502468884
  0
LINE
  5
73A0
  8
0
 10
232.8322097820104943
 20
26.6537657284006002
 30
0.0
 11
232.4414867684104991
 21
25.6396400606005983
 31
0.0
  0
ARC
  5
73A1
  8
0
 10
233.7056026235279091
 20
25.1526006609150699
 30
0.0
 40
1.3546941617963599
 50
158.9292906080314083
 51
163.2122421578426099
  0
ARC
  5
73A2
  8
0
 10
232.6066699423818989
 20
25.5023630070094711
 30
0.0
 40
0.202330001937084
 50
168.1610733242808919
 51
188.6382677796046892
  0
ARC
  5
73A3
  8
0
 10
232.5197660212679978
 20
25.4897146786792206
 30
0.0
 40
0.1145134795369034
 50
188.9123285026267069
 51
225.5889335164833938
  0
ARC
  5
73A4
  8
0
 10
232.5854353969228043
 20
25.57245254482525
 30
0.0
 40
0.2198466204972282
 50
228.454301111036699
 51
249.3823159129894123
  0
ARC
  5
73A5
  8
0
 10
233.789767291153197
 20
25.4319794442322014
 30
0.0
 40
1.2581092698913121
 50
86.6211832101057269
 51
89.9933308195999899
  0
ARC
  5
73A6
  8
0
 10
233.8224298948452997
 20
25.9852084500453593
 30
0.0
 40
0.7039169038730062
 50
76.2985341724853043
 51
86.6211832101057269
  0
ARC
  5
73A7
  8
0
 10
233.9704190082215121
 20
26.6114200672804593
 30
0.0
 40
0.060643031733407
 50
44.2889658497530121
 51
71.9969899163047558
  0
LINE
  5
73A8
  8
0
 10
234.0138289412105053
 20
26.6537657284006002
 30
0.0
 11
234.4045519548105005
 21
25.6396400606005983
 31
0.0
  0
ARC
  5
73A9
  8
0
 10
233.1404360996932041
 20
25.1526006609150699
 30
0.0
 40
1.3546941617963599
 50
16.7877578421574185
 51
21.0707093919686095
  0
ARC
  5
73AA
  8
0
 10
234.239368780839186
 20
25.5023630070094711
 30
0.0
 40
0.202330001937084
 50
351.3617322203951971
 51
11.8389266757190708
  0
ARC
  5
73AB
  8
0
 10
234.3262727019530871
 20
25.4897146786792206
 30
0.0
 40
0.1145134795369034
 50
314.4110664835164926
 51
351.0876714973733215
  0
ARC
  5
73AC
  8
0
 10
234.260603326298309
 20
25.57245254482525
 30
0.0
 40
0.2198466204972282
 50
290.617684087010673
 51
311.5456988889632726
  0
ENDSEC
  0
EOF
