  0
SECTION
  2
HEADER
  9
$ACADVER
  1
AC1009
  9
$INSBASE
 10
4471.6602551373553069
 20
-34.703165287686133
 30
0.0
  9
$EXTMIN
 10
4470.6563181294550304
 20
-34.7086791388677014
 30
0.0
  9
$EXTMAX
 10
4472.664192145254674
 20
-29.193974219719621
 30
0.0
  9
$LIMMIN
 10
0.0
 20
0.0
  9
$LIMMAX
 10
11.6929133858000007
 20
8.2677165353999982
  9
$ORTHOMODE
 70
     0
  9
$REGENMODE
 70
     1
  9
$FILLMODE
 70
     1
  9
$QTEXTMODE
 70
     0
  9
$MIRRTEXT
 70
     0
  9
$DRAGMODE
 70
     2
  9
$LTSCALE
 40
0.6431102362
  9
$OSMODE
 70
  4095
  9
$ATTMODE
 70
     1
  9
$TEXTSIZE
 40
0.2
  9
$TRACEWID
 40
0.05
  9
$TEXTSTYLE
  7
STANDARD
  9
$CLAYER
  8
0
  9
$CELTYPE
  6
BYLAYER
  9
$CECOLOR
 62
   256
  9
$DIMSCALE
 40
1.0
  9
$DIMASZ
 40
0.1875
  9
$DIMEXO
 40
0.0625
  9
$DIMDLI
 40
0.4443307087
  9
$DIMRND
 40
0.0
  9
$DIMDLE
 40
0.0
  9
$DIMEXE
 40
0.125
  9
$DIMTP
 40
0.01
  9
$DIMTM
 40
0.01
  9
$DIMTXT
 40
2.0
  9
$DIMCEN
 40
0.1052362205
  9
$DIMTSZ
 40
0.0
  9
$DIMTOL
 70
     1
  9
$DIMLIM
 70
     0
  9
$DIMTIH
 70
     1
  9
$DIMTOH
 70
     1
  9
$DIMSE1
 70
     0
  9
$DIMSE2
 70
     0
  9
$DIMTAD
 70
     0
  9
$DIMZIN
 70
     0
  9
$DIMBLK
  1

  9
$DIMASO
 70
     1
  9
$DIMSHO
 70
     1
  9
$DIMPOST
  1
\X
  9
$DIMAPOST
  1

  9
$DIMALT
 70
     1
  9
$DIMALTD
 70
     2
  9
$DIMALTF
 40
25.3999999999999986
  9
$DIMLFAC
 40
1.0
  9
$DIMTOFL
 70
     0
  9
$DIMTVP
 40
0.0
  9
$DIMTIX
 70
     0
  9
$DIMSOXD
 70
     0
  9
$DIMSAH
 70
     0
  9
$DIMBLK1
  1

  9
$DIMBLK2
  1

  9
$DIMSTYLE
  2
STANDARD
  9
$DIMCLRD
 70
     0
  9
$DIMCLRE
 70
     0
  9
$DIMCLRT
 70
     0
  9
$DIMTFAC
 40
1.0
  9
$DIMGAP
 40
0.09
  9
$LUNITS
 70
     2
  9
$LUPREC
 70
     4
  9
$SKETCHINC
 40
0.1
  9
$FILLETRAD
 40
0.0
  9
$AUNITS
 70
     0
  9
$AUPREC
 70
     0
  9
$MENU
  1
.
  9
$ELEVATION
 40
0.0
  9
$PELEVATION
 40
0.0
  9
$THICKNESS
 40
0.0
  9
$LIMCHECK
 70
     0
  9
$BLIPMODE
 70
     0
  9
$CHAMFERA
 40
0.0
  9
$CHAMFERB
 40
0.0
  9
$SKPOLY
 70
     0
  9
$TDCREATE
 40
2458060.468368056230247
  9
$TDUPDATE
 40
2459929.5749652781523764
  9
$TDINDWG
 40
0.4619283565
  9
$TDUSRTIMER
 40
0.4619283565
  9
$USRTIMER
 70
     1
  9
$ANGBASE
 50
0.0
  9
$ANGDIR
 70
     0
  9
$PDMODE
 70
     0
  9
$PDSIZE
 40
0.3125
  9
$PLINEWID
 40
0.0
  9
$COORDS
 70
     1
  9
$SPLFRAME
 70
     0
  9
$SPLINETYPE
 70
     6
  9
$SPLINESEGS
 70
     8
  9
$ATTDIA
 70
     1
  9
$ATTREQ
 70
     1
  9
$HANDLING
 70
     1
  9
$HANDSEED
  5
1D276
  9
$SURFTAB1
 70
     6
  9
$SURFTAB2
 70
     6
  9
$SURFTYPE
 70
     6
  9
$SURFU
 70
     6
  9
$SURFV
 70
     6
  9
$UCSNAME
  2

  9
$UCSORG
 10
0.0
 20
0.0
 30
0.0
  9
$UCSXDIR
 10
1.0
 20
0.0
 30
0.0
  9
$UCSYDIR
 10
0.0
 20
1.0
 30
0.0
  9
$PUCSNAME
  2

  9
$PUCSORG
 10
0.0
 20
0.0
 30
0.0
  9
$PUCSXDIR
 10
1.0
 20
0.0
 30
0.0
  9
$PUCSYDIR
 10
0.0
 20
1.0
 30
0.0
  9
$USERI1
 70
     0
  9
$USERI2
 70
     0
  9
$USERI3
 70
     0
  9
$USERI4
 70
     0
  9
$USERI5
 70
     0
  9
$USERR1
 40
0.0
  9
$USERR2
 40
0.0
  9
$USERR3
 40
0.0
  9
$USERR4
 40
0.0
  9
$USERR5
 40
0.0
  9
$WORLDVIEW
 70
     1
  9
$SHADEDGE
 70
     3
  9
$SHADEDIF
 70
    70
  9
$TILEMODE
 70
     1
  9
$MAXACTVP
 70
    64
  9
$PLIMCHECK
 70
     0
  9
$PEXTMIN
 10
1.0000000000000000E+20
 20
1.0000000000000000E+20
 30
1.0000000000000000E+20
  9
$PEXTMAX
 10
-1.0000000000000000E+20
 20
-1.0000000000000000E+20
 30
-1.0000000000000000E+20
  9
$PLIMMIN
 10
0.0
 20
0.0
  9
$PLIMMAX
 10
12.0
 20
9.0
  9
$UNITMODE
 70
     0
  9
$VISRETAIN
 70
     1
  9
$PLINEGEN
 70
     0
  9
$PSLTSCALE
 70
     1
  0
ENDSEC
  0
SECTION
  2
TABLES
  0
TABLE
  2
VPORT
 70
     1
  0
VPORT
  2
*ACTIVE
 70
     0
 10
0.0
 20
0.0
 11
1.0
 21
1.0
 12
679.3023449811053069
 22
-152.131983112399098
 13
0.0
 23
0.0
 14
1.0
 24
1.0
 15
0.0
 25
0.0
 16
0.0
 26
0.0
 36
5.1040778033513332
 17
3792.35791015625
 27
120.1806564331053977
 37
0.0
 40
5.5570714102042871
 41
1.593589743589743
 42
50.0
 43
0.0
 44
0.0
 50
0.0
 51
0.0
 71
     0
 72
   100
 73
     1
 74
     1
 75
     0
 76
     0
 77
     0
 78
     0
  0
ENDTAB
  0
TABLE
  2
LTYPE
 70
     2
  0
LTYPE
  2
CONTINUOUS
 70
     0
  3
Solid line
 72
    65
 73
     0
 40
0.0
  0
LTYPE
  2
PHANTOM2
 70
     0
  3
___ _ _ ___ _ _ ___ _ _ ___ _ _
 72
    65
 73
     6
 40
1.25
 49
0.625
 49
-0.125
 49
0.125
 49
-0.125
 49
0.125
 49
-0.125
  0
ENDTAB
  0
TABLE
  2
LAYER
 70
     2
  0
LAYER
  2
0
 70
     0
 62
   255
  6
CONTINUOUS
  0
LAYER
  2
DEFPOINTS
 70
     0
 62
     7
  6
CONTINUOUS
  0
ENDTAB
  0
TABLE
  2
STYLE
 70
     1
  0
STYLE
  2
STANDARD
 70
     0
 40
0.0
 41
0.8
 50
0.0
 71
     0
 42
0.2
  3
txt
  4

  0
ENDTAB
  0
TABLE
  2
VIEW
 70
     0
  0
ENDTAB
  0
TABLE
  2
UCS
 70
     0
  0
ENDTAB
  0
TABLE
  2
APPID
 70
     9
  0
APPID
  2
ACAD
 70
     0
  0
APPID
  2
ACAD_MLEADERVER
 70
     0
  0
APPID
  2
ACAD_EXEMPT_FROM_CAD_STANDARDS
 70
     0
  0
APPID
  2
ACAD_NAV_VCDISPLAY
 70
     0
  0
APPID
  2
ACAECLAYERSTANDARD
 70
     0
  0
APPID
  2
ACCMTRANSPARENCY
 70
     0
  0
APPID
  2
ACAD_DSTYLE_DIMJAG
 70
     0
  0
APPID
  2
ACAD_DSTYLE_DIMTALN
 70
     0
  0
APPID
  2
ACDBATTR
 70
     0
  0
ENDTAB
  0
TABLE
  2
DIMSTYLE
 70
     1
  0
DIMSTYLE
  2
STANDARD
 70
     0
  3

  4

  5

  6

  7

 40
1.0
 41
0.1875
 42
0.0625
 43
0.38
 44
0.125
 45
0.0
 46
0.0
 47
0.01
 48
0.01
140
0.15625
141
0.09
142
0.0
143
25.3999999999999986
144
1.0
145
0.0
146
1.0
147
0.09
 71
     1
 72
     0
 73
     1
 74
     1
 75
     0
 76
     0
 77
     0
 78
     4
170
     0
171
     2
172
     0
173
     0
174
     0
175
     0
176
     0
177
     0
178
     0
  0
ENDTAB
  0
ENDSEC
  0
SECTION
  2
BLOCKS
  0
BLOCK
  8
0
  2
$MODEL_SPACE
 70
     0
 10
0.0
 20
0.0
 30
0.0
  3
$MODEL_SPACE
  1

  0
ENDBLK
  5
21
  8
0
  0
BLOCK
 67
     1
  8
0
  2
$PAPER_SPACE
 70
     0
 10
0.0
 20
0.0
 30
0.0
  3
$PAPER_SPACE
  1

  0
ENDBLK
  5
1D
 67
     1
  8
0
  0
ENDSEC
  0
SECTION
  2
ENTITIES
  0
ATTDEF
  5
3930
  8
DEFPOINTS
 10
4471.6540977352551636
 20
-34.7053458055343711
 30
0.0
 40
0.001
  1
K-EX20257T-NWS3
  3

  2
MODELNUMBER
 70
     0
1001
ACDBATTR
1070
     0
1070
     1
  0
ATTDEF
  5
3931
  8
DEFPOINTS
 10
4471.6540977352551636
 20
-34.7070124722010434
 30
0.0
 40
0.001
  1
COMPOSED
  3

  2
TRADENAME
 70
     0
1001
ACDBATTR
1070
     0
1070
     1
  0
ATTDEF
  5
3932
  8
DEFPOINTS
 10
4471.6540977352551636
 20
-34.7086791388677014
 30
0.0
 40
0.001
  1
BATHROOM SINK FAUCET
  3

  2
PRODUCT
 70
     0
1001
ACDBATTR
1070
     0
1070
     1
  0
ARC
  5
1CFD7
  8
0
 10
4471.0005769623021479
 20
-18.6966024529811392
 30
0.0
 40
10.49815557667036
 50
270.189819219914682
 51
270.7001469660868906
  0
ARC
  5
1CFD8
  8
0
 10
4470.9844944497681354
 20
-29.2308318804301699
 30
0.0
 40
0.0329018946452501
 50
112.4977416144404998
 51
179.5178537403106986
  0
ARC
  5
1CFD9
  8
0
 10
4471.0546495665039402
 20
-30.1986927645203806
 30
0.0
 40
1.0041776923671071
 50
91.1008529397132492
 51
93.3572096422635411
  0
ARC
  5
1CFDA
  8
0
 10
4470.9956829455022671
 20
-29.2657142102403682
 30
0.0
 40
0.069475996825324
 50
89.8671161513095313
 51
110.014145226974307
  0
ARC
  5
1CFDB
  8
0
 10
4470.9849316520567299
 20
-29.9619483079814515
 30
0.0
 40
0.0333379502485661
 50
179.9400528505896091
 51
243.6996842995075951
  0
ARC
  5
1CFDC
  8
0
 10
4470.9850424156666122
 20
-30.0170978605339513
 30
0.0
 40
0.0336435849333886
 50
157.3350425265676051
 51
173.8299257663894082
  0
ARC
  5
1CFDD
  8
0
 10
4471.0275535344280797
 20
-30.2458012903326505
 30
0.0
 40
0.2605253533089265
 50
99.7828749426434314
 51
101.3729501973164986
  0
ARC
  5
1CFDE
  8
0
 10
4470.9740669588036326
 20
-30.0146350628285603
 30
0.0
 40
0.0226513716162658
 50
127.3710108558090042
 51
152.3794782970308006
  0
ARC
  5
1CFDF
  8
0
 10
4470.9823246841406217
 20
-30.0292799808885285
 30
0.0
 40
0.0393710284841126
 50
98.9798694595135942
 51
123.9833522441008
  0
LINE
  5
1CFE0
  8
0
 10
4470.9515937200540066
 20
-30.0134818448973988
 30
0.0
 11
4470.9515937200540066
 21
-34.5259999333861316
 31
0.0
  0
LINE
  5
1CFE1
  8
0
 10
4470.9515937200540066
 20
-29.9619134273196295
 30
0.0
 11
4470.9515937200540066
 21
-29.2305550129802292
 31
0.0
  0
ARC
  5
1CFE2
  8
0
 10
4471.23224951314387
 20
-32.3288852631852919
 30
0.0
 40
2.3530288458636188
 50
91.0041802049714192
 51
96.0735704996558866
  0
ARC
  5
1CFE3
  8
0
 10
4470.9830880362524113
 20
-29.7330214718572883
 30
0.0
 40
0.0314950499567526
 50
180.3911055952281117
 51
270.0349913991756807
  0
LINE
  5
1CFE4
  8
0
 10
4471.1288598639575866
 20
-29.193974219719621
 30
0.0
 11
4472.1916504107521178
 21
-29.193974219719621
 31
0.0
  0
ARC
  5
1CFE5
  8
0
 10
4470.6878141942506772
 20
-34.5771810365299004
 30
0.0
 40
0.0314960647956135
 50
89.9851923668578024
 51
179.9999986469829025
  0
ARC
  5
1CFE6
  8
0
 10
4470.9712787592843597
 20
-34.5259999335569603
 30
0.0
 40
0.0196850392291808
 50
179.9999995028111925
 51
270.0000169405075212
  0
LINE
  5
1CFE7
  8
0
 10
4470.6563181294550304
 20
-34.5771810357861327
 30
0.0
 11
4470.6563181294550304
 21
-34.703165287686133
 31
0.0
  0
ARC
  5
1CFE8
  8
0
 10
4472.6326960822552792
 20
-34.5771810357861327
 30
0.0
 40
0.0314960630000005
 50
0.0
 51
90.0
  0
ARC
  5
1CFE9
  8
0
 10
4472.3492315154253447
 20
-34.5259999335569603
 30
0.0
 40
0.0196850392291743
 50
269.9999794211577751
 51
0.0000004972091416
  0
LINE
  5
1CFEA
  8
0
 10
4472.664192145254674
 20
-34.5771810357861327
 30
0.0
 11
4472.664192145254674
 21
-34.703165287686133
 31
0.0
  0
LINE
  5
1CFEB
  8
0
 10
4470.6563181294550304
 20
-34.703165287686133
 30
0.0
 11
4472.664192145254674
 21
-34.703165287686133
 31
0.0
  0
LINE
  5
1CFEC
  8
0
 10
4472.6326960822552792
 20
-34.5456849727861268
 30
0.0
 11
4470.687822334154589
 21
-34.5456849727861268
 31
0.0
  0
ARC
  5
1CFED
  8
0
 10
4472.1811714849791315
 20
-36.5631401780264298
 30
0.0
 40
7.3691734087992016
 50
89.1915081381406765
 51
89.9185256758811562
  0
ARC
  5
1CFEE
  8
0
 10
4472.3360158249406595
 20
-29.2308318804301699
 30
0.0
 40
0.0329018946452486
 50
0.4821462596877061
 51
67.5022583855595002
  0
ARC
  5
1CFEF
  8
0
 10
4472.2658607082057642
 20
-30.1986927645203806
 30
0.0
 40
1.0041776923671071
 50
86.6427903577364731
 51
88.8991470602867366
  0
ARC
  5
1CFF0
  8
0
 10
4472.3248273292092563
 20
-29.2657142102403682
 30
0.0
 40
0.069475996825324
 50
69.9858547730256788
 51
90.1328838486904687
  0
LINE
  5
1CFF1
  8
0
 10
4472.3689165546538788
 20
-30.0134818449027208
 30
0.0
 11
4472.3689165546538788
 21
-34.5259999333861316
 31
0.0
  0
LINE
  5
1CFF2
  8
0
 10
4472.3689165546538788
 20
-29.9619134273194412
 30
0.0
 11
4472.3689165546538788
 21
-29.2305550129805489
 31
0.0
  0
LINE
  5
1CFF3
  8
0
 10
4471.5504195542243906
 20
-29.9009761418861295
 30
0.0
 11
4471.7700907204862233
 21
-29.9009761418861402
 31
0.0
  0
LINE
  5
1CFF4
  8
0
 10
4471.1887551373547467
 20
-29.7866096186861391
 30
0.0
 11
4471.1887551373547467
 21
-29.9616574759862893
 31
0.0
  0
ARC
  5
1CFF5
  8
0
 10
4471.7087765824544476
 20
-22.2802842891644914
 30
0.0
 40
7.8008942797105929
 50
268.6348644950326729
 51
269.6436188151271267
  0
ARC
  5
1CFF6
  8
0
 10
4471.5925256978143807
 20
-28.8286539015170007
 30
0.0
 40
1.2522460419548509
 50
257.0526314677933897
 51
266.8140120103648201
  0
ARC
  5
1CFF7
  8
0
 10
4471.3675465441574488
 20
-29.7793899429829487
 30
0.0
 40
0.2753440730264014
 50
235.9863357591871136
 51
258.3514860617905811
  0
ARC
  5
1CFF8
  8
0
 10
4471.2530695837258463
 20
-29.9555085886594306
 30
0.0
 40
0.0654219655273809
 50
198.4243582865996984
 51
232.8067465601424999
  0
ARC
  5
1CFF9
  8
0
 10
4471.2591171319281784
 20
-29.9582176001657103
 30
0.0
 40
0.0704460291717561
 50
182.7988628395422097
 51
194.7769671164610941
  0
ARC
  5
1CFFA
  8
0
 10
4471.2081902935387916
 20
-29.9607073249248401
 30
0.0
 40
0.0194583679420772
 50
141.5132323130175962
 51
182.7988628395447108
  0
ARC
  5
1CFFB
  8
0
 10
4471.3039394666066073
 20
-30.0614057747232408
 30
0.0
 40
0.1582475017873967
 50
103.2753510929519933
 51
134.5320438399712941
  0
ARC
  5
1CFFC
  8
0
 10
4471.5503219402589821
 20
-30.9250464841575301
 30
0.0
 40
1.056201682000544
 50
94.1631431980627269
 51
105.5260879884345968
  0
LINE
  5
1CFFD
  8
0
 10
4471.4736452501556414
 20
-29.7751050047861412
 30
0.0
 11
4471.4736452501556414
 21
-29.8716317138862308
 31
0.0
  0
ARC
  5
1CFFE
  8
0
 10
4471.640190887762401
 20
-40.170043068140501
 30
0.0
 40
10.3962721583450008
 50
89.8894221392871628
 51
91.790787264652721
  0
ARC
  5
1CFFF
  8
0
 10
4471.3813619078127886
 20
-31.8915729522874294
 30
0.0
 40
2.113756845957468
 50
91.790787264652721
 51
95.2280770681174289
  0
ARC
  5
1D000
  8
0
 10
4471.1937811622883601
 20
-29.8415381041814598
 30
0.0
 40
0.0551579499749154
 50
95.2280770681174289
 51
113.0196872909311026
  0
ARC
  5
1D001
  8
0
 10
4471.1895717982788483
 20
-29.7618358877826488
 30
0.0
 40
0.0337444641991073
 50
239.0389656370026898
 51
268.6132305192560921
  0
LINE
  5
1D002
  8
0
 10
4471.1760031688563686
 20
-29.8298501033861392
 30
0.0
 11
4471.1760031688563686
 21
-29.8394676722167382
 31
0.0
  0
LINE
  5
1D003
  8
0
 10
4471.1887551373547467
 20
-29.8256857275838314
 30
0.0
 11
4471.1781928833506754
 21
-29.8282449144223705
 31
0.0
  0
LINE
  5
1D004
  8
0
 10
4471.1887551373547467
 20
-29.84332810789547
 30
0.0
 11
4471.1782170884671359
 21
-29.8410822694745583
 31
0.0
  0
ARC
  5
1D005
  8
0
 10
4471.179975237853796
 20
-29.8329724500916917
 30
0.0
 40
0.0050523639099746
 50
110.6572234582741032
 51
141.8299741751893919
  0
ARC
  5
1D006
  8
0
 10
4471.1789098927893065
 20
-29.8378071522729797
 30
0.0
 40
0.0033475917483461
 50
209.737968794445294
 51
258.0559723696616174
  0
ARC
  5
1D007
  8
0
 10
4471.5622291968893478
 20
-29.6554102549620389
 30
0.0
 40
0.2458496948965045
 50
255.0171093839628043
 51
267.2466788127338191
  0
ARC
  5
1D008
  8
0
 10
4471.5085740034955961
 20
-29.8558936130649712
 30
0.0
 40
0.0383106463914621
 50
204.2552426154761065
 51
255.0171093839628043
  0
ARC
  5
1D009
  8
0
 10
4471.7214459886126861
 20
-32.4800386962877781
 30
0.0
 40
2.571975563070179
 50
91.3632743648042833
 51
96.013047934406984
  0
ARC
  5
1D00A
  8
0
 10
4471.607881009812445
 20
-31.094523544072441
 30
0.0
 40
1.182625360661071
 50
97.573236204395343
 51
102.9824972547218067
  0
ARC
  5
1D00B
  8
0
 10
4471.3871133862630813
 20
-30.1369394109180284
 30
0.0
 40
0.1999220912671979
 50
102.9824972547218067
 51
118.3611385776540033
  0
LINE
  5
1D00C
  8
0
 10
4471.2921449011546429
 20
-29.9610137748861405
 30
0.0
 11
4471.2921448946553937
 21
-29.985345665286129
 31
0.0
  0
LINE
  5
1D00D
  8
0
 10
4471.4581114669554154
 20
-29.9905343701861291
 30
0.0
 11
4471.4565678884509907
 21
-29.9664377872793004
 31
0.0
  0
LINE
  5
1D00E
  8
0
 10
4471.4716089402545549
 20
-29.9906033255861288
 30
0.0
 11
4471.4714198300553107
 21
-29.9853710626861414
 31
0.0
  0
LINE
  5
1D00F
  8
0
 10
4471.5171665851539728
 20
-29.9905343701861291
 30
0.0
 11
4471.5159409434127156
 21
-29.9697454464578392
 31
0.0
  0
ARC
  5
1D010
  8
0
 10
4471.3279925948354503
 20
-29.9842951030878417
 30
0.0
 40
0.0358606415984187
 50
181.64663152832739
 51
222.2585726244452076
  0
ARC
  5
1D011
  8
0
 10
4471.3595867007888955
 20
-29.9555884092628908
 30
0.0
 40
0.0785486001050781
 50
222.2585726244448949
 51
244.8661639680856013
  0
ARC
  5
1D012
  8
0
 10
4471.4560364882718204
 20
-29.7500062943385615
 30
0.0
 40
0.3056313327863704
 50
244.8661639680856013
 51
254.6851165474488994
  0
ARC
  5
1D013
  8
0
 10
4471.5180786758046452
 20
-29.5234494942669592
 30
0.0
 40
0.5405296441738602
 50
254.6851165474488994
 51
260.0797192172067867
  0
ARC
  5
1D014
  8
0
 10
4471.6197802756287274
 20
-28.9419409797057305
 30
0.0
 40
1.130864606643307
 50
260.0797192172067867
 51
263.059894940207073
  0
ARC
  5
1D015
  8
0
 10
4471.6259328334463135
 20
-28.8913956525020801
 30
0.0
 40
1.181783012645629
 50
263.059894940207073
 51
266.8228181504226768
  0
ARC
  5
1D016
  8
0
 10
4471.697534722706223
 20
-27.6014851583035501
 30
0.0
 40
2.4736792598687449
 50
266.8228181504226768
 51
267.8699930718457267
  0
ARC
  5
1D017
  8
0
 10
4471.6664685684327196
 20
-27.9869683167515895
 30
0.0
 40
2.087374751414945
 50
268.3288695839272009
 51
269.8294489752689742
  0
ARC
  5
1D018
  8
0
 10
4471.4093663355397439
 20
-30.0194442676363416
 30
0.0
 40
0.051893389930889
 50
115.4064444435863948
 51
137.9338140194948892
  0
ARC
  5
1D019
  8
0
 10
4471.4965866084976369
 20
-30.200650261333319
 30
0.0
 40
0.2529972584256228
 50
110.9837439669030061
 51
115.6421789125585065
  0
ARC
  5
1D01A
  8
0
 10
4471.4799841049007227
 20
-30.157362555500189
 30
0.0
 40
0.2066348965138677
 50
101.4958807025275007
 51
110.9837439669030061
  0
ARC
  5
1D01B
  8
0
 10
4471.8788287218430924
 20
-32.1184681628751534
 30
0.0
 40
2.207887562156523
 50
100.2635870987341065
 51
101.4958807025275007
  0
ARC
  5
1D01C
  8
0
 10
4471.6231465499758997
 20
-30.8502472742591713
 30
0.0
 40
0.9147624226958493
 50
95.5114072827656457
 51
98.6584778783586245
  0
ARC
  5
1D01D
  8
0
 10
4471.6470867911066307
 20
-31.0888565713476694
 30
0.0
 40
1.154568327450548
 50
93.7595641876298203
 51
95.5566949923277491
  0
ARC
  5
1D01E
  8
0
 10
4471.6579148617684041
 20
-31.2574423696880999
 30
0.0
 40
1.323501344580144
 50
91.2161360870939291
 51
93.7487695078145862
  0
ARC
  5
1D01F
  8
0
 10
4471.6204943555467253
 20
-27.6704515326161413
 30
0.0
 40
2.2638068451523989
 50
270.2361516385466871
 51
271.0063765544724106
  0
ARC
  5
1D020
  8
0
 10
4471.3861219556411015
 20
-29.9975395697531191
 30
0.0
 40
0.0199733807029533
 50
139.9076649703314104
 51
158.812921717171605
  0
ARC
  5
1D021
  8
0
 10
4471.3793729861226893
 20
-29.9949235679056514
 30
0.0
 40
0.0127351450601648
 50
158.812921717171605
 51
195.262300385736296
  0
ARC
  5
1D022
  8
0
 10
4471.384742379891577
 20
-29.9934584646812787
 30
0.0
 40
0.0183008361139616
 50
195.2623003857374897
 51
227.4825099960551995
  0
ARC
  5
1D023
  8
0
 10
4471.4231048490573812
 20
-29.9516188244915718
 30
0.0
 40
0.0750655657580142
 50
227.4825099960551995
 51
249.9221654841894917
  0
ARC
  5
1D024
  8
0
 10
4471.5037065661372253
 20
-29.7541210180316007
 30
0.0
 40
0.2883394674256173
 50
248.3515601218761901
 51
257.5764008778637049
  0
ARC
  5
1D025
  8
0
 10
4471.5928779405030582
 20
-29.3587766761795486
 30
0.0
 40
0.6936134114936483
 50
257.4087221171657802
 51
263.5805584475600085
  0
ARC
  5
1D026
  8
0
 10
4471.6502281614139065
 20
-28.8763298653558209
 30
0.0
 40
1.1794513495172749
 50
263.4323882349366954
 51
268.0335535136438807
  0
ARC
  5
1D027
  8
0
 10
4471.7561619767357115
 20
-23.3336392524427687
 30
0.0
 40
6.7230416834813127
 50
268.7521873701526829
 51
269.182625398721882
  0
ARC
  5
1D028
  8
0
 10
4471.4357284115349103
 20
-30.1521418218255199
 30
0.0
 40
0.2013025431459685
 50
101.4905396006941061
 51
122.9759332201824975
  0
ARC
  5
1D029
  8
0
 10
4471.5447638360183191
 20
-30.5617439021480486
 30
0.0
 40
0.6249262585051589
 50
99.7487027657440137
 51
103.8066374574567021
  0
ARC
  5
1D02A
  8
0
 10
4471.5991145534326279
 20
-30.8738369803911006
 30
0.0
 40
0.9417160088397778
 50
96.462669716161642
 51
99.7925115659832471
  0
ARC
  5
1D02B
  8
0
 10
4471.6329230395231207
 20
-31.1511686620603605
 30
0.0
 40
1.2210930176070851
 50
94.6452147526993741
 51
96.5742658561441232
  0
ARC
  5
1D02C
  8
0
 10
4471.6541177719072948
 20
-31.4148431043283196
 30
0.0
 40
1.4856178466833541
 50
92.0989005395774143
 51
94.6363947220355328
  0
ARC
  5
1D02D
  8
0
 10
4471.660591876030594
 20
-31.5914893990429597
 30
0.0
 40
1.662382739862367
 50
90.011606054733349
 51
92.0989064913774769
  0
ARC
  5
1D02E
  8
0
 10
4471.6758117089120788
 20
-31.6124477495448915
 30
0.0
 40
1.6824374116601639
 50
90.5297900469578991
 51
95.860666779749991
  0
ARC
  5
1D02F
  8
0
 10
4471.3716320382691265
 20
-29.9981764641343496
 30
0.0
 40
0.0237188885360708
 50
122.8392742139557043
 51
169.4447248215587933
  0
ARC
  5
1D030
  8
0
 10
4471.4193635584269941
 20
-30.0618086022436195
 30
0.0
 40
0.1032182149361665
 50
110.8195285837337991
 51
125.9477034948117051
  0
ARC
  5
1D031
  8
0
 10
4471.490135249042396
 20
-30.2407394953124182
 30
0.0
 40
0.2956308423258473
 50
103.3043023471853985
 51
111.3145236673923932
  0
ARC
  5
1D032
  8
0
 10
4471.5794142621298306
 20
-30.6158510173581284
 30
0.0
 40
0.6812319100460975
 50
96.3542544763701869
 51
103.3618360191643006
  0
ARC
  5
1D033
  8
0
 10
4471.3625004135137715
 20
-29.9949962031299009
 30
0.0
 40
0.0142336368625052
 50
175.3065537198824018
 51
207.2846310643168977
  0
ARC
  5
1D034
  8
0
 10
4471.3736115814781442
 20
-29.98926507560979
 30
0.0
 40
0.0267357917238473
 50
207.2846310643157892
 51
231.6797164367197865
  0
ARC
  5
1D035
  8
0
 10
4471.4113996184032658
 20
-29.9414519321143402
 30
0.0
 40
0.0876786536974583
 50
231.6797164367200139
 51
243.0247508449849079
  0
ARC
  5
1D036
  8
0
 10
4471.4740154941264336
 20
-29.8017275140307589
 30
0.0
 40
0.2407235771105276
 50
244.8283308408693131
 51
256.6708728396768038
  0
ARC
  5
1D037
  8
0
 10
4471.5885348657757277
 20
-29.3274287860187108
 30
0.0
 40
0.7286503444124343
 50
256.5067273598983206
 51
264.1508478701163085
  0
ARC
  5
1D038
  8
0
 10
4471.6668089477616377
 20
-28.5633549718287512
 30
0.0
 40
1.4967230137878731
 50
264.1508478701163085
 51
267.6044881407203775
  0
ARC
  5
1D039
  8
0
 10
4471.3836366615159932
 20
-43.2730297435336126
 30
0.0
 40
13.2161011826436692
 50
88.8006880085467429
 51
89.0435310263450219
  0
ARC
  5
1D03A
  8
0
 10
4471.3425157598276201
 20
-30.0056893161447213
 30
0.0
 40
0.0277506830887167
 50
126.1077823698449976
 51
159.1981070707979029
  0
ARC
  5
1D03B
  8
0
 10
4471.3301816228959069
 20
-30.0009599521656902
 30
0.0
 40
0.0145410408748585
 50
159.3586995605803907
 51
214.0429327998247118
  0
ARC
  5
1D03C
  8
0
 10
4471.3670929867694213
 20
-29.9724556305772794
 30
0.0
 40
0.0611529212769991
 50
216.7727527507429954
 51
247.1866805126045961
  0
ARC
  5
1D03D
  8
0
 10
4471.492722500882337
 20
-29.6737892003315586
 30
0.0
 40
0.3851659015297335
 50
247.1866805126045961
 51
256.6644482071249058
  0
ARC
  5
1D03E
  8
0
 10
4471.5531163640043815
 20
-29.4190114163055512
 30
0.0
 40
0.6470039009415974
 50
256.6644482071249058
 51
264.1038201762635822
  0
ARC
  5
1D03F
  8
0
 10
4471.7253693923239553
 20
-27.7510656776709297
 30
0.0
 40
2.3238205554375542
 50
264.1038201762635822
 51
266.5001799356879246
  0
ARC
  5
1D040
  8
0
 10
4471.6773555258332635
 20
-27.7062798747906989
 30
0.0
 40
2.366134158656918
 50
267.7269606969036886
 51
269.5859116383314813
  0
ARC
  5
1D041
  8
0
 10
4471.5874293573560863
 20
-29.9892810979797098
 30
0.0
 40
0.01127756719745
 50
186.3831316497868045
 51
241.0291956271273079
  0
ARC
  5
1D042
  8
0
 10
4471.6152719726669602
 20
-29.9389912729040404
 30
0.0
 40
0.0687604144954452
 50
241.029195627127109
 51
249.1515515889024073
  0
ARC
  5
1D043
  8
0
 10
4471.6246994372595509
 20
-29.9018752946151913
 30
0.0
 40
0.1068920031730655
 50
251.5102976492200924
 51
259.4097162352657051
  0
ARC
  5
1D044
  8
0
 10
4471.6522775955581892
 20
-29.7502771046529091
 30
0.0
 40
0.2609774786971966
 50
259.5750357433975068
 51
267.1110221281854251
  0
ARC
  5
1D045
  8
0
 10
4482.4173105741838299
 20
356.0983972878826194
 30
0.0
 40
386.2597266593031122
 50
268.4010117539338012
 51
268.4041474391286783
  0
ARC
  5
1D046
  8
0
 10
4471.4771125186352947
 20
-29.9886479313084706
 30
0.0
 40
0.0190944655967343
 50
185.6697885618767998
 51
237.1891184797418077
  0
ARC
  5
1D047
  8
0
 10
4471.5179406060351539
 20
-29.9297440318261501
 30
0.0
 40
0.0907561265860627
 50
235.6760592763125999
 51
253.3209273251985962
  0
ARC
  5
1D048
  8
0
 10
4471.5845107527438813
 20
-29.7189665046625997
 30
0.0
 40
0.31178922418325
 50
252.7192768059686898
 51
262.8096303020619189
  0
ARC
  5
1D049
  8
0
 10
4471.645112406795306
 20
-29.3584068218645804
 30
0.0
 40
0.6772646930384234
 50
261.5409606620232807
 51
267.8111854072429878
  0
ARC
  5
1D04A
  8
0
 10
4471.6746568179869428
 20
-28.4289102586564688
 30
0.0
 40
1.607222583759375
 50
268.0242651667509222
 51
269.4865884979632824
  0
ARC
  5
1D04B
  8
0
 10
4471.4881619585949011
 20
-29.9891718214691103
 30
0.0
 40
0.0166139320201878
 50
184.8822671715286106
 51
225.8432784709613941
  0
ARC
  5
1D04C
  8
0
 10
4471.5045444381175912
 20
-29.9726136752273185
 30
0.0
 40
0.0399063760049758
 50
225.529413360601211
 51
242.6558390064450919
  0
ARC
  5
1D04D
  8
0
 10
4471.5510368859322625
 20
-29.8760113484207892
 30
0.0
 40
0.1471024181338633
 50
243.8537123661932924
 51
259.661576843627472
  0
ARC
  5
1D04E
  8
0
 10
4471.6832439234158301
 20
-29.1512860034567609
 30
0.0
 40
0.8837879184618046
 50
259.661576843627472
 51
264.6412458620162056
  0
ARC
  5
1D04F
  8
0
 10
4471.669251979665205
 20
-28.905666943429221
 30
0.0
 40
1.127629672625259
 50
266.514951605399915
 51
269.5428582849153827
  0
ARC
  5
1D050
  8
0
 10
4471.4900970926073569
 20
-30.0041529649771306
 30
0.0
 40
0.0264877328226709
 50
120.5182278048353055
 51
134.8399483844773954
  0
ARC
  5
1D051
  8
0
 10
4471.5212957017683948
 20
-30.0570791830175885
 30
0.0
 40
0.0879249997681148
 50
106.383274610475695
 51
120.5182278048353055
  0
ARC
  5
1D052
  8
0
 10
4471.5980150024834074
 20
-30.3180302209233012
 30
0.0
 40
0.3599200278221954
 50
98.4548285640753846
 51
106.383274610475695
  0
ARC
  5
1D053
  8
0
 10
4471.6445876431016586
 20
-30.6313445626614183
 30
0.0
 40
0.6766768550462678
 50
92.4520684646552553
 51
98.4548285640753846
  0
ARC
  5
1D054
  8
0
 10
4471.6665666531689567
 20
-31.1445992333929702
 30
0.0
 40
1.1904019117753479
 50
90.3037838811166438
 51
92.4520684646552553
  0
ARC
  5
1D055
  8
0
 10
4471.6125741682408261
 20
-29.7936691495593209
 30
0.0
 40
0.2211914949683095
 50
253.7799898832564054
 51
261.3648659179823994
  0
ARC
  5
1D056
  8
0
 10
4471.6527477390263812
 20
-29.5303352762738385
 30
0.0
 40
0.4875721057088755
 50
261.3436188118362224
 51
268.0932467378452202
  0
ARC
  5
1D057
  8
0
 10
4471.6601768000073207
 20
-29.3902528476044509
 30
0.0
 40
0.6278302420708121
 50
267.8410044452539864
 51
270.0071490653077717
  0
ARC
  5
1D058
  8
0
 10
4471.5315320983590937
 20
-29.9892165991265607
 30
0.0
 40
0.0144258271750301
 50
185.241161449343906
 51
233.0002772386600043
  0
ARC
  5
1D059
  8
0
 10
4471.5553965474537108
 20
-29.9575470867052687
 30
0.0
 40
0.0540802083651063
 50
233.0002772386600043
 51
249.4605510095651937
  0
ARC
  5
1D05A
  8
0
 10
4471.6171340482942469
 20
-29.7658451409618401
 30
0.0
 40
0.2554312866245422
 50
251.5799000434363961
 51
263.827407966706005
  0
ARC
  5
1D05B
  8
0
 10
4471.6547371032766023
 20
-29.4741663494172812
 30
0.0
 40
0.5494953028253642
 50
263.1994152540390814
 51
267.785924319708613
  0
ARC
  5
1D05C
  8
0
 10
4471.6752415891396595
 20
-28.6153708089662118
 30
0.0
 40
1.408499027439138
 50
268.3020989868173842
 51
269.3903605024050876
  0
ARC
  5
1D05D
  8
0
 10
4471.5563875723009915
 20
-30.0234249671108913
 30
0.0
 40
0.0449227161716144
 50
109.8252659020329958
 51
123.3711421276662037
  0
ARC
  5
1D05E
  8
0
 10
4471.5959129005095747
 20
-30.1330590746787408
 30
0.0
 40
0.161464078409479
 50
101.5291560317892987
 51
109.8252659020329958
  0
ARC
  5
1D05F
  8
0
 10
4471.6387647335650399
 20
-30.3431353208433485
 30
0.0
 40
0.3758662910819214
 50
94.5452319559199879
 51
101.5291560317892987
  0
ARC
  5
1D060
  8
0
 10
4471.6656288555177525
 20
-30.6810644863451287
 30
0.0
 40
0.7148615741538502
 50
90.430704743312134
 51
94.5452378431905487
  0
LINE
  5
1D061
  8
0
 10
4471.4521473681552379
 20
-29.971958268586139
 30
0.0
 11
4471.3883850224683556
 21
-29.9719582642030602
 31
0.0
  0
ARC
  5
1D062
  8
0
 10
4471.3905449595204118
 20
-29.986700004548311
 30
0.0
 40
0.0151680635917703
 50
184.1169306883220997
 51
207.5513370837192042
  0
ARC
  5
1D063
  8
0
 10
4471.4096227885693224
 20
-30.0028381333847101
 30
0.0
 40
0.0061643545348262
 50
177.9542009789240069
 51
241.5188586592337003
  0
LINE
  5
1D064
  8
0
 10
4471.4526712948545537
 20
-29.9777932812361385
 30
0.0
 11
4471.3785619822810986
 21
-29.9777427832414389
 31
0.0
  0
LINE
  5
1D065
  8
0
 10
4471.3666515112654452
 20
-29.9943336550964901
 30
0.0
 11
4471.458008733792667
 21
-29.9889306175162602
 31
0.0
  0
LINE
  5
1D066
  8
0
 10
4471.4034623631259819
 20
-30.0026180761467991
 30
0.0
 11
4471.4594478740591512
 21
-29.9958976863715598
 31
0.0
  0
LINE
  5
1D067
  8
0
 10
4471.4066831959953561
 20
-30.008256441456961
 30
0.0
 11
4471.4629886640032055
 21
-30.0014976529700199
 31
0.0
  0
LINE
  5
1D068
  8
0
 10
4471.4526712948545537
 20
-29.9777932812361385
 30
0.0
 11
4471.4521473681552379
 21
-29.971958268586139
 31
0.0
  0
ARC
  5
1D069
  8
0
 10
4471.4523057171136315
 20
-29.9620909490370799
 30
0.0
 40
0.0098685918420765
 50
269.0806077509691931
 51
297.4217813013322029
  0
ARC
  5
1D06A
  8
0
 10
4471.4525075310448301
 20
-29.9828987263081892
 30
0.0
 40
0.0051080708656993
 50
1.478207201365346
 51
88.1627930675423954
  0
LINE
  5
1D06B
  8
0
 10
4471.3754160354146734
 20
-29.9877889529184998
 30
0.0
 11
4471.4576421642332207
 21
-29.9832081526201186
 31
0.0
  0
ARC
  5
1D06C
  8
0
 10
4471.4591359860760349
 20
-29.9718949261215997
 30
0.0
 40
0.0053059036817219
 50
10.7401563822986201
 51
86.5343506971264134
  0
ARC
  5
1D06D
  8
0
 10
4471.4500959143460932
 20
-29.9631137130742182
 30
0.0
 40
0.0162441850835799
 50
331.3331917796974153
 51
4.1755441731635203
  0
LINE
  5
1D06E
  8
0
 10
4471.4594567285594167
 20
-29.9665987257723501
 30
0.0
 11
4471.407858113147995
 21
-29.9637241766306914
 31
0.0
  0
LINE
  5
1D06F
  8
0
 10
4471.4805234332470718
 20
-29.9876739535823198
 30
0.0
 11
4471.5168865918276424
 21
-29.9857852173766517
 31
0.0
  0
LINE
  5
1D070
  8
0
 10
4471.4973933250539631
 20
-29.9913441138861288
 30
0.0
 11
4471.5170749600529234
 21
-29.9889802559633907
 31
0.0
  0
LINE
  5
1D071
  8
0
 10
4471.5004367347537482
 20
-29.9970196084861307
 30
0.0
 11
4471.5182573449701522
 21
-29.9948633160621512
 31
0.0
  0
LINE
  5
1D072
  8
0
 10
4471.4833627665866516
 20
-29.9777759461861386
 30
0.0
 11
4471.5117336905541379
 21
-29.9777759461861386
 31
0.0
  0
ARC
  5
1D073
  8
0
 10
4471.5114949360868195
 20
-29.9829943516297988
 30
0.0
 40
0.0052288185908916
 50
7.0509508568081456
 51
86.7646578251094525
  0
LINE
  5
1D074
  8
0
 10
4471.4801354709215957
 20
-29.9819550553690704
 30
0.0
 11
4471.5157606337415928
 21
-29.9799703861268583
 31
0.0
  0
ARC
  5
1D075
  8
0
 10
4471.5224848212501456
 20
-29.9711208496707293
 30
0.0
 40
0.0034385809367593
 50
175.4342710165948915
 51
245.7962574653865033
  0
ARC
  5
1D076
  8
0
 10
4471.518136134028282
 20
-29.9706099205650283
 30
0.0
 40
0.0046839761054912
 50
308.8617353585340766
 51
354.1831333388504959
  0
ARC
  5
1D077
  8
0
 10
4471.538221566401262
 20
-29.9850538854077691
 30
0.0
 40
0.006599808076253
 50
187.4435240245981902
 51
213.9703016356648106
  0
ARC
  5
1D078
  8
0
 10
4471.5336007155501648
 20
-29.9881672050349408
 30
0.0
 40
0.0010280021132229
 50
213.9703016356816931
 51
319.0713245950831833
  0
ARC
  5
1D079
  8
0
 10
4471.5271751284681159
 20
-29.9825955555474408
 30
0.0
 40
0.0095327917855185
 50
319.0713245950835244
 51
357.2826088128322226
  0
LINE
  5
1D07A
  8
0
 10
4471.53787788095633
 20
-29.9845725100861387
 30
0.0
 11
4471.5756549016759891
 21
-29.9826828568495607
 31
0.0
  0
ARC
  5
1D07B
  8
0
 10
4471.538504359307808
 20
-29.9832155221980301
 30
0.0
 40
0.0014946207732095
 50
166.9550217620025876
 51
245.2187247777210928
  0
ARC
  5
1D07C
  8
0
 10
4471.6453354651775953
 20
-30.17053575334063
 30
0.0
 40
0.1911228654381994
 50
93.9376671535710557
 51
104.1636133708537955
  0
ARC
  5
1D07D
  8
0
 10
4471.6645627187517675
 20
-30.4498649814628806
 30
0.0
 40
0.4711130527008226
 50
90.5238862976885343
 51
93.9376671535710557
  0
ARC
  5
1D07E
  8
0
 10
4471.6612190209252731
 20
-29.8286756799044603
 30
0.0
 40
0.1541882184752179
 50
265.6139245291946054
 51
269.6418220484698054
  0
ARC
  5
1D07F
  8
0
 10
4471.6557932376153985
 20
-29.9268459631746708
 30
0.0
 40
0.0555066778733346
 50
251.5193367919054026
 51
265.7980515985383931
  0
ARC
  5
1D080
  8
0
 10
4471.6656649232736527
 20
-29.7334299443003403
 30
0.0
 40
0.2491636828251332
 50
266.7930709634945856
 51
268.7559091465697065
  0
ARC
  5
1D081
  8
0
 10
4472.3355786226529744
 20
-29.9619483079814515
 30
0.0
 40
0.0333379502485661
 50
296.3003157004923764
 51
0.0599471494103934
  0
ARC
  5
1D082
  8
0
 10
4472.335467859070377
 20
-30.0170978605251406
 30
0.0
 40
0.0336435849057578
 50
6.1700742236108814
 51
22.6649574768475084
  0
ARC
  5
1D083
  8
0
 10
4472.2929567402816247
 20
-30.2458012903326505
 30
0.0
 40
0.2605253533089265
 50
78.6270498026835298
 51
80.2171250573565544
  0
ARC
  5
1D084
  8
0
 10
4472.3464433159051623
 20
-30.0146350628285603
 30
0.0
 40
0.0226513716162658
 50
27.6205217029692207
 51
52.6289891441909674
  0
ARC
  5
1D085
  8
0
 10
4472.3381855905699922
 20
-30.0292799808885285
 30
0.0
 40
0.0393710284841126
 50
56.0166477558991716
 51
81.02013054048642
  0
ARC
  5
1D086
  8
0
 10
4472.0882607615667439
 20
-32.3288852631852919
 30
0.0
 40
2.3530288458636188
 50
83.9264295003441134
 51
88.9958197950285665
  0
LINE
  5
1D087
  8
0
 10
4472.1317551373549577
 20
-29.7866096186861391
 30
0.0
 11
4472.1317551373549577
 21
-29.9616574759862893
 31
0.0
  0
ARC
  5
1D088
  8
0
 10
4471.9529637305531651
 20
-29.7793899429829487
 30
0.0
 40
0.2753440730264014
 50
281.6485139382093053
 51
304.0136642408128864
  0
ARC
  5
1D089
  8
0
 10
4472.0674406909847676
 20
-29.9555085886594306
 30
0.0
 40
0.0654219655273809
 50
307.1932534398574717
 51
341.5756417134002731
  0
ARC
  5
1D08A
  8
0
 10
4472.0613931427806165
 20
-29.9582176001657103
 30
0.0
 40
0.0704460291717561
 50
345.2230328835383943
 51
357.2011371604577903
  0
ARC
  5
1D08B
  8
0
 10
4472.1123199811700033
 20
-29.9607073249248401
 30
0.0
 40
0.0194583679420772
 50
357.2011371604552892
 51
38.486767686982347
  0
ARC
  5
1D08C
  8
0
 10
4472.0165708081030971
 20
-30.0614057747232408
 30
0.0
 40
0.1582475017873967
 50
45.4679561600286277
 51
76.7246489070479356
  0
ARC
  5
1D08D
  8
0
 10
4471.7701883344516318
 20
-30.9250464841575301
 30
0.0
 40
1.056201682000544
 50
74.4739120115654032
 51
85.8368568019372589
  0
LINE
  5
1D08E
  8
0
 10
4471.8468650245549725
 20
-29.7751050047861412
 30
0.0
 11
4471.8468650245549725
 21
-29.8716317138862308
 31
0.0
  0
ARC
  5
1D08F
  8
0
 10
4471.6803193869482129
 20
-40.170043068140501
 30
0.0
 40
10.3962721583450008
 50
88.2092127353472648
 51
90.1105778607128229
  0
ARC
  5
1D090
  8
0
 10
4471.9391483668978253
 20
-31.8915729522874294
 30
0.0
 40
2.113756845957468
 50
84.7719229318825853
 51
88.2092127353472648
  0
ARC
  5
1D091
  8
0
 10
4472.1267291124222538
 20
-29.8415381041814598
 30
0.0
 40
0.0551579499749154
 50
66.9803127090688406
 51
84.7719229318825853
  0
ARC
  5
1D092
  8
0
 10
4472.1309449631344251
 20
-29.7618538095914786
 30
0.0
 40
0.0337257590177769
 50
271.3765154772086134
 51
300.9672479963077194
  0
LINE
  5
1D093
  8
0
 10
4472.1445071058551548
 20
-29.8298501033861392
 30
0.0
 11
4472.1445071058551548
 21
-29.8394676722167382
 31
0.0
  0
LINE
  5
1D094
  8
0
 10
4472.1317551373549577
 20
-29.8256857275838314
 30
0.0
 11
4472.1423173913599385
 21
-29.8282449144223705
 31
0.0
  0
LINE
  5
1D095
  8
0
 10
4472.1317551373549577
 20
-29.84332810789547
 30
0.0
 11
4472.1422931862443875
 21
-29.8410822694745583
 31
0.0
  0
ARC
  5
1D096
  8
0
 10
4472.1405350368568179
 20
-29.8329724500916917
 30
0.0
 40
0.0050523639099746
 50
38.1700258248105726
 51
69.3427765417258541
  0
ARC
  5
1D097
  8
0
 10
4472.1416003819213074
 20
-29.8378071522729797
 30
0.0
 40
0.0033475917483461
 50
281.9440276303383257
 51
330.2620312055544218
  0
ARC
  5
1D098
  8
0
 10
4471.7582810778203566
 20
-29.6554102549620389
 30
0.0
 40
0.2458496948965045
 50
272.7533211872661809
 51
284.9828906160371957
  0
ARC
  5
1D099
  8
0
 10
4471.8119362712141083
 20
-29.8558936130649712
 30
0.0
 40
0.0383106463914621
 50
284.9828906160371957
 51
335.7447573845238935
  0
ARC
  5
1D09A
  8
0
 10
4472.3374222384572931
 20
-29.7330214718572883
 30
0.0
 40
0.0314950499567526
 50
269.9650086008243193
 51
359.6088944047718883
  0
LINE
  5
1D09B
  8
0
 10
4470.9831072707547719
 20
-29.7645165159406417
 30
0.0
 11
4472.3374030039549325
 21
-29.7645165159406417
 31
0.0
  0
ARC
  5
1D09D
  8
0
 10
4471.660062921694589
 20
-29.930324123274179
 30
0.0
 40
0.0093777037934153
 50
203.3879185428930896
 51
336.6470872468461266
  0
ARC
  5
1D09E
  8
0
 10
4471.6074712330428156
 20
-29.9319907379583192
 30
0.0
 40
0.0091335295056091
 50
200.9440784847959947
 51
343.4149079788052177
  0
ARC
  5
1D09F
  8
0
 10
4471.5583321557105592
 20
-29.9373624222570918
 30
0.0
 40
0.0079803558656683
 50
187.056182671520304
 51
1.7588534618941281
  0
LINE
  5
1D0A0
  8
0
 10
4471.4993351902394352
 20
-29.9444425912886487
 30
0.0
 11
4471.5100394434548434
 21
-29.9466956252861287
 31
0.0
  0
ARC
  5
1D0A1
  8
0
 10
4471.5161232459622624
 20
-29.9460572103732083
 30
0.0
 40
0.0061172074144076
 50
185.9905126791759926
 51
267.2039997354196998
  0
ARC
  5
1D0A2
  8
0
 10
4471.5160899465208786
 20
-29.9467390424795212
 30
0.0
 40
0.0054345626502517
 50
267.2039997354196998
 51
331.9894125507127001
  0
ARC
  5
1D0A3
  8
0
 10
4471.5014208496895662
 20
-29.9389358680190512
 30
0.0
 40
0.0220499751780328
 50
331.9894125507137232
 51
354.7809879201101921
  0
ARC
  5
1D0A4
  8
0
 10
4471.4643262665067596
 20
-29.9498297407794389
 30
0.0
 40
0.0246481178472212
 50
342.465140689346299
 51
10.2665527265014394
  0
ARC
  5
1D0A5
  8
0
 10
4471.4875701601486071
 20
-29.9549995195951801
 30
0.0
 40
0.0077326248268152
 50
188.7249509431275101
 51
222.8338141565822923
  0
ARC
  5
1D0A6
  8
0
 10
4471.4836583200867608
 20
-29.9586262138508594
 30
0.0
 40
0.0023982641436654
 50
222.833814156583486
 51
307.3214129818916263
  0
ARC
  5
1D0A7
  8
0
 10
4471.4793857265203769
 20
-29.9530219792483017
 30
0.0
 40
0.0094454267830156
 50
307.321412981892081
 51
333.3686632729513235
  0
LINE
  5
1D0A8
  8
0
 10
4471.4797529986553855
 20
-29.95617184198613
 30
0.0
 11
4471.4510922468452918
 21
-29.9524097622124508
 31
0.0
  0
LINE
  5
1D0A9
  8
0
 10
4471.3754160354146734
 20
-29.9877889529184998
 30
0.0
 11
4471.3752806720331137
 21
-29.9803151038101205
 31
0.0
  0
LINE
  5
1D0AA
  8
0
 10
4471.4034623631259819
 20
-30.0026180761467991
 30
0.0
 11
4471.4032320265268936
 21
-29.9921702147772997
 31
0.0
  0
LINE
  5
1D0AB
  8
0
 10
4471.4662969816281475
 20
-29.9619309333146191
 30
0.0
 11
4471.4662969816281475
 21
-29.9544055725655696
 31
0.0
  0
ARC
  5
1D0AC
  8
0
 10
4471.5151134668849409
 20
-29.9910172849979801
 30
0.0
 40
0.0243528679950625
 50
170.8053712599202925
 51
193.8097137710574884
  0
ARC
  5
1D0AD
  8
0
 10
4471.4996982704042239
 20
-29.9948063916501084
 30
0.0
 40
0.008478813321432
 50
193.8097137710591085
 51
231.7637504588979027
  0
ARC
  5
1D0AE
  8
0
 10
4471.4959569116999774
 20
-29.9995546259225314
 30
0.0
 40
0.0024336918457486
 50
231.7637504588971922
 51
301.8213243344197281
  0
ARC
  5
1D0AF
  8
0
 10
4471.4935200011987035
 20
-29.9956275558893886
 30
0.0
 40
0.0070554244038888
 50
301.8213243344204102
 51
348.620741568372523
  0
LINE
  5
1D0B0
  8
0
 10
4471.4973933250539631
 20
-29.9913441138861288
 30
0.0
 11
4471.490832838656388
 21
-29.990764573486139
 31
0.0
  0
ARC
  5
1D0B1
  8
0
 10
4471.5311938518552779
 20
-29.9998923364479211
 30
0.0
 40
0.0123061037002369
 50
177.1064049267197902
 51
221.9660015585274948
  0
ARC
  5
1D0B2
  8
0
 10
4471.5264029194831892
 20
-30.0042009664230811
 30
0.0
 40
0.0058627097773574
 50
221.9660015585295127
 51
273.0810794222945219
  0
ARC
  5
1D0B3
  8
0
 10
4471.5264029469135494
 20
-30.0042014760420308
 30
0.0
 40
0.0058621994206727
 50
273.0810794222945219
 51
339.5103067768279175
  0
LINE
  5
1D0B4
  8
0
 10
4471.5189034383538456
 20
-29.9992711083861288
 30
0.0
 11
4471.5189844123051444
 21
-29.9963341875050098
 31
0.0
  0
ARC
  5
1D0B5
  8
0
 10
4471.4948049869326496
 20
-29.9848645705123111
 30
0.0
 40
0.0206193167894493
 50
174.5528648053906977
 51
196.3345126033320014
  0
ARC
  5
1D0B6
  8
0
 10
4471.4781288412868889
 20
-29.9897519226498517
 30
0.0
 40
0.003241743755765
 50
196.3345126033206043
 51
227.296620783010809
  0
ARC
  5
1D0B7
  8
0
 10
4471.4765557039390842
 20
-29.991456513535951
 30
0.0
 40
0.0009221767263332
 50
227.2966207830014866
 51
315.125643102345407
  0
ARC
  5
1D0B8
  8
0
 10
4471.4728657733276123
 20
-29.9877637333778999
 30
0.0
 40
0.0061425393572084
 50
315.0000680212257862
 51
354.1658192908860769
  0
ARC
  5
1D0B9
  8
0
 10
4471.4809309142001439
 20
-29.9905890575467815
 30
0.0
 40
0.002943445574587
 50
97.9573961002405724
 51
131.6048858580203955
  0
LINE
  5
1D0BA
  8
0
 10
4471.4801359998546104
 20
-29.9819550258861405
 30
0.0
 11
4471.4762326839036177
 21
-29.9815835573328187
 31
0.0
  0
LINE
  5
1D0BB
  8
0
 10
4471.4486648033662277
 20
-30.0032170587007485
 30
0.0
 11
4471.4490489682239058
 21
-30.015448379852451
 31
0.0
  0
LINE
  5
1D0BC
  8
0
 10
4471.4538023005552532
 20
-30.0208211181861415
 30
0.0
 11
4471.485043909399792
 21
-30.0143282021147186
 31
0.0
  0
ARC
  5
1D0BD
  8
0
 10
4471.4545257801282787
 20
-30.0153920092748088
 30
0.0
 40
0.0054771019949945
 50
180.5897011253067888
 51
262.409521059928295
  0
LINE
  5
1D0BE
  8
0
 10
4471.4490489682239058
 20
-30.015448379852451
 30
0.0
 11
4471.4754323147990362
 21
-30.0099295647426203
 31
0.0
  0
LINE
  5
1D0BF
  8
0
 10
4471.5090309839551992
 20
-30.0253491645861388
 30
0.0
 11
4471.5154951134572912
 21
-30.0230213711764513
 31
0.0
  0
LINE
  5
1D0C0
  8
0
 10
4471.5149198590806918
 20
-30.0304398103174499
 30
0.0
 11
4471.5283690529468004
 21
-30.0256595594597897
 31
0.0
  0
LINE
  5
1D0C1
  8
0
 10
4471.5088813426291381
 20
-30.021444128037551
 30
0.0
 11
4471.5090309839551992
 21
-30.0253491645861388
 31
0.0
  0
ARC
  5
1D0C2
  8
0
 10
4471.5141405291351475
 20
-30.025389884094551
 30
0.0
 40
0.0051097074302024
 50
179.5434022980010127
 51
278.7729627507085866
  0
LINE
  5
1D0C3
  8
0
 10
4471.5866769924396067
 20
-30.0361715108291492
 30
0.0
 11
4471.5904515543506932
 21
-30.0334621200783012
 31
0.0
  0
ARC
  5
1D0C4
  8
0
 10
4471.5845284340730359
 20
-30.0314080119029683
 30
0.0
 40
0.005225631548414
 50
191.8082517426857123
 51
294.2775770996669849
  0
ARC
  5
1D0C5
  8
0
 10
4471.660101218654745
 20
-30.0336371268442903
 30
0.0
 40
0.0050573495093071
 50
208.1146760413087975
 51
331.8386145334852131
  0
LINE
  5
1D0C6
  8
0
 10
4471.5087836267475723
 20
-29.9693467139831391
 30
0.0
 11
4471.5159409434127156
 21
-29.9697454464578392
 31
0.0
  0
ARC
  5
1D0C7
  8
0
 10
4471.5160121648459608
 20
-29.9745020691853306
 30
0.0
 40
0.0047571559007542
 50
50.2017936449530211
 51
90.857831872476396
  0
ARC
  5
1D0C8
  8
0
 10
4471.4999764979529573
 20
-29.9656926762590103
 30
0.0
 40
0.0234478688527198
 50
346.705560788634898
 51
359.4337076061058269
  0
ARC
  5
1D0C9
  8
0
 10
4471.5348206086682694
 20
-29.9641091577190508
 30
0.0
 40
0.0029337645161936
 50
182.4915351920390094
 51
293.9311902337763058
  0
ARC
  5
1D0CA
  8
0
 10
4471.5341075845335581
 20
-29.9625024891617606
 30
0.0
 40
0.0046915435890302
 50
293.9311902338247933
 51
353.6715301214713918
  0
ARC
  5
1D0CB
  8
0
 10
4471.5574892343765896
 20
-29.9563812074682403
 30
0.0
 40
0.0044672093957743
 50
247.8134591089992114
 51
306.8923621756879925
  0
ARC
  5
1D0CC
  8
0
 10
4471.6083589805357406
 20
-29.9640674394764517
 30
0.0
 40
0.0062242668515766
 50
230.1502036735101058
 51
319.1594769970570269
  0
ARC
  5
1D0CD
  8
0
 10
4471.5861974947310955
 20
-29.9703582458994013
 30
0.0
 40
0.0028503769118822
 50
200.3683519288404966
 51
355.6849514921863147
  0
LINE
  5
1D0CE
  8
0
 10
4471.5762281410561627
 20
-29.9906875500861396
 30
0.0
 11
4471.5754551109539534
 21
-29.9798929866861386
 31
0.0
  0
LINE
  5
1D0CF
  8
0
 10
4471.5527110372613606
 20
-29.9774819310221012
 30
0.0
 11
4471.5774514052764061
 21
-29.9774819310221012
 31
0.0
  0
ARC
  5
1D0D0
  8
0
 10
4471.5707595323247006
 20
-29.9826878256173117
 30
0.0
 40
0.0054643923099067
 50
30.7613829251050888
 51
72.3061578276149106
  0
ARC
  5
1D0D1
  8
0
 10
4471.5449051427058293
 20
-29.9738326650279596
 30
0.0
 40
0.0327502114437865
 50
349.2306165251304719
 51
2.7242636648118288
  0
ARC
  5
1D0D2
  8
0
 10
4471.5719553744547738
 20
-29.9789777936999791
 30
0.0
 40
0.0052150087607861
 50
324.0035142884381116
 51
349.2306165251333141
  0
ARC
  5
1D0D3
  8
0
 10
4471.5958513214609411
 20
-29.9742623945038993
 30
0.0
 40
0.0211591344656821
 50
195.4327367606011023
 51
201.5745153363922952
  0
LINE
  5
1D0D4
  8
0
 10
4471.5499759148497105
 20
-29.9839673514878591
 30
0.0
 11
4471.5498245419548766
 21
-29.9897546071861392
 31
0.0
  0
LINE
  5
1D0D5
  8
0
 10
4471.5619817483493534
 20
-29.9957775732875298
 30
0.0
 11
4471.5769154930476361
 21
-29.9933605806922507
 31
0.0
  0
LINE
  5
1D0D6
  8
0
 10
4471.5566567721552929
 20
-29.9900603672861408
 30
0.0
 11
4471.5759626597591705
 21
-29.9869803791945202
 31
0.0
  0
LINE
  5
1D0D7
  8
0
 10
4471.5566567721552929
 20
-29.9900603678861408
 30
0.0
 11
4471.5498245419548766
 21
-29.9897546071861392
 31
0.0
  0
ARC
  5
1D0D8
  8
0
 10
4471.5636358482752257
 20
-29.9908212257345603
 30
0.0
 40
0.0138524314604826
 50
175.5839312043750908
 51
212.772541638697902
  0
ARC
  5
1D0D9
  8
0
 10
4471.5569049278192324
 20
-29.9953980902345307
 30
0.0
 40
0.0057190870940723
 50
210.7197028065322968
 51
256.2689801257590716
  0
ARC
  5
1D0DA
  8
0
 10
4471.5564610654500939
 20
-29.9972146122125203
 30
0.0
 40
0.0038491229502407
 50
256.2689801257590148
 51
308.7107561033215006
  0
ARC
  5
1D0DB
  8
0
 10
4471.5528091341093386
 20
-29.9926580101775002
 30
0.0
 40
0.0096885770877135
 50
308.7107564956014016
 51
341.2170717712248802
  0
ARC
  5
1D0DC
  8
0
 10
4471.5602224087206196
 20
-29.9616490251812486
 30
0.0
 40
0.0453981545051611
 50
227.8711653063674873
 51
258.0076511156581773
  0
ARC
  5
1D0DD
  8
0
 10
4471.5338460124194171
 20
-29.9908108449434607
 30
0.0
 40
0.0060773455895931
 50
181.6382222295459883
 51
227.8711653063668905
  0
ARC
  5
1D0DE
  8
0
 10
4471.5317391300823147
 20
-29.9908711021279686
 30
0.0
 40
0.0039696017469731
 50
143.2667451177723876
 51
181.6382222295443967
  0
ARC
  5
1D0DF
  8
0
 10
4471.5354715530893372
 20
-29.9936565358625984
 30
0.0
 40
0.0086268136372938
 50
116.0919034349426937
 51
143.2667451177746898
  0
ARC
  5
1D0E0
  8
0
 10
4471.6563232543066988
 20
-29.7496628651163597
 30
0.0
 40
0.2561720765464547
 50
258.8210379910836991
 51
270.8794446039461263
  0
ARC
  5
1D0E1
  8
0
 10
4471.6189319819377488
 20
-29.9388671807138493
 30
0.0
 40
0.063308445215793
 50
244.6029368474904118
 51
258.8210379910836991
  0
ARC
  5
1D0E2
  8
0
 10
4471.5960330974858152
 20
-29.9871816845881689
 30
0.0
 40
0.0098421754160952
 50
199.9939737862735001
 51
244.3952436950822005
  0
ARC
  5
1D0E3
  8
0
 10
4471.6052733535598236
 20
-30.0157682558888688
 30
0.0
 40
0.0312724589468409
 50
102.378916766964096
 51
126.2443727066308981
  0
ARC
  5
1D0E4
  8
0
 10
4471.6266165539909707
 20
-29.9841437307785093
 30
0.0
 40
0.0114532936314305
 50
179.8455823543316114
 51
234.9690520266827889
  0
ARC
  5
1D0E5
  8
0
 10
4471.6249689037213102
 20
-29.9864941161583296
 30
0.0
 40
0.0085829168536913
 50
234.969052026682192
 51
304.2522792013111825
  0
ARC
  5
1D0E6
  8
0
 10
4471.6238468709807421
 20
-29.9848463312621192
 30
0.0
 40
0.0105764445143318
 50
304.2522792013119215
 51
345.1705464508868886
  0
LINE
  5
1D0E7
  8
0
 10
4471.6151646844564311
 20
-29.98411293778614
 30
0.0
 11
4471.6151235902816552
 21
-29.9818158754564799
 31
0.0
  0
LINE
  5
1D0E8
  8
0
 10
4471.6340710347103595
 20
-29.9875532953528001
 30
0.0
 11
4471.6476121115547357
 21
-29.9826545772861408
 31
0.0
  0
ARC
  5
1D0E9
  8
0
 10
4471.6490480372349339
 20
-29.9864925733815113
 30
0.0
 40
0.004097816075456
 50
84.690762482869971
 51
110.5125431235985047
  0
ARC
  5
1D0EA
  8
0
 10
4471.6494979862991386
 20
-29.93623945916843
 30
0.0
 40
0.0458052315660833
 50
251.5166659098611035
 51
270.5463594847681179
  0
ARC
  5
1D0EB
  8
0
 10
4471.6117336922561663
 20
-22.2802842891836015
 30
0.0
 40
7.800894279691482
 50
270.3563811848728733
 51
271.3651355049673271
  0
ARC
  5
1D0EC
  8
0
 10
4471.7279845768962332
 20
-28.8286539015170007
 30
0.0
 40
1.2522460419548509
 50
273.1859879896351799
 51
282.9473685322066103
  0
ARC
  5
1D0ED
  8
0
 10
4471.5990642860970183
 20
-32.4800386962877781
 30
0.0
 40
2.571975563070179
 50
83.986952065593016
 51
88.6367256351957167
  0
ARC
  5
1D0EE
  8
0
 10
4471.7126292648981689
 20
-31.094523544072441
 30
0.0
 40
1.182625360661071
 50
77.0175027452782075
 51
82.426763795604657
  0
ARC
  5
1D0EF
  8
0
 10
4471.933396888448442
 20
-30.1369394109180284
 30
0.0
 40
0.1999220912671979
 50
61.6388614223460323
 51
77.0175027452782075
  0
LINE
  5
1D0F0
  8
0
 10
4472.0283653735550615
 20
-29.9610137748861405
 30
0.0
 11
4472.0283653800543107
 21
-29.985345665286129
 31
0.0
  0
LINE
  5
1D0F1
  8
0
 10
4471.8623988077551985
 20
-29.9905343701861291
 30
0.0
 11
4471.8639423862587137
 21
-29.9664377872793004
 31
0.0
  0
LINE
  5
1D0F2
  8
0
 10
4471.8489013344551495
 20
-29.9906033255861288
 30
0.0
 11
4471.8490904446553031
 21
-29.9853710626861414
 31
0.0
  0
LINE
  5
1D0F3
  8
0
 10
4471.8033436895557315
 20
-29.9905343701861291
 30
0.0
 11
4471.8045693312969888
 21
-29.9697454464578392
 31
0.0
  0
ARC
  5
1D0F4
  8
0
 10
4471.9925176798760731
 20
-29.9842951030878417
 30
0.0
 40
0.0358606415984187
 50
317.7414273755546787
 51
358.3533684716725816
  0
ARC
  5
1D0F5
  8
0
 10
4471.9609235739198994
 20
-29.9555884092628908
 30
0.0
 40
0.0785486001050781
 50
295.1338360319143135
 51
317.7414273755550767
  0
ARC
  5
1D0F6
  8
0
 10
4471.864473786437884
 20
-29.7500062943385615
 30
0.0
 40
0.3056313327863704
 50
285.3148834525509869
 51
295.1338360319143135
  0
ARC
  5
1D0F7
  8
0
 10
4471.8024315989050592
 20
-29.5234494942669592
 30
0.0
 40
0.5405296441738602
 50
279.9202807827930997
 51
285.3148834525509869
  0
ARC
  5
1D0F8
  8
0
 10
4471.700729999080977
 20
-28.9419409797057305
 30
0.0
 40
1.130864606643307
 50
276.940105059792927
 51
279.9202807827930997
  0
ARC
  5
1D0F9
  8
0
 10
4471.6945774412643004
 20
-28.8913956525020801
 30
0.0
 40
1.181783012645629
 50
273.1771818495773232
 51
276.940105059792927
  0
ARC
  5
1D0FA
  8
0
 10
4471.6229755520043909
 20
-27.6014851583035501
 30
0.0
 40
2.4736792598687449
 50
272.1300069281542733
 51
273.1771818495773232
  0
ARC
  5
1D0FB
  8
0
 10
4471.6540417062769848
 20
-27.9869683167410912
 30
0.0
 40
2.087374751425437
 50
270.1705510247310258
 51
271.6711304160726854
  0
ARC
  5
1D0FC
  8
0
 10
4471.9111439391699605
 20
-30.0194442676363416
 30
0.0
 40
0.051893389930889
 50
42.0661859805050398
 51
64.593555556413591
  0
ARC
  5
1D0FD
  8
0
 10
4471.8239236662120675
 20
-30.200650261333319
 30
0.0
 40
0.2529972584256228
 50
64.3578210874414935
 51
69.0162560330969228
  0
ARC
  5
1D0FE
  8
0
 10
4471.8405261698098911
 20
-30.157362555500189
 30
0.0
 40
0.2066348965138677
 50
69.0162560330969228
 51
78.5041192974724567
  0
ARC
  5
1D0FF
  8
0
 10
4471.441681552866612
 20
-32.1184681628751534
 30
0.0
 40
2.207887562156523
 50
78.5041192974724567
 51
79.7364129012658367
  0
ARC
  5
1D100
  8
0
 10
4471.6973637247338047
 20
-30.8502472742591713
 30
0.0
 40
0.9147624226958493
 50
81.3415221216413755
 51
84.4885927172343543
  0
ARC
  5
1D101
  8
0
 10
4471.6734234836030737
 20
-31.0888565713476694
 30
0.0
 40
1.154568327450548
 50
84.4433050076722367
 51
86.240435812370194
  0
ARC
  5
1D102
  8
0
 10
4471.6625954129422098
 20
-31.2574423696880999
 30
0.0
 40
1.323501344580144
 50
86.2512304921854138
 51
88.7838639129060851
  0
ARC
  5
1D103
  8
0
 10
4471.7000159191620696
 20
-27.6704515326161413
 30
0.0
 40
2.2638068451523989
 50
268.9936234455275894
 51
269.7638483614533129
  0
ARC
  5
1D104
  8
0
 10
4471.9343883190686029
 20
-29.9975395697531191
 30
0.0
 40
0.0199733807029533
 50
21.1870782828280397
 51
40.092335029668611
  0
ARC
  5
1D105
  8
0
 10
4471.9411372885870151
 20
-29.9949235679056514
 30
0.0
 40
0.0127351450601648
 50
344.7376996142633061
 51
21.1870782828284092
  0
ARC
  5
1D106
  8
0
 10
4471.9357678948190369
 20
-29.9934584646812787
 30
0.0
 40
0.0183008361139616
 50
312.5174900039447721
 51
344.7376996142625103
  0
ARC
  5
1D107
  8
0
 10
4471.8974054256541422
 20
-29.9516188244915718
 30
0.0
 40
0.0750655657580142
 50
290.0778345158104798
 51
312.5174900039444879
  0
ARC
  5
1D108
  8
0
 10
4471.8168037085733886
 20
-29.7541210180316007
 30
0.0
 40
0.2883394674256173
 50
282.4235991221362951
 51
291.6484398781237815
  0
ARC
  5
1D109
  8
0
 10
4471.7276323342066462
 20
-29.3587766761795486
 30
0.0
 40
0.6936134114936483
 50
276.4194415524399915
 51
282.5912778828342198
  0
ARC
  5
1D10A
  8
0
 10
4471.6702821132957979
 20
-28.8763298653558209
 30
0.0
 40
1.1794513495172749
 50
271.9664464863561193
 51
276.5676117650631909
  0
ARC
  5
1D10B
  8
0
 10
4471.5643482979739929
 20
-23.3336392524427687
 30
0.0
 40
6.7230416834813127
 50
270.817374601278118
 51
271.2478126298473171
  0
ARC
  5
1D10C
  8
0
 10
4471.8847818631757036
 20
-30.1521418218255199
 30
0.0
 40
0.2013025431459685
 50
57.0240667798174812
 51
78.5094603993058655
  0
ARC
  5
1D10D
  8
0
 10
4471.7757464386922948
 20
-30.5617439021480486
 30
0.0
 40
0.6249262585051589
 50
76.1933625425433121
 51
80.2512972342559863
  0
ARC
  5
1D10E
  8
0
 10
4471.7213957212770765
 20
-30.8738369803911006
 30
0.0
 40
0.9417160088397778
 50
80.2074884340167387
 51
83.5373302838383722
  0
ARC
  5
1D10F
  8
0
 10
4471.6875872351865837
 20
-31.1511686620603605
 30
0.0
 40
1.2210930176070851
 50
83.4257341438558768
 51
85.3547852473006259
  0
ARC
  5
1D110
  8
0
 10
4471.6663925028024096
 20
-31.4148431043283196
 30
0.0
 40
1.4856178466833541
 50
85.3636052779644814
 51
87.9010994604225999
  0
ARC
  5
1D111
  8
0
 10
4471.6599183986791104
 20
-31.5914893990429597
 30
0.0
 40
1.662382739862367
 50
87.9010935086225373
 51
89.9883939452666652
  0
ARC
  5
1D112
  8
0
 10
4471.6446985657967161
 20
-31.6124477495448915
 30
0.0
 40
1.6824374116601639
 50
84.1393332202499948
 51
89.4702099530421009
  0
ARC
  5
1D113
  8
0
 10
4471.9488782364423969
 20
-29.9981764641343496
 30
0.0
 40
0.0237188885360708
 50
10.55527517844118
 51
57.1607257860443312
  0
ARC
  5
1D114
  8
0
 10
4471.9011467162827103
 20
-30.0618086022436195
 30
0.0
 40
0.1032182149361665
 50
54.0522965051882309
 51
69.1804714162662151
  0
ARC
  5
1D115
  8
0
 10
4471.8303750256682179
 20
-30.2407394953124182
 30
0.0
 40
0.2956308423258473
 50
68.685476332607621
 51
76.6956976528145731
  0
ARC
  5
1D116
  8
0
 10
4471.7410960125789643
 20
-30.6158510173581284
 30
0.0
 40
0.6812319100460975
 50
76.6381639808356852
 51
83.6457455236298415
  0
ARC
  5
1D117
  8
0
 10
4471.9580098611968424
 20
-29.9949962031299009
 30
0.0
 40
0.0142336368625052
 50
332.7153689356831023
 51
4.6934462801175352
  0
ARC
  5
1D118
  8
0
 10
4471.9468986932315602
 20
-29.98926507560979
 30
0.0
 40
0.0267357917238473
 50
308.3202835632802135
 51
332.7153689356841824
  0
ARC
  5
1D119
  8
0
 10
4471.9091106563082576
 20
-29.9414519321143402
 30
0.0
 40
0.0876786536974583
 50
296.9752491550150921
 51
308.3202835632798724
  0
ARC
  5
1D11A
  8
0
 10
4471.8464947805841803
 20
-29.8017275140307589
 30
0.0
 40
0.2407235771105276
 50
283.3291271603233099
 51
295.1716691591307153
  0
ARC
  5
1D11B
  8
0
 10
4471.7319754089330672
 20
-29.3274287860187108
 30
0.0
 40
0.7286503444124343
 50
275.8491521298836915
 51
283.4932726401016794
  0
ARC
  5
1D11C
  8
0
 10
4471.6537013269480667
 20
-28.5633549718287512
 30
0.0
 40
1.4967230137878731
 50
272.3955118592796225
 51
275.8491521298836915
  0
ARC
  5
1D11D
  8
0
 10
4471.9368736131937112
 20
-43.2730297435336126
 30
0.0
 40
13.2161011826436692
 50
90.9564689736549639
 51
91.1993119914532713
  0
ARC
  5
1D11E
  8
0
 10
4471.9779945148820843
 20
-30.0056893161447213
 30
0.0
 40
0.0277506830887167
 50
20.8018929292020687
 51
53.8922176301549811
  0
ARC
  5
1D11F
  8
0
 10
4471.990328651814707
 20
-30.0009599521656902
 30
0.0
 40
0.0145410408748585
 50
325.9570672001752882
 51
20.6413004394196484
  0
ARC
  5
1D120
  8
0
 10
4471.9534172879421021
 20
-29.9724556305772794
 30
0.0
 40
0.0611529212769991
 50
292.8133194873955176
 51
323.2272472492570046
  0
ARC
  5
1D121
  8
0
 10
4471.8277877738282768
 20
-29.6737892003315586
 30
0.0
 40
0.3851659015297335
 50
283.3355517928750942
 51
292.8133194873955176
  0
ARC
  5
1D122
  8
0
 10
4471.7673939107062324
 20
-29.4190114163055512
 30
0.0
 40
0.6470039009415974
 50
275.8961798237363041
 51
283.3355517928750942
  0
ARC
  5
1D123
  8
0
 10
4471.5951408823848396
 20
-27.7510656776709297
 30
0.0
 40
2.3238205554375542
 50
273.4998200643120754
 51
275.8961798237363041
  0
ARC
  5
1D124
  8
0
 10
4471.6431547488773504
 20
-27.7062798747906989
 30
0.0
 40
2.366134158656918
 50
270.414088361668405
 51
272.2730393030963114
  0
ARC
  5
1D125
  8
0
 10
4471.7330809173536181
 20
-29.9892810979797098
 30
0.0
 40
0.01127756719745
 50
298.9708043728726921
 51
353.6168683502132239
  0
ARC
  5
1D126
  8
0
 10
4471.7052383020427442
 20
-29.9389912729040404
 30
0.0
 40
0.0687604144954452
 50
290.848448411097479
 51
298.9708043728729194
  0
ARC
  5
1D127
  8
0
 10
4471.6958108374501535
 20
-29.9018752946151913
 30
0.0
 40
0.1068920031730655
 50
280.5902837647342949
 51
288.489702350779794
  0
ARC
  5
1D128
  8
0
 10
4471.6682326791524247
 20
-29.7502771046529091
 30
0.0
 40
0.2609774786971966
 50
272.8889778718145749
 51
280.4249642566023795
  0
ARC
  5
1D129
  8
0
 10
4460.903199700526784
 20
356.0983972878826194
 30
0.0
 40
386.2597266593031122
 50
271.5958525608713217
 51
271.5989882460660851
  0
ARC
  5
1D12A
  8
0
 10
4471.8433977560753192
 20
-29.9886479313084706
 30
0.0
 40
0.0190944655967343
 50
302.8108815202581923
 51
354.3302114381231718
  0
ARC
  5
1D12B
  8
0
 10
4471.8025696686763695
 20
-29.9297440318261501
 30
0.0
 40
0.0907561265860627
 50
286.6790726748013753
 51
304.3239407236873717
  0
ARC
  5
1D12C
  8
0
 10
4471.7359995219667326
 20
-29.7189665046625997
 30
0.0
 40
0.31178922418325
 50
277.1903696979380811
 51
287.2807231940312818
  0
ARC
  5
1D12D
  8
0
 10
4471.6753978679143984
 20
-29.3584068218645804
 30
0.0
 40
0.6772646930384234
 50
272.1888145927568985
 51
278.4590393379767193
  0
ARC
  5
1D12E
  8
0
 10
4471.6458534567227616
 20
-28.4289102586564688
 30
0.0
 40
1.607222583759375
 50
270.5134115020367176
 51
271.975734833249021
  0
ARC
  5
1D12F
  8
0
 10
4471.8323483161148033
 20
-29.9891718214691103
 30
0.0
 40
0.0166139320201878
 50
314.1567215290386912
 51
355.1177328284713894
  0
ARC
  5
1D130
  8
0
 10
4471.8159658365930227
 20
-29.9726136752273185
 30
0.0
 40
0.0399063760049758
 50
297.3441609935549081
 51
314.4705866393989027
  0
ARC
  5
1D131
  8
0
 10
4471.7694733887783514
 20
-29.8760113484207892
 30
0.0
 40
0.1471024181338633
 50
280.338423156372528
 51
296.1462876338067076
  0
ARC
  5
1D132
  8
0
 10
4471.6372663512947838
 20
-29.1512860034567609
 30
0.0
 40
0.8837879184618046
 50
275.3587541379839081
 51
280.338423156372528
  0
ARC
  5
1D133
  8
0
 10
4471.6512582950435899
 20
-28.905666943429221
 30
0.0
 40
1.127629672625259
 50
270.4571417150845036
 51
273.485048394600085
  0
ARC
  5
1D134
  8
0
 10
4471.8304131821041665
 20
-30.0041529649771306
 30
0.0
 40
0.0264877328226709
 50
45.1600516155225975
 51
59.4817721951647016
  0
ARC
  5
1D135
  8
0
 10
4471.7992145729413096
 20
-30.0570791830175885
 30
0.0
 40
0.0879249997681148
 50
59.4817721951647016
 51
73.6167253895242339
  0
ARC
  5
1D136
  8
0
 10
4471.7224952722272064
 20
-30.3180302209233012
 30
0.0
 40
0.3599200278221954
 50
73.6167253895242339
 51
81.5451714359246154
  0
ARC
  5
1D137
  8
0
 10
4471.6759226316071363
 20
-30.6313445626614183
 30
0.0
 40
0.6766768550462678
 50
81.5451714359246154
 51
87.5479315353447589
  0
ARC
  5
1D138
  8
0
 10
4471.6539436215398382
 20
-31.1445992333929702
 30
0.0
 40
1.1904019117753479
 50
87.5479315353447589
 51
89.6962161188833562
  0
ARC
  5
1D139
  8
0
 10
4471.7079361064688783
 20
-29.7936691495593209
 30
0.0
 40
0.2211914949683095
 50
278.6351340820177143
 51
286.2200101167435946
  0
ARC
  5
1D13A
  8
0
 10
4471.6677625356842327
 20
-29.5303352762738385
 30
0.0
 40
0.4875721057088755
 50
271.9067532621547798
 51
278.6563811881637776
  0
ARC
  5
1D13B
  8
0
 10
4471.6603334747032932
 20
-29.3902528476044509
 30
0.0
 40
0.6278302420708121
 50
269.9928509346922283
 51
272.1589955547460136
  0
ARC
  5
1D13C
  8
0
 10
4471.7889781763506107
 20
-29.9892165991265607
 30
0.0
 40
0.0144258271750301
 50
306.9997227613400241
 51
354.758838550656094
  0
ARC
  5
1D13D
  8
0
 10
4471.7651137272559936
 20
-29.9575470867052687
 30
0.0
 40
0.0540802083651063
 50
290.5394489904347211
 51
306.9997227613400241
  0
ARC
  5
1D13E
  8
0
 10
4471.703376226416367
 20
-29.7658451409618401
 30
0.0
 40
0.2554312866245422
 50
276.1725920332941087
 51
288.4200999565634902
  0
ARC
  5
1D13F
  8
0
 10
4471.6657731714321926
 20
-29.4741663494172812
 30
0.0
 40
0.5494953028253642
 50
272.214075680291387
 51
276.8005847459609186
  0
ARC
  5
1D140
  8
0
 10
4471.6452686855709544
 20
-28.6153708089662118
 30
0.0
 40
1.408499027439138
 50
270.6096394975950261
 51
271.6979010131826158
  0
ARC
  5
1D141
  8
0
 10
4471.7641227024087129
 20
-30.0234249671108913
 30
0.0
 40
0.0449227161716144
 50
56.6288578723337395
 51
70.1747340979669332
  0
ARC
  5
1D142
  8
0
 10
4471.7245973742001297
 20
-30.1330590746787408
 30
0.0
 40
0.161464078409479
 50
70.1747340979669332
 51
78.4708439682106587
  0
ARC
  5
1D143
  8
0
 10
4471.681745541143755
 20
-30.3431353208433485
 30
0.0
 40
0.3758662910819214
 50
78.4708439682106587
 51
85.4547680440800264
  0
ARC
  5
1D144
  8
0
 10
4471.6548814191910424
 20
-30.6810644863451287
 30
0.0
 40
0.7148615741538502
 50
85.4547621568094371
 51
89.5692952566878944
  0
LINE
  5
1D145
  8
0
 10
4471.868362906555376
 20
-29.971958268586139
 30
0.0
 11
4471.9321252522431678
 21
-29.9719582642030602
 31
0.0
  0
ARC
  5
1D146
  8
0
 10
4471.9299653151892926
 20
-29.986700004548311
 30
0.0
 40
0.0151680635917703
 50
332.4486629162805116
 51
355.8830693116779003
  0
ARC
  5
1D147
  8
0
 10
4471.9108874861412914
 20
-30.0028381333847101
 30
0.0
 40
0.0061643545348262
 50
298.4811413407663281
 51
2.0457990210759491
  0
LINE
  5
1D148
  8
0
 10
4471.8678389798551507
 20
-29.9777932812361385
 30
0.0
 11
4471.9419482924286058
 21
-29.9777427832414389
 31
0.0
  0
LINE
  5
1D149
  8
0
 10
4471.9538587634460782
 20
-29.9943336550964901
 30
0.0
 11
4471.8625015409170373
 21
-29.9889306175162602
 31
0.0
  0
LINE
  5
1D14A
  8
0
 10
4471.9170479115837225
 20
-30.0026180761467991
 30
0.0
 11
4471.8610624006487342
 21
-29.9958976863715598
 31
0.0
  0
LINE
  5
1D14B
  8
0
 10
4471.9138270787152578
 20
-30.008256441456961
 30
0.0
 11
4471.8575216107055894
 21
-30.0014976529700199
 31
0.0
  0
LINE
  5
1D14C
  8
0
 10
4471.8678389798551507
 20
-29.9777932812361385
 30
0.0
 11
4471.868362906555376
 21
-29.971958268586139
 31
0.0
  0
ARC
  5
1D14D
  8
0
 10
4471.8682045575960728
 20
-29.9620909490370799
 30
0.0
 40
0.0098685918420765
 50
242.5782186986677118
 51
270.9193922490308069
  0
ARC
  5
1D14E
  8
0
 10
4471.8680027436639648
 20
-29.9828987263081892
 30
0.0
 40
0.0051080708656993
 50
91.8372069324576188
 51
178.5217927986346069
  0
LINE
  5
1D14F
  8
0
 10
4471.945094239295031
 20
-29.9877889529184998
 30
0.0
 11
4471.8628681104773932
 21
-29.9832081526201186
 31
0.0
  0
ARC
  5
1D150
  8
0
 10
4471.8613742886336695
 20
-29.9718949261215997
 30
0.0
 40
0.0053059036817219
 50
93.4656493028735724
 51
169.2598436177009944
  0
ARC
  5
1D151
  8
0
 10
4471.8704143603636112
 20
-29.9631137130742182
 30
0.0
 40
0.0162441850835799
 50
175.8244558268364983
 51
208.6668082203026131
  0
LINE
  5
1D152
  8
0
 10
4471.8610535461521067
 20
-29.9665987257723501
 30
0.0
 11
4471.9126521615617094
 21
-29.9637241766306914
 31
0.0
  0
LINE
  5
1D153
  8
0
 10
4471.8399868414626326
 20
-29.9876739535823198
 30
0.0
 11
4471.803623682882062
 21
-29.9857852173766517
 31
0.0
  0
LINE
  5
1D154
  8
0
 10
4471.8231169496548318
 20
-29.9913441138861288
 30
0.0
 11
4471.803435314656781
 21
-29.9889802559633907
 31
0.0
  0
LINE
  5
1D155
  8
0
 10
4471.8200735399541372
 20
-29.9970196084861307
 30
0.0
 11
4471.8022529297377332
 21
-29.9948633160621512
 31
0.0
  0
LINE
  5
1D156
  8
0
 10
4471.8371475081221433
 20
-29.9777759461861386
 30
0.0
 11
4471.8087765841555665
 21
-29.9777759461861386
 31
0.0
  0
ARC
  5
1D157
  8
0
 10
4471.8090153386237944
 20
-29.9829943516297988
 30
0.0
 40
0.0052288185908916
 50
93.2353421748905333
 51
172.949049143191786
  0
LINE
  5
1D158
  8
0
 10
4471.8403748037881087
 20
-29.9819550553690704
 30
0.0
 11
4471.8047496409681116
 21
-29.9799703861268583
 31
0.0
  0
ARC
  5
1D159
  8
0
 10
4471.7980254534595588
 20
-29.9711208496707293
 30
0.0
 40
0.0034385809367593
 50
294.2037425346135251
 51
4.5657289834051147
  0
ARC
  5
1D15A
  8
0
 10
4471.8023741406832414
 20
-29.9706099205650283
 30
0.0
 40
0.0046839761054912
 50
185.8168666611493904
 51
231.138264641465895
  0
ARC
  5
1D15B
  8
0
 10
4471.7822887083093519
 20
-29.9850538854077691
 30
0.0
 40
0.006599808076253
 50
326.0296983643351041
 51
352.5564759754017814
  0
ARC
  5
1D15C
  8
0
 10
4471.7869095591604491
 20
-29.9881672050349408
 30
0.0
 40
0.0010280021132229
 50
220.9286754049167882
 51
326.0296983643182784
  0
ARC
  5
1D15D
  8
0
 10
4471.7933351462434075
 20
-29.9825955555474408
 30
0.0
 40
0.0095327917855185
 50
182.7173911871678058
 51
220.928675404916504
  0
LINE
  5
1D15E
  8
0
 10
4471.7826323937551933
 20
-29.9845725100861387
 30
0.0
 11
4471.7448553730328058
 21
-29.9826828568495607
 31
0.0
  0
ARC
  5
1D15F
  8
0
 10
4471.7820059154018963
 20
-29.9832155221980301
 30
0.0
 40
0.0014946207732095
 50
294.7812752222787935
 51
13.0449782379974302
  0
ARC
  5
1D160
  8
0
 10
4471.6751748095321091
 20
-30.17053575334063
 30
0.0
 40
0.1911228654381994
 50
75.8363866291461761
 51
86.0623328464289301
  0
ARC
  5
1D161
  8
0
 10
4471.6559475559588464
 20
-30.4498649814628806
 30
0.0
 40
0.4711130527008226
 50
86.0623328464289301
 51
89.4761137023114514
  0
ARC
  5
1D162
  8
0
 10
4471.6592912537853408
 20
-29.8286756799044603
 30
0.0
 40
0.1541882184752179
 50
270.3581779515303083
 51
274.3860754708053946
  0
ARC
  5
1D163
  8
0
 10
4471.6647170370961248
 20
-29.9268459631746708
 30
0.0
 40
0.0555066778733346
 50
274.2019484014614932
 51
288.4806632080945974
  0
ARC
  5
1D164
  8
0
 10
4471.6548453514360517
 20
-29.7334299443003403
 30
0.0
 40
0.2491636828251332
 50
271.2440908534304072
 51
273.2069290365053007
  0
ARC
  5
1D165
  8
0
 10
4471.7130390416668888
 20
-29.9319907379583192
 30
0.0
 40
0.0091335295056091
 50
196.5850920211948107
 51
339.0559215152039769
  0
ARC
  5
1D166
  8
0
 10
4471.7621781189991452
 20
-29.9373624222570918
 30
0.0
 40
0.0079803558656683
 50
178.2411465381057951
 51
352.9438173284797244
  0
LINE
  5
1D167
  8
0
 10
4471.8211750844702692
 20
-29.9444425912886487
 30
0.0
 11
4471.8104708312557705
 21
-29.9466956252861287
 31
0.0
  0
ARC
  5
1D168
  8
0
 10
4471.8043870287483514
 20
-29.9460572103732083
 30
0.0
 40
0.0061172074144076
 50
272.7960002645803002
 51
354.0094873208238937
  0
ARC
  5
1D169
  8
0
 10
4471.8044203281888258
 20
-29.9467390424795212
 30
0.0
 40
0.0054345626502517
 50
208.0105874492872999
 51
272.7960002645803002
  0
ARC
  5
1D16A
  8
0
 10
4471.8190894250201382
 20
-29.9389358680190512
 30
0.0
 40
0.0220499751780328
 50
185.2190120798898079
 51
208.0105874492863052
  0
ARC
  5
1D16B
  8
0
 10
4471.8561840082038543
 20
-29.9498297407794389
 30
0.0
 40
0.0246481178472212
 50
169.7334472734985127
 51
197.534859310653701
  0
ARC
  5
1D16C
  8
0
 10
4471.8329401145620068
 20
-29.9549995195951801
 30
0.0
 40
0.0077326248268152
 50
317.1661858434176793
 51
351.2750490568724899
  0
ARC
  5
1D16D
  8
0
 10
4471.8368519546229436
 20
-29.9586262138508594
 30
0.0
 40
0.0023982641436654
 50
232.6785870181084022
 51
317.1661858434164856
  0
ARC
  5
1D16E
  8
0
 10
4471.841124548190237
 20
-29.9530219792483017
 30
0.0
 40
0.0094454267830156
 50
206.6313367270485912
 51
232.6785870181078906
  0
LINE
  5
1D16F
  8
0
 10
4471.8407572760552284
 20
-29.95617184198613
 30
0.0
 11
4471.8694180278653221
 21
-29.9524097622124508
 31
0.0
  0
LINE
  5
1D170
  8
0
 10
4471.945094239295031
 20
-29.9877889529184998
 30
0.0
 11
4471.9452296026765907
 21
-29.9803151038101205
 31
0.0
  0
LINE
  5
1D171
  8
0
 10
4471.9170479115837225
 20
-30.0026180761467991
 30
0.0
 11
4471.9172782481828108
 21
-29.9921702147772997
 31
0.0
  0
LINE
  5
1D172
  8
0
 10
4471.8542132930833759
 20
-29.9619309333146191
 30
0.0
 11
4471.8542132930833759
 21
-29.9544055725655696
 31
0.0
  0
ARC
  5
1D173
  8
0
 10
4471.8053968078247635
 20
-29.9910172849979801
 30
0.0
 40
0.0243528679950625
 50
346.1902862289425116
 51
9.1946287400797164
  0
ARC
  5
1D174
  8
0
 10
4471.82081200430639
 20
-29.9948063916501084
 30
0.0
 40
0.008478813321432
 50
308.2362495411019836
 51
346.19028622894092
  0
ARC
  5
1D175
  8
0
 10
4471.8245533630088175
 20
-29.9995546259225314
 30
0.0
 40
0.0024336918457486
 50
238.1786756655803003
 51
308.2362495411027794
  0
ARC
  5
1D176
  8
0
 10
4471.8269902735119103
 20
-29.9956275558893886
 30
0.0
 40
0.0070554244038888
 50
191.3792584316273917
 51
238.1786756655797035
  0
LINE
  5
1D177
  8
0
 10
4471.8231169496548318
 20
-29.9913441138861288
 30
0.0
 11
4471.8296774360551353
 21
-29.990764573486139
 31
0.0
  0
ARC
  5
1D178
  8
0
 10
4471.7893164228562455
 20
-29.9998923364479211
 30
0.0
 40
0.0123061037002369
 50
318.0339984414724768
 51
2.8935950732802032
  0
ARC
  5
1D179
  8
0
 10
4471.7941073552274247
 20
-30.0042009664230811
 30
0.0
 40
0.0058627097773574
 50
266.9189205777054781
 51
318.0339984414703736
  0
ARC
  5
1D17A
  8
0
 10
4471.794107327796155
 20
-30.0042014760420308
 30
0.0
 40
0.0058621994206727
 50
200.4896932231721962
 51
266.9189205777054781
  0
LINE
  5
1D17B
  8
0
 10
4471.8016068363558588
 20
-29.9992711083861288
 30
0.0
 11
4471.801525862406379
 21
-29.9963341875050098
 31
0.0
  0
ARC
  5
1D17C
  8
0
 10
4471.8257052877770548
 20
-29.9848645705123111
 30
0.0
 40
0.0206193167894493
 50
343.665487396668027
 51
5.4471351946092961
  0
ARC
  5
1D17D
  8
0
 10
4471.842381433423725
 20
-29.9897519226498517
 30
0.0
 40
0.003241743755765
 50
312.7033792169892195
 51
343.665487396679282
  0
ARC
  5
1D17E
  8
0
 10
4471.8439545707706202
 20
-29.991456513535951
 30
0.0
 40
0.0009221767263332
 50
224.874356897654593
 51
312.7033792169985986
  0
ARC
  5
1D17F
  8
0
 10
4471.8476445013820921
 20
-29.9877637333778999
 30
0.0
 40
0.0061425393572084
 50
185.8341807091138946
 51
224.9999319787741001
  0
ARC
  5
1D180
  8
0
 10
4471.8395793605095605
 20
-29.9905890575467815
 30
0.0
 40
0.002943445574587
 50
48.395114141979569
 51
82.0426038997594418
  0
LINE
  5
1D181
  8
0
 10
4471.8403742748541845
 20
-29.9819550258861405
 30
0.0
 11
4471.8442775908060867
 21
-29.9815835573328187
 31
0.0
  0
LINE
  5
1D182
  8
0
 10
4471.8718454713443862
 20
-30.0032170587007485
 30
0.0
 11
4471.8714613064857986
 21
-30.015448379852451
 31
0.0
  0
LINE
  5
1D183
  8
0
 10
4471.8667079741562702
 20
-30.0208211181861415
 30
0.0
 11
4471.8354663653108219
 21
-30.0143282021147186
 31
0.0
  0
ARC
  5
1D184
  8
0
 10
4471.8659844945823352
 20
-30.0153920092748088
 30
0.0
 40
0.0054771019949945
 50
277.5904789400715913
 51
359.410298874693126
  0
LINE
  5
1D185
  8
0
 10
4471.8714613064857986
 20
-30.015448379852451
 30
0.0
 11
4471.8450779599106681
 21
-30.0099295647426203
 31
0.0
  0
LINE
  5
1D186
  8
0
 10
4471.8114792907563242
 20
-30.0253491645861388
 30
0.0
 11
4471.8050151612542322
 21
-30.0230213711764513
 31
0.0
  0
LINE
  5
1D187
  8
0
 10
4471.8055904156290126
 20
-30.0304398103174499
 30
0.0
 11
4471.7921412217619945
 21
-30.0256595594597897
 31
0.0
  0
LINE
  5
1D188
  8
0
 10
4471.8116289320823853
 20
-30.021444128037551
 30
0.0
 11
4471.8114792907563242
 21
-30.0253491645861388
 31
0.0
  0
ARC
  5
1D189
  8
0
 10
4471.8063697455745569
 20
-30.025389884094551
 30
0.0
 40
0.0051097074302024
 50
261.2270372492915271
 51
0.4565977019989909
  0
LINE
  5
1D18A
  8
0
 10
4471.7338332822700977
 20
-30.0361715108291492
 30
0.0
 11
4471.7300587203599207
 21
-30.0334621200783012
 31
0.0
  0
ARC
  5
1D18B
  8
0
 10
4471.7359818406366685
 20
-30.0314080119029683
 30
0.0
 40
0.005225631548414
 50
245.7224229003331004
 51
348.1917482573142024
  0
LINE
  5
1D18C
  8
0
 10
4471.8117266479621321
 20
-29.9693467139831391
 30
0.0
 11
4471.8045693312969888
 21
-29.9697454464578392
 31
0.0
  0
ARC
  5
1D18D
  8
0
 10
4471.8044981098646531
 20
-29.9745020691853306
 30
0.0
 40
0.0047571559007542
 50
89.1421681275235898
 51
129.7982063550468865
  0
ARC
  5
1D18E
  8
0
 10
4471.8205337767576566
 20
-29.9656926762590103
 30
0.0
 40
0.0234478688527198
 50
180.5662923938942015
 51
193.294439211365102
  0
ARC
  5
1D18F
  8
0
 10
4471.7856896660423445
 20
-29.9641091577190508
 30
0.0
 40
0.0029337645161936
 50
246.0688097662236942
 51
357.5084648079608769
  0
ARC
  5
1D190
  8
0
 10
4471.7864026901770558
 20
-29.9625024891617606
 30
0.0
 40
0.0046915435890302
 50
186.3284698785284945
 51
246.0688097661752067
  0
ARC
  5
1D191
  8
0
 10
4471.7630210403340243
 20
-29.9563812074682403
 30
0.0
 40
0.0044672093957743
 50
233.1076378243120928
 51
292.1865408910007886
  0
ARC
  5
1D192
  8
0
 10
4471.7121512941730543
 20
-29.9640674394764517
 30
0.0
 40
0.0062242668515766
 50
220.8405230029426889
 51
309.8497963264899226
  0
ARC
  5
1D193
  8
0
 10
4471.7343127799786089
 20
-29.9703582458994013
 30
0.0
 40
0.0028503769118822
 50
184.3150485078136001
 51
339.631648071159475
  0
LINE
  5
1D194
  8
0
 10
4471.7442821336553607
 20
-29.9906875500861396
 30
0.0
 11
4471.745055163755751
 21
-29.9798929866861386
 31
0.0
  0
LINE
  5
1D195
  8
0
 10
4471.7677992374501628
 20
-29.9774819310221012
 30
0.0
 11
4471.7430588694342077
 21
-29.9774819310221012
 31
0.0
  0
ARC
  5
1D196
  8
0
 10
4471.7497507423850038
 20
-29.9826878256173117
 30
0.0
 40
0.0054643923099067
 50
107.6938421723851036
 51
149.2386170748949041
  0
ARC
  5
1D197
  8
0
 10
4471.7756051320047845
 20
-29.9738326650279596
 30
0.0
 40
0.0327502114437865
 50
177.2757363351882134
 51
190.7693834748694997
  0
ARC
  5
1D198
  8
0
 10
4471.7485549002549305
 20
-29.9789777936999791
 30
0.0
 40
0.0052150087607861
 50
190.7693834748666859
 51
215.9964857115618884
  0
ARC
  5
1D199
  8
0
 10
4471.7246589532496728
 20
-29.9742623945038993
 30
0.0
 40
0.0211591344656821
 50
338.4254846636076763
 51
344.5672632393989261
  0
LINE
  5
1D19A
  8
0
 10
4471.7705343598599939
 20
-29.9839673514878591
 30
0.0
 11
4471.7706857327557373
 21
-29.9897546071861392
 31
0.0
  0
LINE
  5
1D19B
  8
0
 10
4471.7585285263612604
 20
-29.9957775732875298
 30
0.0
 11
4471.7435947816620683
 21
-29.9933605806922507
 31
0.0
  0
LINE
  5
1D19C
  8
0
 10
4471.763853502555321
 20
-29.9900603672861408
 30
0.0
 11
4471.7445476149514434
 21
-29.9869803791945202
 31
0.0
  0
LINE
  5
1D19D
  8
0
 10
4471.763853502555321
 20
-29.9900603678861408
 30
0.0
 11
4471.7706857327557373
 21
-29.9897546071861392
 31
0.0
  0
ARC
  5
1D19E
  8
0
 10
4471.7568744264362977
 20
-29.9908212257345603
 30
0.0
 40
0.0138524314604826
 50
327.2274583613017853
 51
4.416068795624879
  0
ARC
  5
1D19F
  8
0
 10
4471.7636053468913815
 20
-29.9953980902345307
 30
0.0
 40
0.0057190870940723
 50
283.7310198742409284
 51
329.2802971934672769
  0
ARC
  5
1D1A0
  8
0
 10
4471.7640492092596105
 20
-29.9972146122125203
 30
0.0
 40
0.0038491229502407
 50
231.2892438966786131
 51
283.7310198742410989
  0
ARC
  5
1D1A1
  8
0
 10
4471.7677011406012753
 20
-29.9926580101775002
 30
0.0
 40
0.0096885770877135
 50
198.7829282287750061
 51
231.2892435043985984
  0
ARC
  5
1D1A2
  8
0
 10
4471.7602878659890848
 20
-29.9616490251812486
 30
0.0
 40
0.0453981545051611
 50
281.9923488843418227
 51
312.1288346936324842
  0
ARC
  5
1D1A3
  8
0
 10
4471.7866642622921063
 20
-29.9908108449434607
 30
0.0
 40
0.0060773455895931
 50
312.1288346936331095
 51
358.3617777704540117
  0
ARC
  5
1D1A4
  8
0
 10
4471.7887711446282992
 20
-29.9908711021279686
 30
0.0
 40
0.0039696017469731
 50
358.3617777704556033
 51
36.7332548822275626
  0
ARC
  5
1D1A5
  8
0
 10
4471.7850387216221861
 20
-29.9936565358625984
 30
0.0
 40
0.0086268136372938
 50
36.7332548822252676
 51
63.9080965650572992
  0
ARC
  5
1D1A6
  8
0
 10
4471.6641870204039151
 20
-29.7496628651163597
 30
0.0
 40
0.2561720765464547
 50
269.1205553960538737
 51
281.1789620089164146
  0
ARC
  5
1D1A7
  8
0
 10
4471.7015782927728651
 20
-29.9388671807138493
 30
0.0
 40
0.063308445215793
 50
281.1789620089164146
 51
295.3970631525097019
  0
ARC
  5
1D1A8
  8
0
 10
4471.7244771772238892
 20
-29.9871816845881689
 30
0.0
 40
0.0098421754160952
 50
295.6047563049178279
 51
340.0060262137264999
  0
ARC
  5
1D1A9
  8
0
 10
4471.7152369211489713
 20
-30.0157682558888688
 30
0.0
 40
0.0312724589468409
 50
53.7556272933691304
 51
77.6210832330358471
  0
ARC
  5
1D1AA
  8
0
 10
4471.6938937207187337
 20
-29.9841437307785093
 30
0.0
 40
0.0114532936314305
 50
305.0309479733172111
 51
0.1544176456683971
  0
ARC
  5
1D1AB
  8
0
 10
4471.6955413709902132
 20
-29.9864941161583296
 30
0.0
 40
0.0085829168536913
 50
235.7477207986887038
 51
305.0309479733181206
  0
ARC
  5
1D1AC
  8
0
 10
4471.6966634037289623
 20
-29.9848463312621192
 30
0.0
 40
0.0105764445143318
 50
194.8294535491131114
 51
235.747720798687908
  0
LINE
  5
1D1AD
  8
0
 10
4471.7053455902550922
 20
-29.98411293778614
 30
0.0
 11
4471.7053866844280492
 21
-29.9818158754564799
 31
0.0
  0
LINE
  5
1D1AE
  8
0
 10
4471.6864392400002544
 20
-29.9875532953528001
 30
0.0
 11
4471.6728981631558781
 21
-29.9826545772861408
 31
0.0
  0
ARC
  5
1D1AF
  8
0
 10
4471.671462237473861
 20
-29.9864925733815113
 30
0.0
 40
0.004097816075456
 50
69.4874568764014668
 51
95.3092375171300148
  0
ARC
  5
1D1B0
  8
0
 10
4471.6710122884105658
 20
-29.93623945916843
 30
0.0
 40
0.0458052315660833
 50
269.4536405152318821
 51
288.4833340901387828
  0
ENDSEC
  0
EOF
