  0
SECTION
  2
HEADER
  9
$ACADVER
  1
AC1009
  9
$INSBASE
 10
4471.2821963367559874
 20
-35.3736689209045494
 30
0.0
  9
$EXTMIN
 10
4464.3866377514414125
 20
-35.3819798835323382
 30
-0.0000000349181948
  9
$EXTMAX
 10
4472.5759137102741079
 20
-29.8639943978047704
 30
0.0000000814935746
  9
$LIMMIN
 10
0.0
 20
0.0
  9
$LIMMAX
 10
11.6929133858000007
 20
8.2677165353999982
  9
$ORTHOMODE
 70
     0
  9
$REGENMODE
 70
     1
  9
$FILLMODE
 70
     1
  9
$QTEXTMODE
 70
     0
  9
$MIRRTEXT
 70
     0
  9
$DRAGMODE
 70
     2
  9
$LTSCALE
 40
0.6431102362
  9
$OSMODE
 70
  4095
  9
$ATTMODE
 70
     1
  9
$TEXTSIZE
 40
0.2
  9
$TRACEWID
 40
0.05
  9
$TEXTSTYLE
  7
STANDARD
  9
$CLAYER
  8
0
  9
$CELTYPE
  6
BYLAYER
  9
$CECOLOR
 62
   256
  9
$DIMSCALE
 40
1.0
  9
$DIMASZ
 40
0.1875
  9
$DIMEXO
 40
0.0625
  9
$DIMDLI
 40
0.4443307087
  9
$DIMRND
 40
0.0
  9
$DIMDLE
 40
0.0
  9
$DIMEXE
 40
0.125
  9
$DIMTP
 40
0.01
  9
$DIMTM
 40
0.01
  9
$DIMTXT
 40
2.0
  9
$DIMCEN
 40
0.1052362205
  9
$DIMTSZ
 40
0.0
  9
$DIMTOL
 70
     1
  9
$DIMLIM
 70
     0
  9
$DIMTIH
 70
     1
  9
$DIMTOH
 70
     1
  9
$DIMSE1
 70
     0
  9
$DIMSE2
 70
     0
  9
$DIMTAD
 70
     0
  9
$DIMZIN
 70
     0
  9
$DIMBLK
  1

  9
$DIMASO
 70
     1
  9
$DIMSHO
 70
     1
  9
$DIMPOST
  1
\X
  9
$DIMAPOST
  1

  9
$DIMALT
 70
     1
  9
$DIMALTD
 70
     2
  9
$DIMALTF
 40
25.3999999999999986
  9
$DIMLFAC
 40
1.0
  9
$DIMTOFL
 70
     0
  9
$DIMTVP
 40
0.0
  9
$DIMTIX
 70
     0
  9
$DIMSOXD
 70
     0
  9
$DIMSAH
 70
     0
  9
$DIMBLK1
  1

  9
$DIMBLK2
  1

  9
$DIMSTYLE
  2
STANDARD
  9
$DIMCLRD
 70
     0
  9
$DIMCLRE
 70
     0
  9
$DIMCLRT
 70
     0
  9
$DIMTFAC
 40
1.0
  9
$DIMGAP
 40
0.09
  9
$LUNITS
 70
     2
  9
$LUPREC
 70
     4
  9
$SKETCHINC
 40
0.1
  9
$FILLETRAD
 40
0.0
  9
$AUNITS
 70
     0
  9
$AUPREC
 70
     0
  9
$MENU
  1
.
  9
$ELEVATION
 40
0.0
  9
$PELEVATION
 40
0.0
  9
$THICKNESS
 40
0.0
  9
$LIMCHECK
 70
     0
  9
$BLIPMODE
 70
     0
  9
$CHAMFERA
 40
0.0
  9
$CHAMFERB
 40
0.0
  9
$SKPOLY
 70
     0
  9
$TDCREATE
 40
2458060.468368056230247
  9
$TDUPDATE
 40
2459929.5751041672192514
  9
$TDINDWG
 40
0.4621366898
  9
$TDUSRTIMER
 40
0.4621366898
  9
$USRTIMER
 70
     1
  9
$ANGBASE
 50
0.0
  9
$ANGDIR
 70
     0
  9
$PDMODE
 70
     0
  9
$PDSIZE
 40
0.3125
  9
$PLINEWID
 40
0.0
  9
$COORDS
 70
     1
  9
$SPLFRAME
 70
     0
  9
$SPLINETYPE
 70
     6
  9
$SPLINESEGS
 70
     8
  9
$ATTDIA
 70
     1
  9
$ATTREQ
 70
     1
  9
$HANDLING
 70
     1
  9
$HANDSEED
  5
1CB8C
  9
$SURFTAB1
 70
     6
  9
$SURFTAB2
 70
     6
  9
$SURFTYPE
 70
     6
  9
$SURFU
 70
     6
  9
$SURFV
 70
     6
  9
$UCSNAME
  2

  9
$UCSORG
 10
0.0
 20
0.0
 30
0.0
  9
$UCSXDIR
 10
1.0
 20
0.0
 30
0.0
  9
$UCSYDIR
 10
0.0
 20
1.0
 30
0.0
  9
$PUCSNAME
  2

  9
$PUCSORG
 10
0.0
 20
0.0
 30
0.0
  9
$PUCSXDIR
 10
1.0
 20
0.0
 30
0.0
  9
$PUCSYDIR
 10
0.0
 20
1.0
 30
0.0
  9
$USERI1
 70
     0
  9
$USERI2
 70
     0
  9
$USERI3
 70
     0
  9
$USERI4
 70
     0
  9
$USERI5
 70
     0
  9
$USERR1
 40
0.0
  9
$USERR2
 40
0.0
  9
$USERR3
 40
0.0
  9
$USERR4
 40
0.0
  9
$USERR5
 40
0.0
  9
$WORLDVIEW
 70
     1
  9
$SHADEDGE
 70
     3
  9
$SHADEDIF
 70
    70
  9
$TILEMODE
 70
     1
  9
$MAXACTVP
 70
    64
  9
$PLIMCHECK
 70
     0
  9
$PEXTMIN
 10
1.0000000000000000E+20
 20
1.0000000000000000E+20
 30
1.0000000000000000E+20
  9
$PEXTMAX
 10
-1.0000000000000000E+20
 20
-1.0000000000000000E+20
 30
-1.0000000000000000E+20
  9
$PLIMMIN
 10
0.0
 20
0.0
  9
$PLIMMAX
 10
12.0
 20
9.0
  9
$UNITMODE
 70
     0
  9
$VISRETAIN
 70
     1
  9
$PLINEGEN
 70
     0
  9
$PSLTSCALE
 70
     1
  0
ENDSEC
  0
SECTION
  2
TABLES
  0
TABLE
  2
VPORT
 70
     1
  0
VPORT
  2
*ACTIVE
 70
     0
 10
0.0
 20
0.0
 11
1.0
 21
1.0
 12
676.1233655746073055
 22
-152.8036435737739964
 13
0.0
 23
0.0
 14
1.0
 24
1.0
 15
0.0
 25
0.0
 16
0.0
 26
0.0
 36
5.1040778033513332
 17
3792.35791015625
 27
120.1806564331053977
 37
0.0
 40
5.560377179599981
 41
1.593589743589743
 42
50.0
 43
0.0
 44
0.0
 50
0.0
 51
0.0
 71
     0
 72
   100
 73
     1
 74
     1
 75
     0
 76
     0
 77
     0
 78
     0
  0
ENDTAB
  0
TABLE
  2
LTYPE
 70
     2
  0
LTYPE
  2
CONTINUOUS
 70
     0
  3
Solid line
 72
    65
 73
     0
 40
0.0
  0
LTYPE
  2
PHANTOM2
 70
     0
  3
___ _ _ ___ _ _ ___ _ _ ___ _ _
 72
    65
 73
     6
 40
1.25
 49
0.625
 49
-0.125
 49
0.125
 49
-0.125
 49
0.125
 49
-0.125
  0
ENDTAB
  0
TABLE
  2
LAYER
 70
     2
  0
LAYER
  2
0
 70
     0
 62
   255
  6
CONTINUOUS
  0
LAYER
  2
DEFPOINTS
 70
     0
 62
     7
  6
CONTINUOUS
  0
ENDTAB
  0
TABLE
  2
STYLE
 70
     1
  0
STYLE
  2
STANDARD
 70
     0
 40
0.0
 41
0.8
 50
0.0
 71
     0
 42
0.2
  3
txt
  4

  0
ENDTAB
  0
TABLE
  2
VIEW
 70
     0
  0
ENDTAB
  0
TABLE
  2
UCS
 70
     0
  0
ENDTAB
  0
TABLE
  2
APPID
 70
     9
  0
APPID
  2
ACAD
 70
     0
  0
APPID
  2
ACAD_MLEADERVER
 70
     0
  0
APPID
  2
ACAD_EXEMPT_FROM_CAD_STANDARDS
 70
     0
  0
APPID
  2
ACAD_NAV_VCDISPLAY
 70
     0
  0
APPID
  2
ACAECLAYERSTANDARD
 70
     0
  0
APPID
  2
ACCMTRANSPARENCY
 70
     0
  0
APPID
  2
ACAD_DSTYLE_DIMJAG
 70
     0
  0
APPID
  2
ACAD_DSTYLE_DIMTALN
 70
     0
  0
APPID
  2
ACDBATTR
 70
     0
  0
ENDTAB
  0
TABLE
  2
DIMSTYLE
 70
     1
  0
DIMSTYLE
  2
STANDARD
 70
     0
  3

  4

  5

  6

  7

 40
1.0
 41
0.1875
 42
0.0625
 43
0.38
 44
0.125
 45
0.0
 46
0.0
 47
0.01
 48
0.01
140
0.15625
141
0.09
142
0.0
143
25.3999999999999986
144
1.0
145
0.0
146
1.0
147
0.09
 71
     1
 72
     0
 73
     1
 74
     1
 75
     0
 76
     0
 77
     0
 78
     4
170
     0
171
     2
172
     0
173
     0
174
     0
175
     0
176
     0
177
     0
178
     0
  0
ENDTAB
  0
ENDSEC
  0
SECTION
  2
BLOCKS
  0
BLOCK
  8
0
  2
$MODEL_SPACE
 70
     0
 10
0.0
 20
0.0
 30
0.0
  3
$MODEL_SPACE
  1

  0
ENDBLK
  5
21
  8
0
  0
BLOCK
 67
     1
  8
0
  2
$PAPER_SPACE
 70
     0
 10
0.0
 20
0.0
 30
0.0
  3
$PAPER_SPACE
  1

  0
ENDBLK
  5
1D
 67
     1
  8
0
  0
ENDSEC
  0
SECTION
  2
ENTITIES
  0
ATTDEF
  5
3930
  8
DEFPOINTS
 10
4471.2779595389429232
 20
-35.376144649925962
 30
0.0
 40
0.001
  1
K-EX20257T-NWS3
  3

  2
MODELNUMBER
 70
     0
1001
ACDBATTR
1070
     0
1070
     1
  0
ATTDEF
  5
3931
  8
DEFPOINTS
 10
4471.2779595389429232
 20
-35.3778113165926271
 30
0.0
 40
0.001
  1
COMPOSED
  3

  2
TRADENAME
 70
     0
1001
ACDBATTR
1070
     0
1070
     1
  0
ATTDEF
  5
3932
  8
DEFPOINTS
 10
4471.2779595389429232
 20
-35.3794779832592923
 30
0.0
 40
0.001
  1
BATHROOM SINK FAUCET
  3

  2
PRODUCT
 70
     0
1001
ACDBATTR
1070
     0
1070
     1
  0
ARC
  5
1CA63
  8
0
 10
4470.3097553918560152
 20
-35.2476846690045491
 30
0.0
 40
0.0314960630000005
 50
90.0
 51
179.9999999999996021
  0
ARC
  5
1CA64
  8
0
 10
4470.593219958806003
 20
-35.196503566604548
 30
0.0
 40
0.0196850393999988
 50
179.9999999999988063
 51
270.0000165543186768
  0
ARC
  5
1CA65
  8
0
 10
4471.9593107671853431
 20
-30.6563359420706689
 30
0.0
 40
0.0315871597245132
 50
270.0684442783818895
 51
359.8360567382126192
  0
ARC
  5
1CA66
  8
0
 10
4464.7351110137033174
 20
-29.8959739158487814
 30
0.0
 40
0.0314960629107414
 50
89.9999999360607745
 51
178.0000002420038925
  0
ARC
  5
1CA67
  8
0
 10
4464.7177012501333593
 20
-30.4035426592682292
 30
0.0
 40
0.0314960712670885
 50
178.0000062335988105
 51
268.0317976375110902
  0
LINE
  5
1CA68
  8
0
 10
4464.7166195221470844
 20
-30.4350201491590013
 30
0.0
 11
4471.9718452232636992
 21
-30.6883594420997987
 31
0.0
  0
ARC
  5
1CA69
  8
0
 10
4470.593189514180267
 20
-30.659931297101501
 30
0.0
 40
0.0197
 50
88.0001480602980735
 51
180.0005739554655975
  0
LINE
  5
1CA6A
  8
0
 10
4471.9908977976028837
 20
-30.6564263238574917
 30
0.0
 11
4471.9908577540572878
 21
-30.1482392375381494
 31
0.0
  0
LINE
  5
1CA6B
  8
0
 10
4471.9601329512370285
 20
-30.1167615064380314
 30
0.0
 11
4464.7351110137378782
 21
-29.8644778529380304
 31
0.0
  0
LINE
  5
1CA6C
  8
0
 10
4464.6862243653031328
 20
-30.4024434656574805
 30
0.0
 11
4464.7036341373386676
 21
-29.8948747192380289
 31
0.0
  0
LINE
  5
1CA6D
  8
0
 10
4470.5734895141804373
 20
-30.6599314944445283
 30
0.0
 11
4470.5735349194055743
 21
-35.196503566604548
 31
0.0
  0
LINE
  5
1CA6E
  8
0
 10
4471.9908577541064005
 20
-35.196503566604548
 30
0.0
 11
4471.9908577540572878
 21
-30.7080474431686596
 31
0.0
  0
ARC
  5
1CA6F
  8
0
 10
4471.9711577540556391
 20
-30.7080474431686596
 30
0.0
 40
0.0197
 50
0.0
 51
88.0001480602980735
  0
ARC
  5
1CA70
  8
0
 10
4471.9587738015979994
 20
-30.1488219536537585
 30
0.0
 40
0.0320892437339792
 50
1.0405047118501041
 51
87.5724937169786273
  0
LINE
  5
1CA71
  8
0
 10
4470.2782593288557109
 20
-35.2476846690045491
 30
0.0
 11
4470.2782593288557109
 21
-35.3736689209045494
 31
0.0
  0
ARC
  5
1CA72
  8
0
 10
4472.2546372816559597
 20
-35.2476846690045491
 30
0.0
 40
0.0314960630000005
 50
0.0
 51
90.0
  0
ARC
  5
1CA73
  8
0
 10
4471.9711727147050624
 20
-35.196503566604548
 30
0.0
 40
0.0196850394000033
 50
269.9999798073985744
 51
359.9999999999923261
  0
LINE
  5
1CA74
  8
0
 10
4472.2861333446562639
 20
-35.2476846690045491
 30
0.0
 11
4472.2861333446562639
 21
-35.3736689209045494
 31
0.0
  0
LINE
  5
1CA75
  8
0
 10
4470.2782593288557109
 20
-35.3736689209045494
 30
0.0
 11
4472.2861333446562639
 21
-35.3736689209045494
 31
0.0
  0
LINE
  5
1CA76
  8
0
 10
4472.2546372816559597
 20
-35.2161886060045504
 30
0.0
 11
4470.3097553918560152
 21
-35.2161886060045504
 31
0.0
  0
ARC
  5
1CA77
  8
0
 10
4466.155219038805626
 20
-30.4657440141045512
 30
0.0
 40
0.0393700787000084
 50
207.6855487274899872
 51
233.9744481451085107
  0
ARC
  5
1CA78
  8
0
 10
4466.3166908554321708
 20
-30.1744874085442802
 30
0.0
 40
0.3721300896475319
 50
240.2552532768447122
 51
269.3736136447274134
  0
ARC
  5
1CA79
  8
0
 10
4466.7673036892692835
 20
-23.7597076159412701
 30
0.0
 40
6.8021010552024457
 50
266.1672510855790961
 51
268.4666225366568142
  0
ARC
  5
1CA7A
  8
0
 10
4467.4081304332048603
 20
-10.9217689494315096
 30
0.0
 40
19.6548356368258013
 50
267.6006213058241769
 51
269.1979086787849269
  0
ARC
  5
1CA7B
  8
0
 10
4467.1474106661771657
 20
-30.0470091800307806
 30
0.0
 40
0.5278665507783527
 50
268.4344173530981834
 51
282.6424605810519779
  0
ARC
  5
1CA7C
  8
0
 10
4467.2148377001958579
 20
-30.3741603002744398
 30
0.0
 40
0.1939767854395773
 50
284.3588831658819913
 51
301.8274233266502051
  0
ARC
  5
1CA7D
  8
0
 10
4467.2810579992028579
 20
-30.4904791120360201
 30
0.0
 40
0.0604392849505545
 50
306.6476985655611998
 51
323.6924658749131822
  0
LINE
  5
1CA7E
  8
0
 10
4465.0359281691953584
 20
-30.4461698266749607
 30
0.0
 11
4465.0092927174064243
 21
-30.5714797751045495
 31
0.0
  0
LINE
  5
1CA7F
  8
0
 10
4465.0092927174064243
 20
-30.5714797751045495
 30
0.0
 11
4465.8563685397048175
 21
-30.7515312993045491
 31
0.0
  0
LINE
  5
1CA80
  8
0
 10
4465.8563685397048175
 20
-30.7515312993045491
 30
0.0
 11
4465.8883869400397089
 21
-30.600896568811919
 31
0.0
  0
LINE
  5
1CA81
  8
0
 10
4465.8883869400397089
 20
-30.600896568811919
 30
0.0
 11
4465.9260456227048053
 21
-30.6089011689088508
 31
0.0
  0
LINE
  5
1CA82
  8
0
 10
4465.9260456227048053
 20
-30.6089011689088508
 30
0.0
 11
4465.9538225437518122
 21
-30.4782210296869884
 31
0.0
  0
LINE
  5
1CA83
  8
0
 10
4465.0861007261501072
 20
-30.5979728778325608
 30
0.0
 11
4465.7754252111062669
 21
-30.7444933202045512
 31
0.0
  0
ARC
  5
1CA84
  8
0
 10
4465.7786994164698626
 20
-30.7290894240901586
 30
0.0
 40
0.01574802959951
 50
257.9999780447055855
 51
326.3768667554065814
  0
ARC
  5
1CA85
  8
0
 10
4465.0893749260048935
 20
-30.5825689786045594
 30
0.0
 40
0.0157480314999975
 50
189.6231380453916984
 51
257.9999999999845954
  0
ENDSEC
  0
EOF
