  0
SECTION
  2
HEADER
  9
$ACADVER
  1
AC1009
  9
$INSBASE
 10
4170.6806619944518388
 20
99.938100954438255
 30
0.0
  9
$EXTMIN
 10
4159.142101710111092
 20
96.4447042322692027
 30
-0.0000000000112498
  9
$EXTMAX
 10
4182.4352836451544135
 20
103.4448884268884967
 30
0.0000000000002956
  9
$LIMMIN
 10
0.0
 20
0.0
  9
$LIMMAX
 10
11.6929133858000007
 20
8.2677165353999982
  9
$ORTHOMODE
 70
     1
  9
$REGENMODE
 70
     1
  9
$FILLMODE
 70
     1
  9
$QTEXTMODE
 70
     0
  9
$MIRRTEXT
 70
     0
  9
$DRAGMODE
 70
     2
  9
$LTSCALE
 40
0.6431102362
  9
$OSMODE
 70
  4095
  9
$ATTMODE
 70
     1
  9
$TEXTSIZE
 40
0.2
  9
$TRACEWID
 40
0.05
  9
$TEXTSTYLE
  7
STANDARD
  9
$CLAYER
  8
0
  9
$CELTYPE
  6
BYLAYER
  9
$CECOLOR
 62
   256
  9
$DIMSCALE
 40
1.0
  9
$DIMASZ
 40
0.1875
  9
$DIMEXO
 40
0.0625
  9
$DIMDLI
 40
0.4443307087
  9
$DIMRND
 40
0.0
  9
$DIMDLE
 40
0.0
  9
$DIMEXE
 40
0.125
  9
$DIMTP
 40
0.01
  9
$DIMTM
 40
0.01
  9
$DIMTXT
 40
2.0
  9
$DIMCEN
 40
0.1052362205
  9
$DIMTSZ
 40
0.0
  9
$DIMTOL
 70
     1
  9
$DIMLIM
 70
     0
  9
$DIMTIH
 70
     1
  9
$DIMTOH
 70
     1
  9
$DIMSE1
 70
     0
  9
$DIMSE2
 70
     0
  9
$DIMTAD
 70
     0
  9
$DIMZIN
 70
     0
  9
$DIMBLK
  1

  9
$DIMASO
 70
     1
  9
$DIMSHO
 70
     1
  9
$DIMPOST
  1
\X
  9
$DIMAPOST
  1

  9
$DIMALT
 70
     1
  9
$DIMALTD
 70
     2
  9
$DIMALTF
 40
25.3999999999999986
  9
$DIMLFAC
 40
1.0
  9
$DIMTOFL
 70
     0
  9
$DIMTVP
 40
0.0
  9
$DIMTIX
 70
     0
  9
$DIMSOXD
 70
     0
  9
$DIMSAH
 70
     0
  9
$DIMBLK1
  1

  9
$DIMBLK2
  1

  9
$DIMSTYLE
  2
STANDARD
  9
$DIMCLRD
 70
     0
  9
$DIMCLRE
 70
     0
  9
$DIMCLRT
 70
     0
  9
$DIMTFAC
 40
1.0
  9
$DIMGAP
 40
0.09
  9
$LUNITS
 70
     2
  9
$LUPREC
 70
     4
  9
$SKETCHINC
 40
0.1
  9
$FILLETRAD
 40
0.0
  9
$AUNITS
 70
     0
  9
$AUPREC
 70
     0
  9
$MENU
  1
.
  9
$ELEVATION
 40
0.0
  9
$PELEVATION
 40
0.0
  9
$THICKNESS
 40
0.0
  9
$LIMCHECK
 70
     0
  9
$BLIPMODE
 70
     0
  9
$CHAMFERA
 40
0.0
  9
$CHAMFERB
 40
0.0
  9
$SKPOLY
 70
     0
  9
$TDCREATE
 40
2458060.468368056230247
  9
$TDUPDATE
 40
2459921.3864236110821366
  9
$TDINDWG
 40
0.3263033565
  9
$TDUSRTIMER
 40
0.3263033565
  9
$USRTIMER
 70
     1
  9
$ANGBASE
 50
0.0
  9
$ANGDIR
 70
     0
  9
$PDMODE
 70
     0
  9
$PDSIZE
 40
0.3125
  9
$PLINEWID
 40
0.0
  9
$COORDS
 70
     1
  9
$SPLFRAME
 70
     0
  9
$SPLINETYPE
 70
     6
  9
$SPLINESEGS
 70
     8
  9
$ATTDIA
 70
     1
  9
$ATTREQ
 70
     1
  9
$HANDLING
 70
     1
  9
$HANDSEED
  5
A123
  9
$SURFTAB1
 70
     6
  9
$SURFTAB2
 70
     6
  9
$SURFTYPE
 70
     6
  9
$SURFU
 70
     6
  9
$SURFV
 70
     6
  9
$UCSNAME
  2

  9
$UCSORG
 10
0.0
 20
0.0
 30
0.0
  9
$UCSXDIR
 10
1.0
 20
0.0
 30
0.0
  9
$UCSYDIR
 10
0.0
 20
1.0
 30
0.0
  9
$PUCSNAME
  2

  9
$PUCSORG
 10
0.0
 20
0.0
 30
0.0
  9
$PUCSXDIR
 10
1.0
 20
0.0
 30
0.0
  9
$PUCSYDIR
 10
0.0
 20
1.0
 30
0.0
  9
$USERI1
 70
     0
  9
$USERI2
 70
     0
  9
$USERI3
 70
     0
  9
$USERI4
 70
     0
  9
$USERI5
 70
     0
  9
$USERR1
 40
0.0
  9
$USERR2
 40
0.0
  9
$USERR3
 40
0.0
  9
$USERR4
 40
0.0
  9
$USERR5
 40
0.0
  9
$WORLDVIEW
 70
     1
  9
$SHADEDGE
 70
     3
  9
$SHADEDIF
 70
    70
  9
$TILEMODE
 70
     1
  9
$MAXACTVP
 70
    64
  9
$PLIMCHECK
 70
     0
  9
$PEXTMIN
 10
1.0000000000000000E+20
 20
1.0000000000000000E+20
 30
1.0000000000000000E+20
  9
$PEXTMAX
 10
-1.0000000000000000E+20
 20
-1.0000000000000000E+20
 30
-1.0000000000000000E+20
  9
$PLIMMIN
 10
0.0
 20
0.0
  9
$PLIMMAX
 10
12.0
 20
9.0
  9
$UNITMODE
 70
     0
  9
$VISRETAIN
 70
     1
  9
$PLINEGEN
 70
     0
  9
$PSLTSCALE
 70
     1
  0
ENDSEC
  0
SECTION
  2
TABLES
  0
TABLE
  2
VPORT
 70
     1
  0
VPORT
  2
*ACTIVE
 70
     0
 10
0.0
 20
0.0
 11
1.0
 21
1.0
 12
-94.2176549786172473
 22
-4.3592159690051338
 13
0.0
 23
0.0
 14
1.0
 24
1.0
 15
0.0
 25
0.0
 16
0.0
 26
0.0
 36
122.0237731519760018
 17
4265.00634765625
 27
104.3040122985839986
 37
0.0
 40
10.7223084124362007
 41
2.1792237442922371
 42
50.0
 43
0.0
 44
0.0
 50
0.0
 51
0.0
 71
     0
 72
   100
 73
     1
 74
     1
 75
     0
 76
     0
 77
     0
 78
     0
  0
ENDTAB
  0
TABLE
  2
LTYPE
 70
     2
  0
LTYPE
  2
CONTINUOUS
 70
     0
  3
Solid line
 72
    65
 73
     0
 40
0.0
  0
LTYPE
  2
PHANTOM2
 70
     0
  3
___ _ _ ___ _ _ ___ _ _ ___ _ _
 72
    65
 73
     6
 40
1.25
 49
0.625
 49
-0.125
 49
0.125
 49
-0.125
 49
0.125
 49
-0.125
  0
ENDTAB
  0
TABLE
  2
LAYER
 70
     2
  0
LAYER
  2
0
 70
     0
 62
   255
  6
CONTINUOUS
  0
LAYER
  2
DEFPOINTS
 70
     0
 62
     7
  6
CONTINUOUS
  0
ENDTAB
  0
TABLE
  2
STYLE
 70
     1
  0
STYLE
  2
STANDARD
 70
     0
 40
0.0
 41
0.8
 50
0.0
 71
     0
 42
0.2
  3
txt
  4

  0
ENDTAB
  0
TABLE
  2
VIEW
 70
     0
  0
ENDTAB
  0
TABLE
  2
UCS
 70
     0
  0
ENDTAB
  0
TABLE
  2
APPID
 70
    10
  0
APPID
  2
ACAD
 70
     0
  0
APPID
  2
ACAD_MLEADERVER
 70
     0
  0
APPID
  2
ACAD_EXEMPT_FROM_CAD_STANDARDS
 70
     0
  0
APPID
  2
ACAD_NAV_VCDISPLAY
 70
     0
  0
APPID
  2
ACAECLAYERSTANDARD
 70
     0
  0
APPID
  2
ACCMTRANSPARENCY
 70
     0
  0
APPID
  2
ACAD_DSTYLE_DIMJAG
 70
     0
  0
APPID
  2
ACAD_DSTYLE_DIMTALN
 70
     0
  0
APPID
  2
ACDBATTR
 70
     0
  0
APPID
  2
DCO15
 70
     0
  0
ENDTAB
  0
TABLE
  2
DIMSTYLE
 70
     1
  0
DIMSTYLE
  2
STANDARD
 70
     0
  3

  4

  5

  6

  7

 40
1.0
 41
0.1875
 42
0.0625
 43
0.38
 44
0.125
 45
0.0
 46
0.0
 47
0.01
 48
0.01
140
0.15625
141
0.09
142
0.0
143
25.3999999999999986
144
1.0
145
0.0
146
1.0
147
0.09
 71
     1
 72
     0
 73
     1
 74
     1
 75
     0
 76
     0
 77
     0
 78
     4
170
     0
171
     2
172
     0
173
     0
174
     0
175
     0
176
     0
177
     0
178
     0
  0
ENDTAB
  0
ENDSEC
  0
SECTION
  2
BLOCKS
  0
BLOCK
  8
0
  2
$MODEL_SPACE
 70
     0
 10
0.0
 20
0.0
 30
0.0
  3
$MODEL_SPACE
  1

  0
ENDBLK
  5
21
  8
0
  0
BLOCK
 67
     1
  8
0
  2
$PAPER_SPACE
 70
     0
 10
0.0
 20
0.0
 30
0.0
  3
$PAPER_SPACE
  1

  0
ENDBLK
  5
1D
 67
     1
  8
0
  0
BLOCK
  8
0
  2
_FILLED
 70
     0
 10
0.0
 20
0.0
 30
0.0
  3
_FILLED
  1

  0
SOLID
  5
9A27
  8
0
  6
BYBLOCK
 62
     0
 10
0.0
 20
0.0
 30
0.0
 11
-1.0
 21
0.1666666667
 31
0.0
 12
-1.0
 22
-0.1666666667
 32
0.0
 13
-1.0
 23
-0.1666666667
 33
0.0
  0
ENDBLK
  5
9A28
  8
0
  6
BYBLOCK
 62
     0
  0
ENDSEC
  0
SECTION
  2
ENTITIES
  0
ATTDEF
  5
9852
  8
DEFPOINTS
 10
4170.6807676188609548
 20
99.9420699128364731
 30
0.0
 40
0.001
  1
K-EX21060T-AE1
  3

  2
MODELNUMBER
 70
     0
1001
ACDBATTR
1070
     0
1070
     1
  0
ATTDEF
  5
9853
  8
DEFPOINTS
 10
4170.6807676188609548
 20
99.9404032461698222
 30
0.0
 40
0.001
  1
BRAZN
  3

  2
TRADENAME
 70
     0
1001
ACDBATTR
1070
     0
1070
     1
  0
ATTDEF
  5
9854
  8
DEFPOINTS
 10
4170.6807676188609548
 20
99.938736579503157
 30
0.0
 40
0.001
  1
BATHROOM SINK 
  3

  2
PRODUCT
 70
     0
1001
ACDBATTR
1070
     0
1070
     1
  0
LINE
  5
9B80
  8
0
 10
4169.4746436878685927
 20
96.447932849405106
 30
0.0
 11
4171.8866803010359945
 21
96.447932849405106
 31
0.0
  0
ARC
  5
9B81
  8
0
 10
4169.4826146880577653
 20
96.6534091930356283
 30
0.0
 40
0.20563089416666
 50
186.9756850143467943
 51
267.7784509272851778
  0
LINE
  5
9B82
  8
0
 10
4169.2785059188518062
 20
96.6284357077050942
 30
0.0
 11
4169.1915951061264423
 21
97.6713653382612677
 31
0.0
  0
ARC
  5
9B83
  8
0
 10
4168.8790233309737232
 20
97.6453892262533003
 30
0.0
 40
0.3136492834626023
 50
4.750619029094981
 51
88.2668793359698896
  0
ARC
  5
9B84
  8
0
 10
4366.6498374791381138
 20
3038.8118214610581163
 30
0.0
 40
2947.4947799453780135
 50
266.029133689160517
 51
266.1528657566749985
  0
ARC
  5
9B85
  8
0
 10
4162.5803909456890324
 20
99.326801650154394
 30
0.0
 40
0.9349341526779367
 50
218.5878814968814936
 51
267.4079738279407934
  0
LINE
  5
9B86
  8
0
 10
4161.8495974117531659
 20
98.7436698635050902
 30
0.0
 11
4161.0727300956668842
 21
99.8875703778129065
 31
0.0
  0
ARC
  5
9B87
  8
0
 10
4160.9752232539340184
 20
99.8187598630374566
 30
0.0
 40
0.1193418247232962
 50
35.2105940736841916
 51
89.7991420552867652
  0
LINE
  5
9B88
  8
0
 10
4160.177412731003642
 20
99.938100954438255
 30
0.0
 11
4181.1839112579000357
 21
99.938100954438255
 31
0.0
  0
ARC
  5
9B89
  8
0
 10
4160.1775882959591399
 20
100.0170681132666033
 30
0.0
 40
0.0789673539919015
 50
195.5130412473511967
 51
269.8726164835596819
  0
LINE
  5
9B8A
  8
0
 10
4160.1014977541490225
 20
99.9959476861017151
 30
0.0
 11
4159.1893763954249152
 21
103.3194326405050987
 31
0.0
  0
ARC
  5
9B8B
  8
0
 10
4173.2064723836456324
 20
98.923887505677385
 30
0.0
 40
4.3727519459536071
 50
192.8358110087559965
 51
200.796883206520107
  0
ARC
  5
9B8C
  8
0
 10
4170.2755705480203687
 20
97.8107247780467475
 30
0.0
 40
1.2375778155017949
 50
200.796883206520107
 51
212.853452004764506
  0
ARC
  5
9B8D
  8
0
 10
4159.3617976811237895
 20
103.3709393278496975
 30
0.0
 40
0.1799501003149195
 50
186.3896410007438931
 51
196.6322427819982863
  0
ARC
  5
9B8E
  8
0
 10
4159.2604732399859131
 20
103.2690394985784934
 30
0.0
 40
0.1695341178007381
 50
80.9076210259068915
 51
95.2290616073219809
  0
ARC
  5
9B8F
  8
0
 10
4159.252747775421085
 20
103.3502388255455031
 30
0.0
 40
0.0879691249338643
 50
95.0382296592599403
 51
121.5482882687403929
  0
ARC
  5
9B90
  8
0
 10
4159.233001932231673
 20
103.3824002396458042
 30
0.0
 40
0.050229823401371
 50
121.548288268739995
 51
164.9268207682125933
  0
ARC
  5
9B91
  8
0
 10
4159.2899431354753688
 20
103.3695284680206044
 30
0.0
 40
0.1085853305558059
 50
166.1821070818980104
 51
189.8714387450326058
  0
ARC
  5
9B92
  8
0
 10
4159.3795638315341421
 20
104.5997864757443949
 30
0.0
 40
1.1669988684797139
 50
265.4636540041722128
 51
270.8227062053035183
  0
LINE
  5
9B93
  8
0
 10
4159.7047707631063531
 20
103.437845125437093
 30
0.0
 11
4181.6565532257982341
 21
103.437845125437093
 31
0.0
  0
ARC
  5
9B94
  8
0
 10
4159.7604242101197087
 20
96.9810146902313051
 30
0.0
 40
6.4570702780103053
 50
90.4938380679190146
 51
91.9648499461495135
  0
ARC
  5
9B95
  8
0
 10
4159.4396438274270622
 20
106.3314267851621935
 30
0.0
 40
2.8988426330289041
 50
269.143672593473525
 51
271.9648499461495135
  0
ARC
  5
9B96
  8
0
 10
4170.7462737212517823
 20
55.0630692450492703
 30
0.0
 40
42.9360356591819894
 50
90.0877221390244074
 51
92.4798586130362281
  0
ARC
  5
9B97
  8
0
 10
4170.7378777151789109
 20
60.546922492273147
 30
0.0
 40
37.452175984645649
 50
90.0875308445724556
 51
90.0877221390244074
  0
ARC
  5
9B99
  8
0
 10
4171.8787093008468219
 20
96.6534091930356283
 30
0.0
 40
0.20563089416666
 50
272.2215490727148222
 51
353.0243149856531204
  0
LINE
  5
9B9A
  8
0
 10
4172.082818070052781
 20
96.6284357077050942
 30
0.0
 11
4172.1697288827790544
 21
97.6713653382612677
 31
0.0
  0
ARC
  5
9B9B
  8
0
 10
4172.4800887800256533
 20
97.647720772185167
 30
0.0
 40
0.3112592670513873
 50
91.3391274102136634
 51
175.6433741498958057
  0
ARC
  5
9B9C
  8
0
 10
3976.1447231375927913
 20
3017.8369036114418122
 30
0.0
 40
2926.4709642355551296
 50
273.8466897965440126
 51
273.9713107576145035
  0
ARC
  5
9B9D
  8
0
 10
4178.7809330432155548
 20
99.326801650154394
 30
0.0
 40
0.9349341526779367
 50
272.5920261720592066
 51
321.4121185031185064
  0
LINE
  5
9B9E
  8
0
 10
4179.5117265771523307
 20
98.7436698635050902
 30
0.0
 11
4180.288593893237703
 21
99.8875703778129065
 31
0.0
  0
ARC
  5
9B9F
  8
0
 10
4180.3861007349696592
 20
99.8187598630374566
 30
0.0
 40
0.1193418247232962
 50
90.2008579447132348
 51
144.7894059263157942
  0
ARC
  5
9BA0
  8
0
 10
4181.1837356929463567
 20
100.0170681132666033
 30
0.0
 40
0.0789673539919015
 50
270.1273835164403181
 51
344.4869587526487749
  0
LINE
  5
9BA1
  8
0
 10
4181.2598262347555647
 20
99.9959476861017151
 30
0.0
 11
4182.1719475934796719
 21
103.3194326405050987
 31
0.0
  0
ARC
  5
9BA2
  8
0
 10
4168.1548516052598643
 20
98.923887505677385
 30
0.0
 40
4.3727519459536071
 50
339.2031167934799214
 51
347.1690624068683064
  0
ARC
  5
9BA3
  8
0
 10
4171.0857534408851279
 20
97.8107247780467475
 30
0.0
 40
1.2375778155017949
 50
327.1465479952353803
 51
339.2031167934799214
  0
ARC
  5
9BA4
  8
0
 10
4181.9995263077817071
 20
103.3709393278496975
 30
0.0
 40
0.1799501003149195
 50
343.3677572180016
 51
353.6103589992559932
  0
ARC
  5
9BA5
  8
0
 10
4182.1008507489186741
 20
103.2690394985784934
 30
0.0
 40
0.1695341178007381
 50
84.7709383926780049
 51
99.0923789740931227
  0
ARC
  5
9BA6
  8
0
 10
4182.1085762134844117
 20
103.3502388255455031
 30
0.0
 40
0.0879691249338643
 50
58.4517117312595929
 51
84.9617703407400739
  0
ARC
  5
9BA7
  8
0
 10
4182.1283220566720047
 20
103.3824002396458042
 30
0.0
 40
0.050229823401371
 50
15.0731792317874191
 51
58.4517117312600192
  0
ARC
  5
9BA8
  8
0
 10
4182.0713808534301279
 20
103.3695284680206044
 30
0.0
 40
0.1085853305558059
 50
350.1285612549680764
 51
13.8178929181019292
  0
ARC
  5
9BA9
  8
0
 10
4181.9817601573704451
 20
104.5997864757443949
 30
0.0
 40
1.1669988684797139
 50
269.1772937946964817
 51
274.5363459958277872
  0
ARC
  5
9BAA
  8
0
 10
4181.6008997787848784
 20
96.9810146902313051
 30
0.0
 40
6.4570702780103053
 50
88.0351500538504865
 51
89.5061619320809854
  0
ARC
  5
9BAB
  8
0
 10
4181.921680161479344
 20
106.3314267851621935
 30
0.0
 40
2.8988426330289041
 50
268.0351500538504865
 51
270.856327406526475
  0
ARC
  5
9BAC
  8
0
 10
4170.6150502676528049
 20
55.0630692450492703
 30
0.0
 40
42.9360356591819894
 50
87.5201413869637861
 51
89.9122778609755784
  0
ARC
  5
9BAD
  8
0
 10
4170.6234462737247668
 20
60.546922492273147
 30
0.0
 40
37.452175984645649
 50
89.9122778609755784
 51
89.9124691554275586
  0
ENDSEC
  0
EOF
