  0
SECTION
  2
HEADER
  9
$ACADVER
  1
AC1009
  9
$INSBASE
 10
4192.794699599676278
 20
99.9365293725369384
 30
0.0
  9
$EXTMIN
 10
4184.684258470903842
 20
96.443011629040555
 30
-0.0000000349181948
  9
$EXTMAX
 10
4201.0299252470922511
 20
103.4430729705237013
 30
0.0000000814935746
  9
$LIMMIN
 10
0.0
 20
0.0
  9
$LIMMAX
 10
11.6929133858000007
 20
8.2677165353999982
  9
$ORTHOMODE
 70
     1
  9
$REGENMODE
 70
     1
  9
$FILLMODE
 70
     1
  9
$QTEXTMODE
 70
     0
  9
$MIRRTEXT
 70
     0
  9
$DRAGMODE
 70
     2
  9
$LTSCALE
 40
0.6431102362
  9
$OSMODE
 70
  4095
  9
$ATTMODE
 70
     1
  9
$TEXTSIZE
 40
0.2
  9
$TRACEWID
 40
0.05
  9
$TEXTSTYLE
  7
STANDARD
  9
$CLAYER
  8
0
  9
$CELTYPE
  6
BYLAYER
  9
$CECOLOR
 62
   256
  9
$DIMSCALE
 40
1.0
  9
$DIMASZ
 40
0.1875
  9
$DIMEXO
 40
0.0625
  9
$DIMDLI
 40
0.4443307087
  9
$DIMRND
 40
0.0
  9
$DIMDLE
 40
0.0
  9
$DIMEXE
 40
0.125
  9
$DIMTP
 40
0.01
  9
$DIMTM
 40
0.01
  9
$DIMTXT
 40
2.0
  9
$DIMCEN
 40
0.1052362205
  9
$DIMTSZ
 40
0.0
  9
$DIMTOL
 70
     1
  9
$DIMLIM
 70
     0
  9
$DIMTIH
 70
     1
  9
$DIMTOH
 70
     1
  9
$DIMSE1
 70
     0
  9
$DIMSE2
 70
     0
  9
$DIMTAD
 70
     0
  9
$DIMZIN
 70
     0
  9
$DIMBLK
  1

  9
$DIMASO
 70
     1
  9
$DIMSHO
 70
     1
  9
$DIMPOST
  1
\X
  9
$DIMAPOST
  1

  9
$DIMALT
 70
     1
  9
$DIMALTD
 70
     2
  9
$DIMALTF
 40
25.3999999999999986
  9
$DIMLFAC
 40
1.0
  9
$DIMTOFL
 70
     0
  9
$DIMTVP
 40
0.0
  9
$DIMTIX
 70
     0
  9
$DIMSOXD
 70
     0
  9
$DIMSAH
 70
     0
  9
$DIMBLK1
  1

  9
$DIMBLK2
  1

  9
$DIMSTYLE
  2
STANDARD
  9
$DIMCLRD
 70
     0
  9
$DIMCLRE
 70
     0
  9
$DIMCLRT
 70
     0
  9
$DIMTFAC
 40
1.0
  9
$DIMGAP
 40
0.09
  9
$LUNITS
 70
     2
  9
$LUPREC
 70
     4
  9
$SKETCHINC
 40
0.1
  9
$FILLETRAD
 40
0.0
  9
$AUNITS
 70
     0
  9
$AUPREC
 70
     0
  9
$MENU
  1
.
  9
$ELEVATION
 40
0.0
  9
$PELEVATION
 40
0.0
  9
$THICKNESS
 40
0.0
  9
$LIMCHECK
 70
     0
  9
$BLIPMODE
 70
     0
  9
$CHAMFERA
 40
0.0
  9
$CHAMFERB
 40
0.0
  9
$SKPOLY
 70
     0
  9
$TDCREATE
 40
2458060.468368056230247
  9
$TDUPDATE
 40
2459921.3866550931707025
  9
$TDINDWG
 40
0.3225186343
  9
$TDUSRTIMER
 40
0.3225186343
  9
$USRTIMER
 70
     1
  9
$ANGBASE
 50
0.0
  9
$ANGDIR
 70
     0
  9
$PDMODE
 70
     0
  9
$PDSIZE
 40
0.3125
  9
$PLINEWID
 40
0.0
  9
$COORDS
 70
     1
  9
$SPLFRAME
 70
     0
  9
$SPLINETYPE
 70
     6
  9
$SPLINESEGS
 70
     8
  9
$ATTDIA
 70
     1
  9
$ATTREQ
 70
     1
  9
$HANDLING
 70
     1
  9
$HANDSEED
  5
A278
  9
$SURFTAB1
 70
     6
  9
$SURFTAB2
 70
     6
  9
$SURFTYPE
 70
     6
  9
$SURFU
 70
     6
  9
$SURFV
 70
     6
  9
$UCSNAME
  2

  9
$UCSORG
 10
0.0
 20
0.0
 30
0.0
  9
$UCSXDIR
 10
1.0
 20
0.0
 30
0.0
  9
$UCSYDIR
 10
0.0
 20
1.0
 30
0.0
  9
$PUCSNAME
  2

  9
$PUCSORG
 10
0.0
 20
0.0
 30
0.0
  9
$PUCSXDIR
 10
1.0
 20
0.0
 30
0.0
  9
$PUCSYDIR
 10
0.0
 20
1.0
 30
0.0
  9
$USERI1
 70
     0
  9
$USERI2
 70
     0
  9
$USERI3
 70
     0
  9
$USERI4
 70
     0
  9
$USERI5
 70
     0
  9
$USERR1
 40
0.0
  9
$USERR2
 40
0.0
  9
$USERR3
 40
0.0
  9
$USERR4
 40
0.0
  9
$USERR5
 40
0.0
  9
$WORLDVIEW
 70
     1
  9
$SHADEDGE
 70
     3
  9
$SHADEDIF
 70
    70
  9
$TILEMODE
 70
     1
  9
$MAXACTVP
 70
    64
  9
$PLIMCHECK
 70
     0
  9
$PEXTMIN
 10
1.0000000000000000E+20
 20
1.0000000000000000E+20
 30
1.0000000000000000E+20
  9
$PEXTMAX
 10
-1.0000000000000000E+20
 20
-1.0000000000000000E+20
 30
-1.0000000000000000E+20
  9
$PLIMMIN
 10
0.0
 20
0.0
  9
$PLIMMAX
 10
12.0
 20
9.0
  9
$UNITMODE
 70
     0
  9
$VISRETAIN
 70
     1
  9
$PLINEGEN
 70
     0
  9
$PSLTSCALE
 70
     1
  0
ENDSEC
  0
SECTION
  2
TABLES
  0
TABLE
  2
VPORT
 70
     1
  0
VPORT
  2
*ACTIVE
 70
     0
 10
0.0
 20
0.0
 11
1.0
 21
1.0
 12
-72.1492557972514987
 22
-4.360969998801834
 13
0.0
 23
0.0
 14
1.0
 24
1.0
 15
0.0
 25
0.0
 16
0.0
 26
0.0
 36
122.0237731519760018
 17
4265.00634765625
 27
104.3040122985839986
 37
0.0
 40
7.5242309474911169
 41
2.1792237442922371
 42
50.0
 43
0.0
 44
0.0
 50
0.0
 51
0.0
 71
     0
 72
   100
 73
     1
 74
     1
 75
     0
 76
     0
 77
     0
 78
     0
  0
ENDTAB
  0
TABLE
  2
LTYPE
 70
     2
  0
LTYPE
  2
CONTINUOUS
 70
     0
  3
Solid line
 72
    65
 73
     0
 40
0.0
  0
LTYPE
  2
PHANTOM2
 70
     0
  3
___ _ _ ___ _ _ ___ _ _ ___ _ _
 72
    65
 73
     6
 40
1.25
 49
0.625
 49
-0.125
 49
0.125
 49
-0.125
 49
0.125
 49
-0.125
  0
ENDTAB
  0
TABLE
  2
LAYER
 70
     2
  0
LAYER
  2
0
 70
     0
 62
   255
  6
CONTINUOUS
  0
LAYER
  2
DEFPOINTS
 70
     0
 62
     7
  6
CONTINUOUS
  0
ENDTAB
  0
TABLE
  2
STYLE
 70
     1
  0
STYLE
  2
STANDARD
 70
     0
 40
0.0
 41
0.8
 50
0.0
 71
     0
 42
0.2
  3
txt
  4

  0
ENDTAB
  0
TABLE
  2
VIEW
 70
     0
  0
ENDTAB
  0
TABLE
  2
UCS
 70
     0
  0
ENDTAB
  0
TABLE
  2
APPID
 70
    10
  0
APPID
  2
ACAD
 70
     0
  0
APPID
  2
ACAD_MLEADERVER
 70
     0
  0
APPID
  2
ACAD_EXEMPT_FROM_CAD_STANDARDS
 70
     0
  0
APPID
  2
ACAD_NAV_VCDISPLAY
 70
     0
  0
APPID
  2
ACAECLAYERSTANDARD
 70
     0
  0
APPID
  2
ACCMTRANSPARENCY
 70
     0
  0
APPID
  2
ACAD_DSTYLE_DIMJAG
 70
     0
  0
APPID
  2
ACAD_DSTYLE_DIMTALN
 70
     0
  0
APPID
  2
ACDBATTR
 70
     0
  0
APPID
  2
DCO15
 70
     0
  0
ENDTAB
  0
TABLE
  2
DIMSTYLE
 70
     1
  0
DIMSTYLE
  2
STANDARD
 70
     0
  3

  4

  5

  6

  7

 40
1.0
 41
0.1875
 42
0.0625
 43
0.38
 44
0.125
 45
0.0
 46
0.0
 47
0.01
 48
0.01
140
0.15625
141
0.09
142
0.0
143
25.3999999999999986
144
1.0
145
0.0
146
1.0
147
0.09
 71
     1
 72
     0
 73
     1
 74
     1
 75
     0
 76
     0
 77
     0
 78
     4
170
     0
171
     2
172
     0
173
     0
174
     0
175
     0
176
     0
177
     0
178
     0
  0
ENDTAB
  0
ENDSEC
  0
SECTION
  2
BLOCKS
  0
BLOCK
  8
0
  2
$MODEL_SPACE
 70
     0
 10
0.0
 20
0.0
 30
0.0
  3
$MODEL_SPACE
  1

  0
ENDBLK
  5
21
  8
0
  0
BLOCK
 67
     1
  8
0
  2
$PAPER_SPACE
 70
     0
 10
0.0
 20
0.0
 30
0.0
  3
$PAPER_SPACE
  1

  0
ENDBLK
  5
1D
 67
     1
  8
0
  0
BLOCK
  8
0
  2
_FILLED
 70
     0
 10
0.0
 20
0.0
 30
0.0
  3
_FILLED
  1

  0
SOLID
  5
9A68
  8
0
  6
BYBLOCK
 62
     0
 10
0.0
 20
0.0
 30
0.0
 11
-1.0
 21
0.1666666667
 31
0.0
 12
-1.0
 22
-0.1666666667
 32
0.0
 13
-1.0
 23
-0.1666666667
 33
0.0
  0
ENDBLK
  5
9A69
  8
0
  6
BYBLOCK
 62
     0
  0
ENDSEC
  0
SECTION
  2
ENTITIES
  0
ATTDEF
  5
936D
  8
DEFPOINTS
 10
4192.7955198614699839
 20
99.9409300546523411
 30
0.0
 40
0.001
  1
K-EX21060T-AE1
  3

  2
MODELNUMBER
 70
     0
1001
ACDBATTR
1070
     0
1070
     1
  0
ATTDEF
  5
936E
  8
DEFPOINTS
 10
4192.7955198614699839
 20
99.939263387985676
 30
0.0
 40
0.001
  1
BRAZN
  3

  2
TRADENAME
 70
     0
1001
ACDBATTR
1070
     0
1070
     1
  0
ATTDEF
  5
936F
  8
DEFPOINTS
 10
4192.7955198614699839
 20
99.9375967213190108
 30
0.0
 40
0.001
  1
BATHROOM SINK 
  3

  2
PRODUCT
 70
     0
1001
ACDBATTR
1070
     0
1070
     1
  0
LINE
  5
A03F
  8
0
 10
4200.2268744529528703
 20
103.4362735435357052
 30
0.0
 11
4185.2211246763135932
 21
103.4362735435357052
 31
0.0
  0
LINE
  5
A040
  8
0
 10
4197.0552968705187595
 20
96.4463612675037751
 30
0.0
 11
4194.6366306524423635
 21
96.4463612675037751
 31
0.0
  0
LINE
  5
A041
  8
0
 10
4186.8397880431011799
 20
99.9365293725369384
 30
0.0
 11
4200.7206653992170686
 21
99.9365293725369384
 31
0.0
  0
ARC
  5
A042
  8
0
 10
4184.8563869437257381
 20
103.372545213792506
 30
0.0
 40
0.0641535540425709
 50
94.294900377172354
 51
188.0798099341234035
  0
ARC
  5
A043
  8
0
 10
4184.927032458350368
 20
103.384234071009999
 30
0.0
 40
0.1357506328015544
 50
188.7734640088523861
 51
209.2163195424880087
  0
LINE
  5
A044
  8
0
 10
4184.8085516022738375
 20
103.3179730640036951
 30
0.0
 11
4186.7747277125727123
 21
99.9753447195037666
 31
0.0
  0
ARC
  5
A045
  8
0
 10
4186.8436281067997697
 20
100.016898992843295
 30
0.0
 40
0.0804613072066385
 50
211.0944503144945941
 51
267.2644857435296899
  0
ARC
  5
A046
  8
0
 10
4200.5585357249101435
 20
108.9399215016911029
 30
0.0
 40
5.5103697764857316
 50
268.7218587612713918
 51
271.2781412387286082
  0
ARC
  5
A047
  8
0
 10
4200.910448901970085
 20
126.0296176808591042
 30
0.0
 40
22.6036827383254284
 50
268.2670123373288789
 51
268.7963205771869752
  0
ARC
  5
A048
  8
0
 10
4200.7118699246520919
 20
103.2996384707173974
 30
0.0
 40
0.1398268014207688
 50
71.4889068116531234
 51
72.1265948053801651
  0
ARC
  5
A049
  8
0
 10
4200.7296831671819746
 20
103.3791632033127001
 30
0.0
 40
0.0593522357214686
 50
14.3227392614554603
 51
63.3950097152534511
  0
ARC
  5
A04A
  8
0
 10
4199.3699876998625768
 20
103.1902849416018029
 30
0.0
 40
1.431747581689605
 50
5.1139743909698714
 51
8.1738174170753286
  0
LINE
  5
A04B
  8
0
 10
4200.7960360020460939
 20
103.3179069519036943
 30
0.0
 11
4200.7971555636459016
 21
100.0152646761036976
 31
0.0
  0
ARC
  5
A04C
  8
0
 10
4200.7167116293348954
 20
100.0161730531227988
 30
0.0
 40
0.0804490628675547
 50
320.4783688907435817
 51
359.3530406255097773
  0
ARC
  5
A04D
  8
0
 10
4200.7184543228268012
 20
100.0146051379188066
 30
0.0
 40
0.0781070675340763
 50
271.6221614196878136
 51
320.5520679001248254
  0
ARC
  5
A04E
  8
0
 10
4184.8564506530610743
 20
103.3572302359201984
 30
0.0
 40
0.079801658361828
 50
81.8048264779233421
 51
88.4332259818068422
  0
ARC
  5
A04F
  8
0
 10
4184.8591967458933141
 20
103.377127513134198
 30
0.0
 40
0.0598772041997558
 50
90.5398452551589514
 51
97.3057752663198556
  0
ARC
  5
A050
  8
0
 10
4184.9520580289890859
 20
103.9892002058769975
 30
0.0
 40
0.5593616715929955
 50
261.3391157397566076
 51
262.5388315486731017
  0
ARC
  5
A051
  8
0
 10
4184.9261943879146202
 20
103.8837882056018032
 30
0.0
 40
0.4516419729607147
 50
264.0558183271048733
 51
267.7975734369804854
  0
ARC
  5
A052
  8
0
 10
4184.9817726827395745
 20
105.5927097723606067
 30
0.0
 40
2.1614607929196632
 50
268.0662806847358866
 51
270.8281597282506254
  0
ARC
  5
A053
  8
0
 10
4184.9492678901988256
 20
110.7109938323705052
 30
0.0
 40
7.2797981697943586
 50
270.5017181070654146
 51
272.1401512458293723
  0
ARC
  5
A054
  8
0
 10
4200.6544204905885636
 20
103.8528305496738966
 30
0.0
 40
0.4227727107660077
 50
273.6655896555263894
 51
278.1967466129564741
  0
ARC
  5
A055
  8
0
 10
4200.7302918840659913
 20
103.3261076951235964
 30
0.0
 40
0.1093865077521632
 50
77.0610834628870691
 51
98.196746612956531
  0
ARC
  5
A056
  8
0
 10
4200.4224604033461219
 20
99.7396789539037627
 30
0.0
 40
0.1968503937000117
 50
90.0
 51
164.13075775529461
  0
LINE
  5
A057
  8
0
 10
4200.2331123248268341
 20
99.7935062951100491
 30
0.0
 11
4199.9525101283079493
 21
98.806433823248824
 31
0.0
  0
ARC
  5
A058
  8
0
 10
4198.0538678655439071
 20
99.3327876341700318
 30
0.0
 40
1.9702514499996471
 50
324.3208600900219949
 51
344.5052203371029123
  0
ARC
  5
A059
  8
0
 10
4196.990913627109876
 20
100.0960110701472985
 30
0.0
 40
3.27883149196371
 50
277.3777159944378923
 51
324.3208600900219949
  0
ARC
  5
A05A
  8
0
 10
4197.4361187347922169
 20
96.6576519930187601
 30
0.0
 40
0.1882307704103251
 50
97.3777159944379207
 51
177.3080059356688878
  0
ARC
  5
A05B
  8
0
 10
12100.403606064239284
 20
-561.9597227050437596
 30
0.0
 40
7930.5520307668111855
 50
175.2361428732363891
 51
175.2364301691210073
  0
ARC
  5
A05C
  8
0
 10
4197.0484648483143246
 20
96.6432541385608488
 30
0.0
 40
0.197011368201207
 50
271.9873195229018847
 51
355.2279822330008869
  0
ARC
  5
A05D
  8
0
 10
4194.6557644284339403
 20
96.6639638379561461
 30
0.0
 40
0.2184421663764204
 50
189.7783819392028875
 51
264.9749110371549818
  0
LINE
  5
A05E
  8
0
 10
4194.4404957790457047
 20
96.6268641258037633
 30
0.0
 11
4194.3502979736040288
 21
97.7109324402555188
 31
0.0
  0
ARC
  5
A05F
  8
0
 10
4194.0365140179073933
 20
97.6848246536802662
 30
0.0
 40
0.3148682063544073
 50
4.7562292078371113
 51
83.2035572659528668
  0
ARC
  5
A060
  8
0
 10
4196.0508897431527657
 20
112.6206321985553984
 30
0.0
 40
14.7562038163994806
 50
239.3929992071626884
 51
262.3000547328257994
  0
ARC
  5
A061
  8
0
 10
4188.4801542812301705
 20
99.8262037804621229
 30
0.0
 40
0.110330373234305
 50
58.4894966740131821
 51
89.46659354061822
  0
LINE
  5
A062
  8
0
 10
4199.475635663932735
 20
99.9365293725369384
 30
0.0
 11
4199.252835069086359
 21
99.1527852088285755
 31
0.0
  0
ARC
  5
A063
  8
0
 10
4198.3060944556027607
 20
99.4219219777105536
 30
0.0
 40
0.9842521981591954
 50
305.0899349653337822
 51
344.1307577521765779
  0
ARC
  5
A064
  8
0
 10
4196.6286336336179374
 20
102.1295891177280026
 30
0.0
 40
4.16817148011339
 50
271.637042945677706
 51
302.5605307670477941
  0
ARC
  5
A065
  8
0
 10
4196.0389405619253012
 20
146.8653791190841105
 30
0.0
 40
48.9073962912468403
 50
267.6971593265549814
 51
270.8303630179509014
  0
ARC
  5
A066
  8
0
 10
4198.0605180922993895
 20
97.8587246471604857
 30
0.0
 40
1.316952703819942
 50
175.4534208799973953
 51
234.6030719187803015
  0
ENDSEC
  0
EOF
