  0
SECTION
  2
HEADER
  9
$ACADVER
  1
AC1009
  9
$INSBASE
 10
4054.7162882490329139
 20
101.5012062652147051
 30
0.0
  9
$EXTMIN
 10
4046.5461108161521224
 20
101.4982414507505979
 30
-0.0000000000000058
  9
$EXTMAX
 10
4062.352200412514776
 20
131.0043575275454089
 30
0.0000000000000104
  9
$LIMMIN
 10
0.0
 20
0.0
  9
$LIMMAX
 10
11.6929133858000007
 20
8.2677165353999982
  9
$ORTHOMODE
 70
     0
  9
$REGENMODE
 70
     1
  9
$FILLMODE
 70
     1
  9
$QTEXTMODE
 70
     0
  9
$MIRRTEXT
 70
     0
  9
$DRAGMODE
 70
     2
  9
$LTSCALE
 40
0.6431102362
  9
$OSMODE
 70
  4095
  9
$ATTMODE
 70
     1
  9
$TEXTSIZE
 40
0.2
  9
$TRACEWID
 40
0.05
  9
$TEXTSTYLE
  7
STANDARD
  9
$CLAYER
  8
0
  9
$CELTYPE
  6
BYLAYER
  9
$CECOLOR
 62
   256
  9
$DIMSCALE
 40
1.0
  9
$DIMASZ
 40
0.1875
  9
$DIMEXO
 40
0.0625
  9
$DIMDLI
 40
0.4443307087
  9
$DIMRND
 40
0.0
  9
$DIMDLE
 40
0.0
  9
$DIMEXE
 40
0.125
  9
$DIMTP
 40
0.01
  9
$DIMTM
 40
0.01
  9
$DIMTXT
 40
2.0
  9
$DIMCEN
 40
0.1052362205
  9
$DIMTSZ
 40
0.0
  9
$DIMTOL
 70
     1
  9
$DIMLIM
 70
     0
  9
$DIMTIH
 70
     1
  9
$DIMTOH
 70
     1
  9
$DIMSE1
 70
     0
  9
$DIMSE2
 70
     0
  9
$DIMTAD
 70
     0
  9
$DIMZIN
 70
     0
  9
$DIMBLK
  1

  9
$DIMASO
 70
     1
  9
$DIMSHO
 70
     1
  9
$DIMPOST
  1
\X
  9
$DIMAPOST
  1

  9
$DIMALT
 70
     1
  9
$DIMALTD
 70
     2
  9
$DIMALTF
 40
25.3999999999999986
  9
$DIMLFAC
 40
1.0
  9
$DIMTOFL
 70
     0
  9
$DIMTVP
 40
0.0
  9
$DIMTIX
 70
     0
  9
$DIMSOXD
 70
     0
  9
$DIMSAH
 70
     0
  9
$DIMBLK1
  1

  9
$DIMBLK2
  1

  9
$DIMSTYLE
  2
STANDARD
  9
$DIMCLRD
 70
     0
  9
$DIMCLRE
 70
     0
  9
$DIMCLRT
 70
     0
  9
$DIMTFAC
 40
1.0
  9
$DIMGAP
 40
0.09
  9
$LUNITS
 70
     2
  9
$LUPREC
 70
     4
  9
$SKETCHINC
 40
0.1
  9
$FILLETRAD
 40
0.0
  9
$AUNITS
 70
     0
  9
$AUPREC
 70
     0
  9
$MENU
  1
.
  9
$ELEVATION
 40
0.0
  9
$PELEVATION
 40
0.0
  9
$THICKNESS
 40
0.0
  9
$LIMCHECK
 70
     0
  9
$BLIPMODE
 70
     0
  9
$CHAMFERA
 40
0.0
  9
$CHAMFERB
 40
0.0
  9
$SKPOLY
 70
     0
  9
$TDCREATE
 40
2458060.468368056230247
  9
$TDUPDATE
 40
2460024.5747800930403173
  9
$TDINDWG
 40
0.3393241898
  9
$TDUSRTIMER
 40
0.3393241898
  9
$USRTIMER
 70
     1
  9
$ANGBASE
 50
0.0
  9
$ANGDIR
 70
     0
  9
$PDMODE
 70
     0
  9
$PDSIZE
 40
0.3125
  9
$PLINEWID
 40
0.0
  9
$COORDS
 70
     1
  9
$SPLFRAME
 70
     0
  9
$SPLINETYPE
 70
     6
  9
$SPLINESEGS
 70
     8
  9
$ATTDIA
 70
     1
  9
$ATTREQ
 70
     1
  9
$HANDLING
 70
     1
  9
$HANDSEED
  5
10F01
  9
$SURFTAB1
 70
     6
  9
$SURFTAB2
 70
     6
  9
$SURFTYPE
 70
     6
  9
$SURFU
 70
     6
  9
$SURFV
 70
     6
  9
$UCSNAME
  2

  9
$UCSORG
 10
0.0
 20
0.0
 30
0.0
  9
$UCSXDIR
 10
1.0
 20
0.0
 30
0.0
  9
$UCSYDIR
 10
0.0
 20
1.0
 30
0.0
  9
$PUCSNAME
  2

  9
$PUCSORG
 10
0.0
 20
0.0
 30
0.0
  9
$PUCSXDIR
 10
1.0
 20
0.0
 30
0.0
  9
$PUCSYDIR
 10
0.0
 20
1.0
 30
0.0
  9
$USERI1
 70
     0
  9
$USERI2
 70
     0
  9
$USERI3
 70
     0
  9
$USERI4
 70
     0
  9
$USERI5
 70
     0
  9
$USERR1
 40
0.0
  9
$USERR2
 40
0.0
  9
$USERR3
 40
0.0
  9
$USERR4
 40
0.0
  9
$USERR5
 40
0.0
  9
$WORLDVIEW
 70
     1
  9
$SHADEDGE
 70
     3
  9
$SHADEDIF
 70
    70
  9
$TILEMODE
 70
     1
  9
$MAXACTVP
 70
    64
  9
$PLIMCHECK
 70
     0
  9
$PEXTMIN
 10
1.0000000000000000E+20
 20
1.0000000000000000E+20
 30
1.0000000000000000E+20
  9
$PEXTMAX
 10
-1.0000000000000000E+20
 20
-1.0000000000000000E+20
 30
-1.0000000000000000E+20
  9
$PLIMMIN
 10
0.0
 20
0.0
  9
$PLIMMAX
 10
12.0
 20
9.0
  9
$UNITMODE
 70
     0
  9
$VISRETAIN
 70
     1
  9
$PLINEGEN
 70
     0
  9
$PSLTSCALE
 70
     1
  0
ENDSEC
  0
SECTION
  2
TABLES
  0
TABLE
  2
VPORT
 70
     1
  0
VPORT
  2
*ACTIVE
 70
     0
 10
0.0
 20
0.0
 11
1.0
 21
1.0
 12
-210.5571920419160961
 22
11.9472871905640492
 13
0.0
 23
0.0
 14
1.0
 24
1.0
 15
0.0
 25
0.0
 16
0.0
 26
0.0
 36
122.0237731519760018
 17
4265.00634765625
 27
104.3040122985839986
 37
0.0
 40
29.7327955857074393
 41
1.593589743589743
 42
50.0
 43
0.0
 44
0.0
 50
0.0
 51
0.0
 71
     0
 72
   100
 73
     1
 74
     1
 75
     0
 76
     0
 77
     0
 78
     0
  0
ENDTAB
  0
TABLE
  2
LTYPE
 70
     2
  0
LTYPE
  2
CONTINUOUS
 70
     0
  3
Solid line
 72
    65
 73
     0
 40
0.0
  0
LTYPE
  2
PHANTOM2
 70
     0
  3
___ _ _ ___ _ _ ___ _ _ ___ _ _
 72
    65
 73
     6
 40
1.25
 49
0.625
 49
-0.125
 49
0.125
 49
-0.125
 49
0.125
 49
-0.125
  0
ENDTAB
  0
TABLE
  2
LAYER
 70
     2
  0
LAYER
  2
0
 70
     0
 62
   255
  6
CONTINUOUS
  0
LAYER
  2
DEFPOINTS
 70
     0
 62
     7
  6
CONTINUOUS
  0
ENDTAB
  0
TABLE
  2
STYLE
 70
     1
  0
STYLE
  2
STANDARD
 70
     0
 40
0.0
 41
0.8
 50
0.0
 71
     0
 42
0.2
  3
txt
  4

  0
ENDTAB
  0
TABLE
  2
VIEW
 70
     0
  0
ENDTAB
  0
TABLE
  2
UCS
 70
     0
  0
ENDTAB
  0
TABLE
  2
APPID
 70
     9
  0
APPID
  2
ACAD
 70
     0
  0
APPID
  2
ACAD_MLEADERVER
 70
     0
  0
APPID
  2
ACAD_EXEMPT_FROM_CAD_STANDARDS
 70
     0
  0
APPID
  2
ACAD_NAV_VCDISPLAY
 70
     0
  0
APPID
  2
ACAECLAYERSTANDARD
 70
     0
  0
APPID
  2
ACCMTRANSPARENCY
 70
     0
  0
APPID
  2
ACAD_DSTYLE_DIMJAG
 70
     0
  0
APPID
  2
ACAD_DSTYLE_DIMTALN
 70
     0
  0
APPID
  2
ACDBATTR
 70
     0
  0
ENDTAB
  0
TABLE
  2
DIMSTYLE
 70
     1
  0
DIMSTYLE
  2
STANDARD
 70
     0
  3

  4

  5

  6

  7

 40
1.0
 41
0.1875
 42
0.0625
 43
0.38
 44
0.125
 45
0.0
 46
0.0
 47
0.01
 48
0.01
140
0.15625
141
0.09
142
0.0
143
25.3999999999999986
144
1.0
145
0.0
146
1.0
147
0.09
 71
     1
 72
     0
 73
     1
 74
     1
 75
     0
 76
     0
 77
     0
 78
     4
170
     0
171
     2
172
     0
173
     0
174
     0
175
     0
176
     0
177
     0
178
     0
  0
ENDTAB
  0
ENDSEC
  0
SECTION
  2
BLOCKS
  0
BLOCK
  8
0
  2
$MODEL_SPACE
 70
     0
 10
0.0
 20
0.0
 30
0.0
  3
$MODEL_SPACE
  1

  0
ENDBLK
  5
21
  8
0
  0
BLOCK
 67
     1
  8
0
  2
$PAPER_SPACE
 70
     0
 10
0.0
 20
0.0
 30
0.0
  3
$PAPER_SPACE
  1

  0
ENDBLK
  5
1D
 67
     1
  8
0
  0
ENDSEC
  0
SECTION
  2
ENTITIES
  0
ATTDEF
  5
10706
  8
DEFPOINTS
 10
4054.7126536103451144
 20
101.5068388024212993
 30
0.0
 40
0.001
  1
K-EX22379T-SL
  3

  2
MODELNUMBER
 70
     0
1001
ACDBATTR
1070
     0
1070
     1
  0
ATTDEF
  5
10707
  8
DEFPOINTS
 10
4054.7126536103451144
 20
101.5051721357546057
 30
0.0
 40
0.001
  1
BRAZN
  3

  2
TRADENAME
 70
     0
1001
ACDBATTR
1070
     0
1070
     1
  0
ATTDEF
  5
10708
  8
DEFPOINTS
 10
4054.7126536103451144
 20
101.5035054690878979
 30
0.0
 40
0.001
  1
TOILET
  3

  2
PRODUCT
 70
     0
1001
ACDBATTR
1070
     0
1070
     1
  0
LINE
  5
10DA7
  8
0
 10
4059.7156970661358173
 20
101.5012062652147051
 30
0.0
 11
4049.7168794319300105
 21
101.5012062652147051
 31
0.0
  0
LINE
  5
10DA8
  8
0
 10
4049.7168794319300105
 20
101.5012062652147051
 30
0.0
 11
4049.5226789241469305
 21
102.7198744054183948
 31
0.0
  0
LINE
  5
10DA9
  8
0
 10
4049.47232080369713
 20
103.0358871578780935
 30
0.0
 11
4048.4440406453859396
 21
109.488662603429205
 31
0.0
  0
LINE
  5
10DAA
  8
0
 10
4048.2296711354920262
 20
110.8338974584855947
 30
0.0
 11
4047.6807218277299398
 21
114.2787238371146969
 31
0.0
  0
ARC
  5
10DAB
  8
0
 10
4082.2548625504468873
 20
119.9435698125931964
 30
0.0
 40
35.0351493023804608
 50
184.473374312540102
 51
189.3050245106929879
  0
ARC
  5
10DAC
  8
0
 10
4047.491917742482201
 20
130.8830006099171044
 30
0.0
 40
0.1182595301465698
 50
91.7295338934888491
 51
179.953770219072112
  0
LINE
  5
10DAD
  8
0
 10
4047.3736582508308857
 20
130.8830960290146095
 30
0.0
 11
4047.3734445231730206
 21
130.6193165879622882
 31
0.0
  0
ARC
  5
10DAE
  8
0
 10
4047.4898204373321278
 20
130.619222294216712
 30
0.0
 40
0.1163759523597891
 50
179.9535760254572097
 51
210.1915569767336933
  0
ARC
  5
10DAF
  8
0
 10
4047.509588813757091
 20
130.8827867827073135
 30
0.0
 40
0.118526357723411
 50
92.4333316368447697
 51
160.620607695598494
  0
ARC
  5
10DB0
  8
0
 10
4047.5169163806458528
 20
130.8802093010509964
 30
0.0
 40
0.1262940245677988
 50
160.6206076955976982
 51
178.4623671702948116
  0
LINE
  5
10DB1
  8
0
 10
4047.3906678325511166
 20
130.883598216094299
 30
0.0
 11
4047.3394026919741009
 21
121.5425131582718024
 31
0.0
  0
ARC
  5
10DB2
  8
0
 10
4084.844848261730931
 20
115.6836856549355019
 30
0.0
 40
37.6194665276672211
 50
176.1843814382762048
 51
176.4774085696388113
  0
ARC
  5
10DB3
  8
0
 10
4047.7411144811790109
 20
117.3455831569451959
 30
0.0
 40
0.4457129225025991
 50
183.9458068119132861
 51
191.0735966400347934
  0
ARC
  5
10DB4
  8
0
 10
4047.3832850526928269
 20
117.2868756203722
 30
0.0
 40
0.0840082597704549
 50
198.675729159149796
 51
244.620943505631999
  0
LINE
  5
10DB5
  8
0
 10
4047.9643601258371746
 20
117.210972668278103
 30
0.0
 11
4047.9651449656439581
 21
117.1884977959146994
 31
0.0
  0
ARC
  5
10DB6
  8
0
 10
4047.9825156554547902
 20
117.1891043937457937
 30
0.0
 40
0.017381278015149
 50
181.9999999219014057
 51
249.1857712453575004
  0
ARC
  5
10DB7
  8
0
 10
4048.4168382944430959
 20
118.2482409150754989
 30
0.0
 40
1.162105348166002
 50
247.7249980295765965
 51
292.3012571022798056
  0
ARC
  5
10DB8
  8
0
 10
4048.8516473129370752
 20
117.1893006702045028
 30
0.0
 40
0.0173782198456662
 50
290.8404838864900057
 51
357.3519909579520117
  0
LINE
  5
10DB9
  8
0
 10
4048.8690069764720647
 20
117.1884977960065015
 30
0.0
 11
4048.8700465259348675
 21
117.2109748278443959
 31
0.0
  0
LINE
  5
10DBA
  8
0
 10
4047.9651449656439581
 20
117.1884977959145999
 30
0.0
 11
4048.869006976467972
 21
117.1884977959145999
 31
0.0
  0
ARC
  5
10DBB
  8
0
 10
4048.9619736631329943
 20
117.0741737025283982
 30
0.0
 40
0.4102249611886351
 50
3.2424261739939011
 51
19.4800310855386201
  0
ARC
  5
10DBC
  8
0
 10
4049.3835202810250848
 20
117.0981369125425999
 30
0.0
 40
0.0120024838641312
 50
183.6330572016015026
 51
269.2025401639072015
  0
LINE
  5
10DBD
  8
0
 10
4049.3816429002308723
 20
117.086135591214699
 30
0.0
 11
4049.3824680554289444
 21
117.0625135529401035
 31
0.0
  0
ARC
  5
10DBE
  8
0
 10
4049.3998402601459929
 20
117.0631203915568932
 30
0.0
 40
0.0173828004030615
 50
182.0006188327180894
 51
218.1340595529030963
  0
LINE
  5
10DBF
  8
0
 10
4047.3392106813312239
 20
117.0523864571367056
 30
0.0
 11
4062.0933658127210037
 21
117.0523864086774068
 31
0.0
  0
ARC
  5
10DC0
  8
0
 10
4050.5800191897078548
 20
117.0719977032506023
 30
0.0
 40
0.283794866981013
 50
150.6771399795418915
 51
174.9026777218591064
  0
ARC
  5
10DC1
  8
0
 10
4050.2852017744030491
 20
117.098295568599795
 30
0.0
 40
0.0121931160332331
 50
274.225188417482002
 51
354.9026777218591064
  0
LINE
  5
10DC2
  8
0
 10
4050.2871547112299595
 20
117.086135591214699
 30
0.0
 11
4050.2863298111319637
 21
117.0625135440147062
 31
0.0
  0
LINE
  5
10DC3
  8
0
 10
4047.3792861046417784
 20
128.809719410548098
 30
0.0
 11
4047.3460411739310985
 21
128.8165657394146137
 31
0.0
  0
ARC
  5
10DC4
  8
0
 10
4047.3419741739658093
 20
128.7968168879270934
 30
0.0
 40
0.0201632741336877
 50
78.3634159243180193
 51
172.5259710866147884
  0
LINE
  5
10DC5
  8
0
 10
4047.3219822085311534
 20
128.7994396616147128
 30
0.0
 11
4047.3219817146300556
 21
128.7597971511146113
 31
0.0
  0
ARC
  5
10DC6
  8
0
 10
4047.3342502103741936
 20
128.7645230980365056
 30
0.0
 40
0.0131472644341012
 50
201.0671824198051922
 51
266.20720498875761
  0
LINE
  5
10DC7
  8
0
 10
4047.3333805395309355
 20
128.7514046288146119
 30
0.0
 11
4047.3416649374080407
 21
128.7515221534420107
 31
0.0
  0
ARC
  5
10DC8
  8
0
 10
4047.3434744969608801
 20
128.7410278996511863
 30
0.0
 40
0.0106491252412141
 50
17.3812659791397408
 51
99.7834963565106534
  0
ARC
  5
10DC9
  8
0
 10
4047.3731566019978345
 20
128.7529546736327006
 30
0.0
 40
0.0213889171405389
 50
204.1347132330872967
 51
269.0963195734028091
  0
LINE
  5
10DCA
  8
0
 10
4047.3728192657308682
 20
128.7315684168146959
 30
0.0
 11
4047.3788574320651605
 21
128.7316104470486948
 31
0.0
  0
LINE
  5
10DCB
  8
0
 10
4047.3534777776299052
 20
128.1630286223106054
 30
0.0
 11
4047.3534777776299052
 21
128.7446800557598863
 31
0.0
  0
LINE
  5
10DCC
  8
0
 10
4047.3534777776299052
 20
128.8150342748126036
 30
0.0
 11
4047.3534777776299052
 21
128.8870312377146092
 31
0.0
  0
ARC
  5
10DCD
  8
0
 10
4047.3416558225849258
 20
128.8870312377146092
 30
0.0
 40
0.0118219550452077
 50
359.9999999999992042
 51
88.9532703739128863
  0
LINE
  5
10DCE
  8
0
 10
4047.3418717844310777
 20
128.8988512200145919
 30
0.0
 11
4047.2944226595309374
 21
128.897194260114702
 31
0.0
  0
LINE
  5
10DCF
  8
0
 10
4047.2944226595309374
 20
128.9587723396147112
 30
0.0
 11
4047.2944226595309374
 21
127.9491521704146066
 31
0.0
  0
LINE
  5
10DD0
  8
0
 10
4047.2944226595309374
 20
127.9491521704146066
 30
0.0
 11
4046.7721211777848112
 21
127.9537102263426931
 31
0.0
  0
ARC
  5
10DD1
  8
0
 10
4046.7745306124547824
 20
127.9849335834137065
 30
0.0
 40
0.0313161843495656
 50
182.3850773092061104
 51
265.5873614477841897
  0
LINE
  5
10DD2
  8
0
 10
4046.7432415572311584
 20
127.9836303469146941
 30
0.0
 11
4046.7432415571302045
 21
128.9250815347147068
 31
0.0
  0
ARC
  5
10DD3
  8
0
 10
4046.772375415398983
 20
128.9250815347849937
 30
0.0
 40
0.0291338582673441
 50
90.4954744337239276
 51
180.0000001383687902
  0
LINE
  5
10DD4
  8
0
 10
4046.7721234788300535
 20
128.9542143037145934
 30
0.0
 11
4047.2944226595309374
 21
128.9587723396147112
 31
0.0
  0
LINE
  5
10DD5
  8
0
 10
4047.3753767991979657
 20
128.0974000010594978
 30
0.0
 11
4047.3460411739310985
 21
128.0913587390147086
 31
0.0
  0
ARC
  5
10DD6
  8
0
 10
4047.3419741739658093
 20
128.1111075905022005
 30
0.0
 40
0.0201632741336877
 50
187.4740289133843874
 51
281.6365840756819239
  0
LINE
  5
10DD7
  8
0
 10
4047.3219822085311534
 20
128.1084848168146095
 30
0.0
 11
4047.3219817146300556
 21
128.148127327314711
 31
0.0
  0
ARC
  5
10DD8
  8
0
 10
4047.3342502103741936
 20
128.1434013803927883
 30
0.0
 40
0.0131472644341012
 50
93.79279501124239
 51
158.9328175801948078
  0
LINE
  5
10DD9
  8
0
 10
4047.3333805395309355
 20
128.1565198496147104
 30
0.0
 11
4047.3416649374080407
 21
128.1564023249873117
 31
0.0
  0
ARC
  5
10DDA
  8
0
 10
4047.3434744969608801
 20
128.1668965787781076
 30
0.0
 40
0.0106491252412141
 50
260.216503643489375
 51
342.618734020859506
  0
ARC
  5
10DDB
  8
0
 10
4047.3731566019978345
 20
128.1549698047965933
 30
0.0
 40
0.0213889171405389
 50
90.9036804265972336
 51
155.8652867669119075
  0
LINE
  5
10DDC
  8
0
 10
4047.3728192657308682
 20
128.1763560616147117
 30
0.0
 11
4047.3758100065060717
 21
128.176335243782205
 31
0.0
  0
LINE
  5
10DDD
  8
0
 10
4047.3534777776299052
 20
128.0928578278146119
 30
0.0
 11
4047.3534777776299052
 21
128.0208932407145994
 31
0.0
  0
ARC
  5
10DDE
  8
0
 10
4047.3416558225849258
 20
128.0208932407145994
 30
0.0
 40
0.0118219550452077
 50
271.0467296260870853
 51
0.0000000000008142
  0
LINE
  5
10DDF
  8
0
 10
4047.3418717844310777
 20
128.009073258414702
 30
0.0
 11
4047.2944226595309374
 21
128.0106406215975028
 31
0.0
  0
ARC
  5
10DE0
  8
0
 10
4048.2934460326241606
 20
116.4842764328365945
 30
0.0
 40
2.6160360043184911
 50
90.6165862752519757
 51
96.7864421935767751
  0
ARC
  5
10DE1
  8
0
 10
4048.1362228794851035
 20
117.8054483749947963
 30
0.0
 40
1.2855419529868799
 50
96.7864421935767751
 51
112.8042704662036044
  0
ARC
  5
10DE2
  8
0
 10
4047.8229879439118122
 20
118.5504493992413018
 30
0.0
 40
0.4773695388375633
 50
112.8042704662036044
 51
139.9469635085617938
  0
ARC
  5
10DE3
  8
0
 10
4047.8258617377478004
 20
118.5480334632205057
 30
0.0
 40
0.4811239279853309
 50
139.9469635085617938
 51
166.6714454059091963
  0
ARC
  5
10DE4
  8
0
 10
4049.3499312657359042
 20
118.2840089060304933
 30
0.0
 40
2.0272090077576048
 50
169.3415521008776068
 51
177.4213467975878018
  0
ARC
  5
10DE5
  8
0
 10
4042.0621041597178191
 20
118.7282398954516935
 30
0.0
 40
5.2744982004851613
 50
354.1114211240965233
 51
356.1622911113402097
  0
ARC
  5
10DE6
  8
0
 10
3869.3668665903769579
 20
121.489425718992095
 30
0.0
 40
177.9725440193242036
 50
358.9368034081080054
 51
0.017090761261501
  0
LINE
  5
10DE7
  8
0
 10
4047.3588271315247766
 20
118.0574373566753934
 30
0.0
 11
4054.7162882490329139
 21
118.0574373566753934
 31
0.0
  0
ARC
  5
10DE8
  8
0
 10
4050.2692504213528082
 20
117.0631119020540041
 30
0.0
 40
0.017089867978801
 50
321.1273551100176746
 51
357.9935246599613947
  0
LINE
  5
10DE9
  8
0
 10
4049.3816429002308723
 20
117.086135591214699
 30
0.0
 11
4050.2871547112299595
 21
117.086135591214699
 31
0.0
  0
LINE
  5
10DEA
  8
0
 10
4062.1322293607968277
 20
118.0574373566753934
 30
0.0
 11
4047.3003471372690001
 21
118.0574373566753934
 31
0.0
  0
LINE
  5
10DEB
  8
0
 10
4047.3264412965531847
 20
117.2109748278443959
 30
0.0
 11
4062.1061352015130979
 21
117.2109748278443959
 31
0.0
  0
LINE
  5
10DEC
  8
0
 10
4061.1672822905038629
 20
119.1001609583148024
 30
0.0
 11
4048.2652942075628744
 21
119.1001609583148024
 31
0.0
  0
LINE
  5
10DED
  8
0
 10
4047.4883484952019899
 20
131.0012062652145914
 30
0.0
 11
4061.9442280028652021
 21
131.0012062652145914
 31
0.0
  0
LINE
  5
10DEE
  8
0
 10
4062.0548026885439867
 20
116.6193604934147032
 30
0.0
 11
4047.377773809521841
 21
116.6193604934147032
 31
0.0
  0
LINE
  5
10DEF
  8
0
 10
4049.7168794319300105
 20
101.5012062652147051
 30
0.0
 11
4059.7156970661358173
 21
101.5012062652147051
 31
0.0
  0
LINE
  5
10DF0
  8
0
 10
4059.7156970661358173
 20
101.5012062652147051
 30
0.0
 11
4059.9098975739188973
 21
102.7198744054183948
 31
0.0
  0
LINE
  5
10DF1
  8
0
 10
4059.9602556943691525
 20
103.0358871578780935
 30
0.0
 11
4061.7518546703358879
 21
114.2787238371146969
 31
0.0
  0
ARC
  5
10DF2
  8
0
 10
4027.1777139476189404
 20
119.9435698125931964
 30
0.0
 40
35.0351493023804608
 50
350.6949754893078079
 51
355.5266256874597843
  0
ARC
  5
10DF3
  8
0
 10
4061.9406587555840815
 20
130.8830006099171044
 30
0.0
 40
0.1182595301465698
 50
0.046229780927843
 51
88.2704661065111367
  0
LINE
  5
10DF4
  8
0
 10
4062.0589182472349421
 20
130.8830960290146095
 30
0.0
 11
4062.0591319748928072
 21
130.6193165879622882
 31
0.0
  0
ARC
  5
10DF5
  8
0
 10
4061.9427560607341547
 20
130.619222294216712
 30
0.0
 40
0.1163759523597891
 50
329.8084430232663067
 51
0.0464239745435918
  0
ARC
  5
10DF6
  8
0
 10
4061.9229876843091915
 20
130.8827867827073135
 30
0.0
 40
0.118526357723411
 50
19.3793923044014917
 51
87.5666683631291392
  0
ARC
  5
10DF7
  8
0
 10
4061.915660117419975
 20
130.8802093010509964
 30
0.0
 40
0.1262940245677988
 50
1.5376328297051911
 51
19.3793923044022591
  0
LINE
  5
10DF8
  8
0
 10
4062.0419086655151659
 20
130.883598216094299
 30
0.0
 11
4062.0931738060930911
 21
121.5425131582718024
 31
0.0
  0
ARC
  5
10DF9
  8
0
 10
4024.5877282367468979
 20
115.6836856549622041
 30
0.0
 40
37.6194665272544384
 50
3.522591430358708
 51
3.8156185617245599
  0
ARC
  5
10DFA
  8
0
 10
4061.6644760212839174
 20
117.3500209093525939
 30
0.0
 40
0.4730495560949474
 50
349.0266988029795243
 51
355.5795722896834263
  0
ARC
  5
10DFB
  8
0
 10
4062.0492914453730009
 20
117.2868756203722
 30
0.0
 40
0.0840082597704549
 50
295.379056494368001
 51
341.3242708408503177
  0
LINE
  5
10DFC
  8
0
 10
4061.4682163722291079
 20
117.210972668278103
 30
0.0
 11
4061.4674315324218696
 21
117.1884977959146994
 31
0.0
  0
ARC
  5
10DFD
  8
0
 10
4061.4500608426110375
 20
117.1891043937457937
 30
0.0
 40
0.017381278015149
 50
290.8142287546424996
 51
358.0000000780977985
  0
ARC
  5
10DFE
  8
0
 10
4061.0157382036231866
 20
118.2482409150754989
 30
0.0
 40
1.162105348166002
 50
247.6987428977201944
 51
292.275001970423375
  0
ARC
  5
10DFF
  8
0
 10
4060.5809291851292073
 20
117.1893006702045028
 30
0.0
 40
0.0173782198456662
 50
182.6480090420479883
 51
249.159516113510108
  0
LINE
  5
10E00
  8
0
 10
4060.5635695215942178
 20
117.1884977960065015
 30
0.0
 11
4060.5625299721309602
 21
117.2109748278443959
 31
0.0
  0
LINE
  5
10E01
  8
0
 10
4061.4674315324218696
 20
117.1884977959145999
 30
0.0
 11
4060.56356952159922
 21
117.1884977959145999
 31
0.0
  0
ARC
  5
10E02
  8
0
 10
4060.4706028349341977
 20
117.0741737025283982
 30
0.0
 40
0.4102249611886351
 50
160.5199689144614013
 51
176.7575738260061087
  0
ARC
  5
10E03
  8
0
 10
4060.0490562170411977
 20
117.0981369125425999
 30
0.0
 40
0.0120024838641312
 50
270.7974598360927985
 51
356.3669427983969058
  0
LINE
  5
10E04
  8
0
 10
4060.0509335978349554
 20
117.086135591214699
 30
0.0
 11
4060.0501084426368834
 21
117.0625135529401035
 31
0.0
  0
ARC
  5
10E05
  8
0
 10
4060.0327362379198348
 20
117.0631203915568932
 30
0.0
 40
0.0173828004030615
 50
321.8659404470968752
 51
357.9993811672819106
  0
ARC
  5
10E06
  8
0
 10
4058.8525573083579729
 20
117.0719977032506023
 30
0.0
 40
0.283794866981013
 50
5.097322278140842
 51
29.3228600204580516
  0
ARC
  5
10E07
  8
0
 10
4059.1473747236627787
 20
117.098295568599795
 30
0.0
 40
0.0121931160332331
 50
185.0973222781408083
 51
265.7748115825181117
  0
LINE
  5
10E08
  8
0
 10
4059.1454217868358683
 20
117.086135591214699
 30
0.0
 11
4059.1462466869347736
 21
117.0625135440147062
 31
0.0
  0
ARC
  5
10E09
  8
0
 10
4061.1391304654430314
 20
116.4842764328365945
 30
0.0
 40
2.6160360043184911
 50
83.2135578064232249
 51
89.3834137247480527
  0
ARC
  5
10E0A
  8
0
 10
4061.296353618581179
 20
117.8054483749947963
 30
0.0
 40
1.2855419529868799
 50
67.1957295337963956
 51
83.2135578064232249
  0
ARC
  5
10E0B
  8
0
 10
4061.6095885541540156
 20
118.5504493992413018
 30
0.0
 40
0.4773695388375633
 50
40.0530364914375099
 51
67.1957295337963956
  0
ARC
  5
10E0C
  8
0
 10
4061.6067147603180274
 20
118.5480334632205057
 30
0.0
 40
0.4811239279853309
 50
13.3285545940907895
 51
40.0530364914375099
  0
ARC
  5
10E0D
  8
0
 10
4060.0826452323299236
 20
118.2840089060304933
 30
0.0
 40
2.0272090077576048
 50
2.5786532024130699
 51
10.6584478991224305
  0
ARC
  5
10E0E
  8
0
 10
4067.3704723383480086
 20
118.7282398954516935
 30
0.0
 40
5.2744982004851613
 50
183.8377088886597051
 51
185.8885788759035051
  0
ARC
  5
10E0F
  8
0
 10
4240.0657099076879604
 20
121.489425718992095
 30
0.0
 40
177.9725440193242036
 50
179.9829092387385003
 51
181.0631965918919946
  0
ARC
  5
10E10
  8
0
 10
4059.1633260767130196
 20
117.0631119020540041
 30
0.0
 40
0.017089867978801
 50
182.0064753400386053
 51
218.8726448899822969
  0
LINE
  5
10E11
  8
0
 10
4060.0509335978349554
 20
117.086135591214699
 30
0.0
 11
4059.1454217868358683
 21
117.086135591214699
 31
0.0
  0
LINE
  5
10E12
  8
0
 10
4047.2964580840957751
 20
117.9951044604147938
 30
0.0
 11
4047.2964580840957751
 21
117.3149123594463958
 31
0.0
  0
LINE
  5
10E13
  8
0
 10
4062.1361184139700526
 20
117.9951044604151065
 30
0.0
 11
4062.1361184139700526
 21
117.3135608497981934
 31
0.0
  0
LINE
  5
10E14
  8
0
 10
4048.1549632887608823
 20
111.0372715258196052
 30
0.0
 11
4048.1962149783012137
 21
111.0438451734847973
 31
0.0
  0
LINE
  5
10E15
  8
0
 10
4048.138112754993017
 20
111.0178095265440987
 30
0.0
 11
4048.4141799395310954
 21
109.2854018414348047
 31
0.0
  0
LINE
  5
10E16
  8
0
 10
4048.4362449747090977
 20
109.2721412182401934
 30
0.0
 11
4048.4774968026508759
 21
109.2787148879558998
 31
0.0
  0
LINE
  5
10E17
  8
0
 10
4048.351786846531013
 20
109.4801426363146959
 30
0.0
 11
4048.1393386304312116
 21
110.8133214523146961
 31
0.0
  0
LINE
  5
10E18
  8
0
 10
4048.1526537203908447
 20
110.4543079515683957
 30
0.0
 11
4048.2522410696301449
 21
109.8293663576146031
 31
0.0
  0
LINE
  5
10E19
  8
0
 10
4048.2522410696301449
 20
109.8293663576146031
 30
0.0
 11
4048.3385441081018143
 21
109.4951051828732034
 31
0.0
  0
LINE
  5
10E1A
  8
0
 10
4048.347334846630929
 20
109.4895593630146067
 30
0.0
 11
4048.3502131560308044
 21
109.4900180350146996
 31
0.0
  0
ARC
  5
10E1B
  8
0
 10
4048.3460957204501938
 20
109.4973352677024963
 30
0.0
 40
0.0078740159642378
 50
196.4525244952550054
 51
279.0542176152993079
  0
LINE
  5
10E1C
  8
0
 10
4048.1526537203908447
 20
110.4543079515683957
 30
0.0
 11
4048.1314024104999589
 21
110.794983940184693
 31
0.0
  0
LINE
  5
10E1D
  8
0
 10
4048.1380340115479157
 20
110.8029873817027067
 30
0.0
 11
4048.1409123209059544
 21
110.8034460537659953
 31
0.0
  0
ARC
  5
10E1E
  8
0
 10
4048.1392731379241923
 20
110.7952114773070065
 30
0.0
 40
0.0078740157066367
 50
99.0542193596679255
 51
181.655918957653995
  0
LINE
  5
10E1F
  8
0
 10
4048.1393386304312116
 20
110.8133214523146961
 30
0.0
 11
4048.138112754993017
 21
111.0178095265440987
 31
0.0
  0
ARC
  5
10E20
  8
0
 10
4048.1581106696789902
 20
111.0175207286067973
 30
0.0
 40
0.0199999999009425
 50
99.054219159335517
 51
179.1726260944612932
  0
LINE
  5
10E21
  8
0
 10
4048.2390744445301607
 20
110.835362280614703
 30
0.0
 11
4048.2296711354920262
 21
110.8338974584855947
 31
0.0
  0
LINE
  5
10E22
  8
0
 10
4048.2390744445301607
 20
110.835362280614703
 30
0.0
 11
4048.4533983626311056
 21
109.4901873118146938
 31
0.0
  0
LINE
  5
10E23
  8
0
 10
4048.4533983626311056
 20
109.4901873118146938
 30
0.0
 11
4048.4440406453859396
 21
109.488662603429205
 31
0.0
  0
LINE
  5
10E24
  8
0
 10
4048.351786846531013
 20
109.4801426363146959
 30
0.0
 11
4048.4141799395310954
 21
109.2854018414348047
 31
0.0
  0
ARC
  5
10E25
  8
0
 10
4048.433097593752791
 20
109.2918920155329943
 30
0.0
 40
0.020000000027458
 50
198.935812662077808
 51
279.0542189562589783
  0
LINE
  5
10E26
  8
0
 10
4049.3931174313870542
 20
103.3930254963849933
 30
0.0
 11
4049.5584029319920774
 21
102.355807428945198
 31
0.0
  0
LINE
  5
10E27
  8
0
 10
4049.5723402310309211
 20
102.3435963793146044
 30
0.0
 11
4049.5830544679301966
 21
102.3409992289544022
 31
0.0
  0
ARC
  5
10E28
  8
0
 10
4051.8895255617180737
 20
103.2590611499359028
 30
0.0
 40
2.4999999998607141
 50
176.9282921063048093
 51
201.1801464122893037
  0
LINE
  5
10E29
  8
0
 10
4049.4025691025308333
 20
103.4089637241145994
 30
0.0
 11
4049.4119452655208988
 21
103.4147622991584967
 31
0.0
  0
ARC
  5
10E2A
  8
0
 10
4049.4130886962780096
 20
103.3919537817408951
 30
0.0
 40
0.0199999998039837
 50
121.7342191125449062
 51
176.9282929337192911
  0
ARC
  5
10E2B
  8
0
 10
4049.5770519132961454
 20
102.363033458900901
 30
0.0
 40
0.0200000003154414
 50
201.1801466376363123
 51
256.373943473639315
  0
LINE
  5
10E2C
  8
0
 10
4049.5226789241469305
 20
102.7198744054184942
 30
0.0
 11
4049.531497223731094
 21
102.7212796423146983
 31
0.0
  0
LINE
  5
10E2D
  8
0
 10
4049.531497223731094
 20
102.7212796423146983
 30
0.0
 11
4049.4811518918309048
 21
103.0372944326147007
 31
0.0
  0
LINE
  5
10E2E
  8
0
 10
4049.4811518918309048
 20
103.0372944326147007
 30
0.0
 11
4049.47232080369713
 21
103.0358871578780935
 31
0.0
  0
LINE
  5
10E2F
  8
0
 10
4060.0394590666787735
 20
103.3930254963849933
 30
0.0
 11
4059.8741735660742052
 21
102.355807428945198
 31
0.0
  0
LINE
  5
10E30
  8
0
 10
4059.8602362670349066
 20
102.3435963793146044
 30
0.0
 11
4059.849522030136086
 21
102.3409992289544022
 31
0.0
  0
ARC
  5
10E31
  8
0
 10
4057.5430509363482088
 20
103.2590611499359028
 30
0.0
 40
2.4999999998607141
 50
338.819853587709872
 51
3.071707893695192
  0
LINE
  5
10E32
  8
0
 10
4060.0300073955349944
 20
103.4089637241145994
 30
0.0
 11
4060.0206312325449289
 21
103.4147622991584967
 31
0.0
  0
ARC
  5
10E33
  8
0
 10
4060.0194878017878182
 20
103.3919537817408951
 30
0.0
 40
0.0199999998039837
 50
3.0717070662807089
 51
58.2657808874551009
  0
ARC
  5
10E34
  8
0
 10
4059.8555245847687729
 20
102.363033458900901
 30
0.0
 40
0.0200000003154414
 50
283.626056526360685
 51
338.8198533623636877
  0
LINE
  5
10E35
  8
0
 10
4059.9098975739188973
 20
102.7198744054184942
 30
0.0
 11
4059.9010792743351885
 21
102.7212796423146983
 31
0.0
  0
LINE
  5
10E36
  8
0
 10
4059.9010792743351885
 20
102.7212796423146983
 30
0.0
 11
4059.951424606234923
 21
103.0372944326147007
 31
0.0
  0
LINE
  5
10E37
  8
0
 10
4059.951424606234923
 20
103.0372944326147007
 30
0.0
 11
4059.9602556943691525
 21
103.0358871578780935
 31
0.0
  0
ENDSEC
  0
EOF
